Tag: our

Welcome To Our World chords – Chris Rice Vsion 2

 Just in time for Christmas!  This is probably my favorite song of the season (and possibly my favorite song).
Take your time while playing it; let it rise and fall and enjoy the pauses between phrases.

Looking forward to any advice or comments you have!  Enjoy!


Title: Welcome to Our World
Key: E

 E E/G# B/A A E/B B E Esus E E/G# B/A              
Tears are falling,  
 B/A A              
hearts are breaking,
 E/B C#m F#/A# 
How we need to hear from God
 C#m E/B B/A A    
You've been promised, we've been waiting 
 E/B G#7/C C#m A B E Esus    
Welcome Holy Child, Welcome Holy Child

 E E/G# B/A A 
Hope that You don't mind our manger
 E/B C#m F#/A# 
How I wish we would have known
     C#m E/B B/A A 
But long-awaited  Holy Stranger
 E/B G#7/C C#m A          
Make Yourself at home,    
 A B E Esus 
Please make Yourself at home

 E E/G# B/A A 
Bring Your peace into our violence
 E/B C#m F#/A# 
Bid our hungry souls be filled
 C#m E/B B/A A 
Word now breaking Heaven's silence
 E/B G#7/C C#m A B E Esus       
Welcome to our world,    Welcome to our world

 F F/A C/Bb Bb 
Fragile finger  sent to heal us
 F/C Dm G/B 
Tender brow prepared for thorn
 Dm F/C C/Bb Bb 
Tiny heart whose blood will save us
 F/C A7/C# Dm Bb C F Fsus    
Unto    us  is born,  Unto us is born


    F F/A C/Bb Bb 
So wrap our injured flesh around You
 F/C Dm G/B 
Breathe our air and walk our sod
 Dm F/C C/Bb Bb 
Rob our sin and make us Holy
 F/C A7/C# Dm Bb C Dm     
Perfect Son of God,     Perfect Son of God
 Bb C F 
Welcome to our world


***Major Rob Music***

Our Movie chords – Glen Campbell

 Our Movie
Glen Campbell
album Still Within The Sound Of My Voice


Intro   G A F#m G Em7 B 

Verse 1

 B E 
Lets make a movie
 C#m7 A 
All about you and all about me
 A7 D 
The story of our lives
 Bm7 
Directed by two
 G Em7 
Produced for free
               F#m7 A 
We don't need no parts
         F#m Em7 
You see it's written in our hearts
     A A7 G 
Our movie
               A F#m7 G 
And the music for our movie
       A F#m7 B G 
Sweet sound off the rad..io
       A F#m D 
No ending to our movie
 G D 
We'll put on quite a show
               G 
Sweet darlin'
                                 D A Em7 
Just the nights and then the action flows
                G   
Just the nights



 B E 
My life was a movie
           C#m7 
I've been searchin' for you
          G A 
Through scene after scene
                     A7 F#m7   
I've been searchin' all my life
     Bm7 G Em7 
For unfocused love on busy screen
                   F#m7 D F#m7 
And we don't need no cameras
               Em7 A A7 
No cameras on our, it's our movie
  G A F#m7 G 
And the music for pur movie
       A F#m7 B G 
Sweet sounds of the rad..io
     F#m7 G 
No ending to our movie
                      F#m7          
We'll put on quite a show sweet darlin'
 Em7 A           
So just relax and let the action flow
 Em7 F#m7 G        
just relax and let the action flow
 Em7 F#m7 G A 
just relax and let the action flow
        D G 
Let it flow   
        Bm7 Em7 D G 
Let it flow
        D G 
Let it flow
 A Bm7 F#m7 Em7 G D 
Let it flow

flyinglibra51
God Bless Glen Travis Campbell

Blank Space chords – Our Last Night V2

 E 
Nice to meet you, where you been?

I could show you incredible things
 C#m7 
Magic, madness, heaven, sin

Saw you there and I thought
 A 
Oh my God, look at that face

You look like my next mistake
 B 
Love's a game, wanna play?


 E 
New money, suit and tie

I can read you like a magazine
 C#m7 
Ain't it funny, rumors fly

And I know you heard about me
 A 
So hey, let's be friends

I'm dying to see how this one ends
 B 
Grab your passport and my hand

I can make the bad guys good for a weekend


 C#m7 
So it's gonna be forever

Or it's gonna go down in flames
 A 
You can tell me when it's over

If the high was worth the pain
 F#m 
Got a long list of ex-lovers

They'll tell you I'm insane
 A 
'Cause you know I love the players

And you love the game


 C#m7 
'Cause we're young and we're reckless

We'll take this way too far
 A 
It'll leave you breathless

Or with a nasty scar
 F#m 
Got a long list of ex-lovers

They'll tell you I'm insane
 A 
But I've got a blank space, baby

And I'll write your name


 E E 
Cherry lips, crystal skies

I could show you incredible things
 C#m7 
Stolen kisses, pretty lies

You're the King, baby, I'm your Queen
 A 
Find out what you want

Be that girl for a month
 B 
Wait, the worst is yet to come, oh no


 E 
Screaming, crying, perfect storms

I can make all the tables turn
 C#m7 
Rose garden filled with thorns

Keep you second guessing like
 A 
"Oh my God, who is she?"

I get drunk on jealousy
 B 
But you'll come back each time you leave

'Cause, darling, I'm a nightmare dressed like a daydream


 E 
So it's gonna be forever

Or it's gonna go down in flames
 C#m7 
You can tell me when it's over

If the high was worth the pain
 F#m 
Got a long list of ex-lovers

They'll tell you I'm insane
 A 
'Cause you know I love the players

And you love the game


 E 
'Cause we're young and we're reckless

We'll take this way too far
 C#m7 
It'll leave you breathless

Or with a nasty scar
 F#m 
Got a long list of ex-lovers

They'll tell you I'm insane
 A 
But I've got a blank space, baby

And I'll write your name


 E 
Boys only want love if it's torture
 E 
Don't say I didn't say, I didn't warn ya
 E 
Boys only want love if it's torture
 A 
Don't say I didn't say, I didn't warn ya


 E 
So it's gonna be forever

Or it's gonna go down in flames
 C#m7 
You can tell me when it's over

If the high was worth the pain
 F#m 
Got a long list of ex-lovers

They'll tell you I'm insane
 A 
'Cause you know I love the players

And you love the game


 E 
'Cause we're young and we're reckless

We'll take this way too far
 C#m7 
It'll leave you breathless

Or with a nasty scar
 F#m 
Got a long list of ex-lovers

They'll tell you I'm insane
 A 
But I've got a blank space, baby

And I'll write your name

Our God Reigns chords – Israel And New Breed

 ==========================================================================================

Title: Our God Reigns
Artist: Israel and New Breed
 Covered: Alive in Asia [2015]

==========================================================================================

CAPO 4 (Key: B)

[Intro]
 G  -  C G D  -  C G G  -  C G D  -  C G 

[Verse 1]
 G D 
Our God is great and glorious
 D C G 
We put our trust in Your name, Jesus
 G Em D 
Able to save and deliver us
 D C G 
We put our hope in Your name, Jesus

[Pre-Chorus]
 C 
Blessing and honor
 Em 
Glory and power
 G 
Unto our God
    D 
Forever and forever
 C 
All of the honor
 Em D 
All of the praise is Yours
               C 
Yours forever

[Chorus]
 Em D/F# G C 
Hal - le - lu - jah
 Em D/F# G C G D 
Hal - le - lu - jah, Our God reigns
 Em D/F# G C 
Hal - le - lu - jah
 Em D/F# G C G D 
Hal - le - lu - jah, Our God reigns

[2X Hook]
 C G Em 
  Oooh oh, ooooh oh
      C 
Oooh oh oh, ooooh
 C G Em 
  Oooh oh, ooooh oh
      C 
Oooh oh oh, ooooh

[Verse 2]
 G D 
Our God is mighty and marvelous
 D C G 
We put our trust in Your name, Jesus
         G G Em D 
There's nothing to fear, You are here with us
 D C G 
We put our hope in Your name, Jesus

[Pre-Chorus]
 C 
Blessing and honor
 Em 
Glory and power
 G 
Unto our God
    D 
Forever and forever
 C 
All of the honor
 Em D 
All of the praise is Yours
               C 
Yours forever

[Chorus]
 Em D/F# G C 
Hal - le - lu - jah
 Em D/F# G C G D 
Hal - le - lu - jah, Our God reigns
 Em D/F# G C 
Hal - le - lu - jah
 Em D/F# G C G D 
Hal - le - lu - jah, Our God reigns

[Bridge]
 C 
  Our God is in control
 Em 
  Steadfast, unmovable
 C 
  Nothing's impossible
 G D 
Our God reigns forever

 Am7 
  Our God is in control
 Em 
  Steadfast, unmovable
 C 
  Nothing's impossible
 Dsus4 D C 
Our    God reigns

[Chorus]
 Em D/F# G C 
Hal - le - lu - jah
 Em D/F# G C G D 
Hal - le - lu - jah, Our God reigns
 Em D/F# G C 
Hal - le - lu - jah
 Em D/F# G C G D 
Hal - le - lu - jah, Our God reigns

[Bridge]
 Am7 
  Our God is in control
 Em 
  Steadfast, unmovable
 C 
  Nothing's impossible
 G D 
Our God reigns forever

 Am7 
  Our God is in control
 Em 
  Steadfast, unmovable
 C

Our Place chords – Maia Vidal

 D G D G D G 
Dear Jonathan 
 D G 
I'm falling in Love
 D 
My heart has got a beat 
 G 
It's beating the drums 

 D G D G 
He's not like the rest 
 D G 
He's got something else 
 D 
And though I can't describe 
 G 
I know it makes smile 

 D G Em A 
I'd like to stay here 
          D 
For a while 
 G D 
And go wild 
 Em A  
You'll call me crazy 
              D 
But I don't care 
 G D 
'Cause I know where 

 D 
Where I go where I go, 
 G A D 
You're gonna take me 
 D 
Where I go where I go, 
 G A D 
You're gonna take me 
 D Dsus4 D G 
Take me for a ride, 
        A D A G A 
And I'll be by your side 

 Em A 
Just let me stay here 
            D 
A little while 
 G D 
We'll go wild 
 Em A 
They'll call us crazy 
              D 
But I don't care 
 G D 
'Cause I'll be where you are 

 D A Em A D A Em D G 
This all happened fast 
 D G 
But I know how I feel 
 D 
Like you were the sand
 G 
And I was the sea 

 Em A 
I say we stay here 
          D 
For a while 
 G D 
And go wild 

 Em A 
Let em call us crazy 
            D 
We don't care 
 G D 
We know where 

 D 
Where I go where I go, 
 G A D 
You're gonna take me 
 D 
Where I go where I go, 
 G A D 
You're gonna take me 

 D Dsus4 D G 
Take me for a ride, 
      A D A G A 
And I'll be by your side 

 D 
Where I go where I go,
 G A 
You're gonna take me 
 D 
Where I go where I go, 
 G A 
You're gonna take me 
 D Dsus4 D G 
Take me for a ride, 
      A D A G A 
And I'll be by your side 
 Em A 
I say we stay here 
          D 
For a while 
 G D 
And go wild 
 Em A 
Let em call us crazy 
            D 
We don't care 
 G D 
We know where weʼll be 
 D A Em A D 
I know you are there for me 
 D A Em A D 
I know where I'll be 
 D A Em A D 
There's a place for you and me 
 D A Em A D 
There's a place for you and me


 D A Em A D

In Our Prime Tabs – Black Keys

 Hi, so I couldn't find a good tab of this anywhere, which is surprising since its SUCH a good song.
Any ways, I'm only really not 100% on a couple of the chords, but everything else should be fine hopefully.

I also apologize for not being able to incorporate the timings as well as I could have!

Intro - Lead guitar  (while the piano is playing)

e:----------------------------------------6~--------------------------------6~---|
B:--7/9--7-------------9-----------11-----7~--------9----9-----------11-----7~---|
G:---------8--6------8---8------10----10--8~--------8-8----8------10----10--8~---|
D:---------------8/9-------9/11-----------8~--------9--------9/11-----------8~---|
A:-------------------------------------------------------------------------------|
E:-------------------------------------------------------------------------------|

First section of the song

The acoustic guitar plays the chords B major, C# major, and D# minor as below:

B                 C#          D#m

"Pour me down the drain, I disappear"

etc

and the lead guitar plays fills and picks the chords above, as follows (included the times if it helps):

Fill 1 (0:34)                                         Fill 2 (0:41)

e:--6h9p6--------------------|-------------------6--|-6-9-6----------|
B:--------7h9p7-----7--------|-------------11----7--|-------9-7--9-7-|
G:--------------6h8---8p6----|----------10-------8--|----------------|
D:------------------------9~-|---9/11------------8--|----------------|
A:---------------------------|----------------------|----------------|
E:---------------------------|----------------------|----------------|

Then for the rest of the first part of the song, the lead guitar will pick slightly varying patterns of 

e:-------------------------6~-|
B:------9-----------11-----7~-|
G:----8---8------10----10--8~-|
D:--9-------9/11-----------8~-|
A:----------------------------|
E:----------------------------|

While playing licks after the D# minor chord is played

Fill 3 (0:49)                  Fill 4 (0:54)             Fill 5 (1:03)       Fill 6 (1:08)

e:--6h9p6--------------------|------6--6--6-------------|-------------------|--6-----|
B:--------7h9p7-----7--------|----7----------7p6---6----|------7~--7h9p7----|----7---|
G:--------------6h8---8p6----|--8----------------8---8--|-----------------8-|------8-|
D:------------------------9~-|--------------------------|--6h8--------------|--------|
A:---------------------------|--------------------------|-------------------|--------|
E:---------------------------|--------------------------|-------------------|--------|


Second Part

Here I wasn't actually able to hear the lead guitar very well, but from what I did hear, it basically
sounded like the guitarist was just picking the chords that the acoustic guitar was playing, but in 
different patterns and variations. Either way, I apologize again.

A# minor is strummed for 2 bars i think, and then 

A#m                         G#m                              D#m 

"Every now and then, I see a face from way back when, and I explode"

A#m                             G#m                            F#                    A# / A#7

"Friends no longer aid me, only bullshit serenade me like it's gold, how that we're told" 

This part of the song transitions to the next with a strum of the D# minor chord.



Third Part

Again I apologize I couldn't hear the lead guitar too well, and so I didn't manage to tab it out

B major, C# major, and D# minor are played three times through, and then G# minor, A# minor, A# major and 
A# major 7 is played once through, then

B                 C#            D#m

"Like every lover hovers in my mind" 

etc; then

    G#m             A#m              A#m      /  A#7

"We had it all when we were in our prime"


Outro Solo (everything should be fine except for the note marked with *, not entirely sure if thats correct)

e:------------------------------------------------------------------------------------|

Dont Tell Our Friends About Me chords – Blake Mills V2

 Standard Tuning

Capo: 3


 G G/F# Cadd9 D G G/F# Cadd9 D   
The older I am, the wiser I'm not
 G G/F# Cadd9 D   
and I felt ashamed of how angry I got
 G G/F# Cadd9 
when I was not getting my message across
 D Cadd9 
I know you can't stand me when that's how I talk
 D Cadd9 
when I summon a duel or when I brandish a thought
 G G/F# Cadd9 
I was wrong to turn honesty against you
 D Cadd9 
and sure, some of them could use a good talk


 G G/F# Cadd9 D   
but babe, don't tell all our friends about me
 G G/F# Cadd9 D   
Please, baby, don't tell our friends about me


 G G/F# Cadd9 D 
I'll sleep on the couch if you want me to
 G G/F# Cadd9 D 
or I can be a good dog and just sit with you
 G G/F# Cadd9 
Do whatever it is that you ask me to do
 D Cadd9 
'til you forgive me and I forgive you
 D Cadd9 
I know you got the beating but I caught a feeling
 G G/F# Cadd9 
Frankly, I don't know what else I can confess to you
 D Cadd9 
Lovers may quarrel and spar sometimes,


 G G/F# Cadd9 D   
but babe, don't tell all our friends about me
 G G/F# Cadd9 D   
Please, baby, don't tell our friends about me

Break: 

 Gsus G   Emsus             Em 
I know I fucked up, I know I fucked up,
 Cadd9 D 
I know I fucked up, I know I fucked up,
 Gsus G   Emsus             Em 
I know I fucked up, I know I fucked up,
 Cadd9 D 
I know I fucked up, I know I fucked up,
 G G/F# Cadd9 D  
but please, baby, don't tell all our friends about me


 G G/F# Cadd9 D 
You said you just needed some time to adjust
 G G/F# Cadd9 D 
It's been 48 hours and 3 weeks and 2 months
 G G/F# Cadd9 
and the hummingbirds hum, the workerbees buzz
 D Cadd9 
You put too much confidence in the people you trust
 D Cadd9 
Enemies or friends, they'll all tend to judge 
 G G/F# Cadd9 
and I'll write songs that'll help me deal with issues,
 D Cadd9 
and sometimes people will hear too much 


 G G/F# Cadd9 D 
But babe, they don't tell all our friends about us
 Cadd9 D 
No, mostly they'll just start to blush
 G G/F# Cadd9 D 
Please, baby, don't tell our friends about me
 G G/F# Cadd9 D 
Please, baby, don't tell our friends about me

Break:

 Gsus G   Emsus             Em 
I know I fucked up, I know I fucked up,
 Cadd9 D 
I know I fucked up, I know I fucked up,
 Gsus G   Emsus             Em 
I know I fucked up, I know I fucked up,
 Cadd9 D 
I know I fucked up, I know I fucked up,
 G G/F# Cadd9 D  
but please, baby, don't tell all o

Come Back Tabs by Death Is Our Destiny

         ########################
        # Death Is Our Destiny #
        #       Come Back      #
        ########################

        == Play in this order ==

Intro
Intro 2
Riff 1
Riff 2
Riff 1
Riff 2
Riff 3
Riff 2
Outro

        == Intro ==

e |-----------------------------------|
B |-----7-------7-------7-----9h7-----|
G |-8-------8-------8-------8-----8---|
D |---8---8---8---8---8---8---------8-|
A |-----------------------------------|
E |-----------------------------------|


        == Intro 2 ==

e |---------|
B |---------|
G |-8-8-8-8-|
D |-8-8-8-8-|
A |-6-6-6-6-|
E |---------|
    . . . .


        == Riff 1 ==

e |---------------------------------|
B |---------------------------------|
G |-8-8-8-8-8-8-8-8-6-6-6-6-4-4-----|
D |-8-8-8-8-8-8-8-8-6-6-6-6-4-4-4-4-|
A |-6-6-6-6-6-6-6-6-4-4-4-4-2-2-4-4-|
E |-----------------------------2-2-|
    . . . . . . . . . . . . . . . .


        == Riff 2 ==

e |-------------------------------------|
B |-------------------------------------|
G |-------------------------------------|
D |-6--------9--------4--------2--------| X2
A |-6--------9--------4--------2--------|
E |-4--------7--------2--------0--------|


        == Riff 3 ==

e |--------------------------------------|
B |--------------------------------------|
G |--------------------------------------|
D |-8--------11--------6--------4--------|
A |-8--------11--------6--------4--------|
E |-6--------9---------4--------2--------|


        == Outro ==

e |------------------|
B |------------------|
G |------------------|
D |-6----------------|
A |-6----------------|
E |-4----------------|

Bring Back The Sun Tabs by Our Lady Peace V3

 Our Lady Peace - Bring Back The Sun

 Andreas Schwarz

Eb-Tuning

INTRO:
                 
e|---------------------|---------------------|
B|---------------------|-------------------2-|
G|-----------2-2-2-4-1-|-----------2-2-2-4-1-|
D|-----0h4---4-4-4-4-2-|-----0h4---4-4-4-4-2-|
A|-0h4-------4-4-4-4-2-|-0h4-------4-4-4-4-2-|
E|--------2--2-2-2-2-0-|--------2--2-2-2-2-0-|
        
e|---------------------|-------------------------|
B|---------------------|-------------------2-0-0-|
G|-----------2-2-2-4-1-|-----------2-2-2-4-1-1-1-|
D|-----0h4---4-4-4-4-2-|-----0h4---4-4-4-4-2-2-2-|
A|-0h4-------4-4-4-4-2-|-0h4-------4-4-4-4-2-2-2-|
E|--------2--2-2-2-2-0-|--------2--2-2-2-2-0-0-0-|

VERSE:
         
e|---------------------|-----------------------0---|
B|---------------------|-------------------2-0---0-|
G|-----------2-2-2-4-1-|-----------2-2-2-4-1-------|
D|-----0h4---4-4-4-4-2-|-----0h4---4-4-4-4-2-------|
A|-0h4-------4-4-4-4-2-|-0h4-------4-4-4-4-2-------|
E|--------2--2-2-2-2-0-|--------2--2-2-2-2-0-------|

e|---------------------|--------------------------|
B|---------------------|-------------------2-2-0--|
G|-----------2-2-2-4-1-|-----------2-2-2-4-1-1-1--|
D|-----------4-4-4-4-2-|-----0h4---4-4-4-4-2-2-2--|
A|-----------4-4-4-4-2-|-0h4-------4-4-4-4-2-2-2--|
E|--------2--2-2-2-2-0-|--------2--2-2-2-2-0-0-0--|

e|---------------------|------------------------|
B|---------------------|-------------------2-0--|
G|-----------2-2-2-4-1-|-----------2-2-2-4-1-1--|
D|-----0h4---4-4-4-4-2-|-----0h4---4-4-4-4-2-2--|
A|-0h4-------4-4-4-4-2-|-0h4-------4-4-4-4-2-2--|
E|--------2--2-2-2-2-0-|--------2--2-2-2-2-0-0--|

e|---------------------|-----------------------0-|
B|---------------------|-------------------2-0---|
G|-----------2-2-2-4-1-|-----------2-2-2-4-1-1---|
D|-----0h4---4-4-4-4-2-|-----0h4---4-4-4-4-2-2---|
A|-0h4-------4-4-4-4-2-|-0h4-------4-4-4-4-2-2---|
E|--------2--2-2-2-2-0-|--------2--2-2-2-2-0-0---|

CHORUS:

e|-------0---------0---|-------0-------0-------|
B|--0-----0---0-----0--|--0-----0---0---0--0---|
G|---6-----6---6-------|---6-----4---4---4--4--|
D|----7-----7---7------|----6-----6---6---6--6-|
A|---------------------|-----------------------|
E|-5-------------------|-4---------------------|


e|--0--------0-------|-0-------0------0--------|
B|----0--0----0--0---|--0--0-0--0--0-0-0---0---|
G|-----2--2----2--2--|---1--1----1--1---1-1----|
D|------4--4----4--4-|----2-------2------2-----|
A|-------------------|-------------------------|
E|-(2)---------------|-------------------------|

repeat

SOLO:

e|------------------------------------------------------------------------|
B|-----------------------------7---7---7-7/9-7-5~--5-5\3-3\2-2---2-3-2----|
G|-1/6-6-6--6-6h7-7p6-6\4--4-4---4---4------------------------2-4-----4-2-|
D|------------------------------------------------------------------------|
A|------------------------------------------------------------------------|
E|------------------------------------------------------------------------|

e|--------------------|-------5----0-5b7r5-5-4~-4-4\2-2------|
B|--------------------|---------------------------------5-5--|
G|-2-2-2\1-1b2r1------|-4/6~-6-6-6---------------------------|
D|---------------2/4-2|--------------------------------------|
A|--------------------|--------------------------------------|
E|--------------------|--------------------------------------|

e|----------------------------------------------------------------|
B|-5-5b7-5-5b7-5-2b3-5-5b7-3-3\2-2h3-2p0--------------------------|
G|--------------------------------------2--2-1-2-1h2p1------------|
D|----------------------------------------------------2-----------|
A|-----------------------------------------------------2--2-2-----|
E|----------------------------------------------------------------|


Intro
Verse
Chorus
Verse
Chorus
Solo
Bridge (Same as Chorus)
Chorus
Outro

Love Will Be Our Home chords – Sandi Patty

 Love Will Be Our Home
Sandy Patti

*In Sandy Patti's original recording, there are two key changes during the song.  I've 
written this chord chart without the key changes to make it easier for guitarists to 
accompany singers in churches.

Capo 4

 C G/B Am G C G G/B C 
If home is really where the heart is
      F G C G 
Then home must be a place we all can share
     F G 
For even with our differences
     C G/B Am G 
Our hearts are much the same
     F G 
And where love is we come together there
     C G/B 
Wherever there is laughter ringing
 Am G 
Someone smiling, someone dreaming
 F Em 
We can live together there
 Dm G C 
Love will be our home
     C G/B 
Wherever there are children singing
 Am G 
Where a tender heart is beating
 F Em 
We can live together there
 Dm G C 
Love will be our home
      C G G/B C 
With love, our hearts can be a family
     F G C G 
And hope can bring this family face to face
     F G 
And though we may be far apart
     C G/B Am G 
Our hearts can be as one
       F G 
When love brings us together in one place
     C G/B 
Wherever there is laughter ringing
 Am G 
Someone smiling, someone dreaming
 F Em 
We can live together there
 Dm G C 
Love will be our home
       C G/B 
Where there are words of kindness spoken
 Am G 
Where a vow is never broken
 F Em 
We can live together there
 Dm G C 
Love will be our home
 G F C 
Love will, love will be our home
 G F C 
Love will, love will be our home
 G F C 
Love will, love will be our home
 G F Am G 
Love will, love will be our home
     C G/B 
Wherever there is laughter ringing
 Am G 
Someone smiling, someone dreaming
 F Em 
We can live together there
 Dm G C 
Love will be our home
     C G/B 
Wherever there are children singing
 Am G 
Where a tender heart is beating
 F Em 
We can live together there
 Dm G C 
Love will be our home
 G F C 
Love will, love will be our home
 G F C 
Love will, love will be our home
 G F C 
Love will, love will be our home
 G F Am G 
Love will, love will be our home
     C G/B 
Wherever there is laughter ringing
 Am G 
Someone smiling, someone dreaming
 F Em 
We can live together there
 Dm G Am 
Love will be our home
 Dm Em F G C 
Love will be our home

Stay Tabs by Our Last Night

 -------------------------------------------------------------------------------
                             Stay - Our Last Night
-------------------------------------------------------------------------------
: Kristyn Lee
 spot_the_village_loony_836@hotmail.com

Tuning:  standard 7 string

Intro/verse
e|----------------------------------------|
B|----------------------------------------|
G|----------------------------------------|
D|----------------------------------------|
A|---7-7-7/8--3-3-3-3-3-3-3-3-3-3-3-3-----|
E|---3-3-3/5--5-5-5-3-5-5-5-3-5-5-5-3-----|
B|---3-3-3/5--0-0-0-0-0-0-0-0-0-0-0-0-----|

 "all along it was a fever..."
e|----------------------------------------|
B|----------------------------------------|
G|----------------------------------------|
D|----------------------------------------|
A|---7-7-7/8--3-3-3-3-3-3-3-3-3-3-3-3-----|
E|---3-3-3/5--5-5-5-3-5-5-5-3-5-5-5-3-----|
B|---3-3-3/5--0-0-0-0-0-0-0-0-0-0-0-0-----|

 "a cold-sweat hot-headed believer..."
e|----------------------------------------|
B|----------------------------------------|
G|----------------------------------------|
D|----------------------------------------|
A|---7-7-7/8--3-3-3-3-3-3-3-3-3-3-3-3-----|
E|---3-3-3/5--5-5-5-3-5-5-5-3-5-5-5-3-----|
B|---3-3-3/5--0-0-0-0-0-0-0-0-0-0-0-0-----|

 "I threw my hands in the air I said show me something..."
e|----------------------------------------|
B|----------------------------------------|
G|----------------------------------------|
D|----------------------------------------|
A|---7-7-7/8--3-3-3-3-3-3-3-3-3-3-3-3-----|
E|---3-3-3/5--5-5-5-3-5-5-5-3-5-5-5-3-----|
B|---3-3-3/5--0-0-0-0-0-0-0-0-0-0-0-0-----|

 "she said if you dare come a little closer..."
e|----------------------------------------|
B|----------------------------------------|
G|----------------------------------------|
D|----------------------------------------|
A|---7-7-7/8--3-3-3-3-3-3-3-3-3-3-3-3-----|
E|---3-3-3/5--5-5-5-3-5-5-5-3-5-5-5-3-----|
B|---3-3-3/5--0-0-0-0-0-0-0-0-0-0-0-0-----|

  "round and around and around and around we go..."
e|-------------------------------------------|
B|-------------------------------------------|
G|-------------------------------------------|
D|-------------------------------------------|
A|---8-8-8-8-5-5-5-5-3-3-3-3-3-3-3-3---------|
E|---8-8-8-8-5-5-5-5-5-5-5-3-5-5-5-3---------|
B|---8-8-8-8-5-5-5-5-0-0-0-0-0-0-0-0---------|
   2nd guitar
e|--------------------------------------------------------------------------------|
B|---13------13-----13----15----15----15----13------13-----13-----13-----13-------|
G|-----14------14-----14----14----14-----14---14------14-----14-----14-----14-----|
D|--------15-----15-----------15----15-----------14------14-----14-----14----14---|
A|--------------------------------------------------------------------------------|
E|--------------------------------------------------------------------------------|
B|--------------------------------------------------------------------------------|
  "oh now, tell me now, tell me now, tell me now you know..."
e|----------------------------------------|
B|----------------------------------------|
G|---------------------------5-5-5-5------|
D|-------------------5-5-5-5-5-5-5-5------|
A|---8-8-8-8-5-5-5-5-5-5-5-5-5-5-5-5------|
E|---8-8-8-8-5-5-5-5-3-3-3-3-3-3-3-3------|
B|---8-8-8-8-5-5-5-5----------------------|

  2nd guitar
e|--------------------------------------------------------------------------------|
B|---13-----13----13---15----15-----15----12-----12------12----13-----13------13--|
G|-----14-----14----14---14----14-----14----14-----14-----14----14-----14--14-----|
D|-------15-----15---------15----15------------14-----14----14----14-----14-------|
A|--------------------------------------------------------------------------------|
E|---------------------------------------------------------------------------

Open Up Our Eyes chords – Praise And Worship

 Chords:
 G   3x0033
 C   x32033
 Em  022033
 D   xx0233

Intro:  G 

Verse 1:
 G 
Greater is the One Who's in us
 Em D 
Greater is the One Who calls our name
                C 
He will never fail

Verse 2:
 G                           
Stronger is the One within us
 Em D 
Stronger is the One Who fights for us
                C G 
He will never fail, You will never fail

Pre-Chorus:
           C G D 
For Your love endures forever
           C G D 
Oh, Your love endures forever

Chorus:
  C G 
Open up our eyes
      D Em 
Surround us with Your light
       C G D 
Your love endures forever

Interlude:  G 

Verse 3:
 G 
Mighty is the One Who's for us
 Em D 
Mighty is the One Who's strong to save
                 C G 
He will make a way, You will make a way

Pre-Chorus:
           C G D 
For Your love endures forever
           C G D 
Oh, Your love endures forever

Chorus:
  C G 
Open up our eyes
      D Em 
Surround us with Your light
       C G D 
Your love endures forever

Bridge[(2x) Second time do an extra line of "We are not alone!"]:
 Em C G D 
 Our God is fighting for us always!
 Em C G D 
 Our God is fighting for us all!
 Em C G D 
 Our God is fighting for us always!
 Em C G D 
We are not alone, we are not alone!

Pre-Chorus:
           C G D 
For Your love endures forever
           C G D 
Oh, Your love endures forever

Chorus:
  C G 
Open up our eyes
      D Em 
Surround us with Your light
       C G D 
Your love endures forever (Our God!)

Bridge("We are not alone!" 3x):
 Em C G D 
 Our God is fighting for us always!
 Em C G D 
 Our God is fighting for us all!
 Em C G D 
 Our God is fighting for us always!
 Em C G D 
We are not alone, we are not alone!

Outro(2x):

 Em - C - G - D 

End on C!

Our Story One Day At A Time chords – Graham Colton

 Intro:  G Em D C G Em 
So it didn't go to plan
                     D 
It's hard to understand
                         C 
But now I know this is just our story
 G Em 
I will set out on my way
                      D 
You're never in one place
                        C 
And now I can learn to walk before we,

 Am Em 
Run away to the sin,
            D 
It's just me
            D 
It's just you
                G 
One day at a time

                     Em 
When nothing's for sure
                        D 
We can throw the past away now
                            C 
Cause we don't need it anymore
                G 
One day at a time
                  Em D 
Cause I still believe that it's ours for the taking
                      C 
I know that we can make it one day
         G 
At a time

 Em D C G Em 
Yeah, we hear it from our friends
                         D 
They tell us how this ends
                              C 
But they don't know this is not their story
 G Em 
I know we will find a way
                  D 
We're gonna be okay

Cause I'm here
             C 
You don't need to worry

 Am Em 
Now all we should be
         D D 
Is just you and me
              G 
One day at a time

                    Em 
When nothings for sure
                         D 
We can throw the past away
                            C 
Cause we don't need it anymore
               G 
One day at a time
                  Em D 
Cause I still believe that it's ours for the taking
                         C 
And I know that we can make it
                          Em 
One day, One day at a time

                         D 
We'll flee the memories like the dark, the in between
 G C 
I want everything
     Em 
And love I know will carry us
        D 
With you I'll always have enough
 G C 
We'll work together through this life
               G 
One day at a time

 Em D C G Em 
So It didn't go to plan
                     D 
It's hard to understand
                         C 
But now I know this is just our story

              G 
One day at a time
                    Em 
When nothings for sure
                        D 
We can throw the past away now
                            C 
Cause we don't need it anymore

                            G 
We've got the rest of our lives
                Em D 
and I still believe that it's ours for the taking
                         C 
and I know we're gonna make it
                        G 
one day, one day at a time

 Em D C G 
one day at a time

How Great Is Our God chords – Praise And Worship

 Verse 1:

 D Bm7 
The splendor of the King, clothed in majesty,
                     G Asus           
Let all the earth rejoice, all the earth rejoice.
 D Bm7 
He wraps Himself in light, and darkness tries to hide,
                     G Asus 
And trembles at his voice, trembles at his voice.

Chorus:

 D D/C# 
How great is our God, sing with me,
     Bm7 
How great is our God, all will see,
     G Asus D (hold)
How great, how great is our God.

Verse 2:(same as first Verse)
 D Bm7 
Age to age He stands, and time is in His hands,
                   G Asus 
Beginning and the end, beginning and the end.
     D Bm7 
The Godhead, three in one: Father, Spirit, Son,
                  G A 
The Lion and the Lamb, the Lion and the Lamb.

Bridge:

 D D/C# 
Name above all names,
 Bm7 
Worthy of all praise,
     G 
My heart will sing
      Asus D (hold)
How great is our God.

How Great Is Our God chords – Chris Tomlin V11

 Song Name: How Great Is Our God (with How Great Thou Art)
Arrangement: Passion: How Great Is Our God

Chorded by: Worship Tutorials
email: brian@worshiptutorials.com

INTRO:
 G  / / / |  G  / / / |  G  / / / |  G  / / / |

VERSE 1:
      G Em 
The splendor of a King, clothed in majesty 
                     C 
Let all the earth rejoice, all the earth rejoice 
     G Em 
He wraps himself in Light, and darkness tries to hide 
                         C 
And trembles at His voice, trembles at His voice 

CHORUS:
      G                        
How great is our God, sing with me 
      Em 
How great is our God, and all will see
      C D G  / / / |  G  / / / |
How great, how great is our God 

VERSE 2:
Age to age He stands, and time is in His hands 
Beginning and the end, beginning and the end 
The Godhead Three in One, Father, Spirit, Son 
The Lion and the Lamb, the Lion and the Lamb

REPEAT CHORUS

BRIDGE:
 G Em 
Name above all names, Worthy of our praise
     C D G  / / / |  G  / / / |
My heart will sing how great is our God
 G Em 
Name above all names, Worthy of our praise
     C D G  / / / |  G  / / / |
My heart will sing how great is our God

REPEAT CHORUS 2X

REFRAIN:
                G C G  / / / |  G  / / / |
Then sings my soul, my Savior God to Thee
               D G 
How great Thou Art, how great thou art
                G C G  / / / |  G  / / / |
Then sings my soul, my Savior God to Thee
               D G 
How great Thou Art, how great thou art

Our King Has Come chords – Praise And Worship

 Verse 1:
  G 
Come, come rejoice this day
                    C Em D 
Come and see the promised One, the love of God displayed

Verse 2:
Sing, sing the angels song
Joining, singing, holy is the Lord our God, who sings

Chorus 1:
                      C D 
Let all the earth rejoice, let all the earth rejoice
            C G D 
O let us adore Christ the Lord, Christ the Lord

Verse 3:
Praise, praise His holy name
Jesus, our Emmanuel, Messiah, Prince of Peace

Bridge:
 C G D 
For the Lord has done great things, for the Lord has done great things
 Em 
Oh how my soul will sing
 C G D 
For the Lord has done great things, for the Lord has done great things 

Chorus 2:
Praise the Holy One, Christ our King has come
O let us adore Christ the Lord, Christ the Lord

Our God Is Love chords – Praise And Worship

 Verse 1:
 E 
Every soul, every beating heart
 B 
Every nation, and every tongue
 C#m B A 
Come find hope in the love of the Father
 E 
All creation will bow as one
 B 
Let them rise, see the risen Son
 C#m B A 
Jesus Saviour, forever and after

Chorus:
         E B 
This is love
      C#m             
Jesus came and died and
 A E B 
Gave His life for us
        C#m 
Let our voices rise and 
 A C#m 
Sing for all He's done
 B A 
Our fear is overcome
           C#m A B 
Our God is love
           C#m A B 
Our God is love

Verse 2 (as verse 1) :
Every distant and broken heart
Every prayer, every outstretched arm
Finding hope in the love of the Father
Age to age let His praises rise
All the glory for all of time
Jesus Saviour, forever and after

Chorus


Bridge:
 A E B 
Age to age, we will be singing
        C#m A 
In the Light of all He's done
            E B 
All the earth, everyone singing
         C#m A 
In the wonder of His love
             E B 
Age to age, we will be singing
        C#m A 
In the Light of all He's done
             C#m B 
All the earth, everyone singing


Chorus

Our God Is Greater chords – Praise And Worship

 Intro:  E C G D  (2x)

 Pro-tip: To give the song more drive, play the notes about 8 times a measure (half notes)

Verse 1:
 E C G 
Water You turned into wine
 E C G  
Opened the eyes of the blind
                A 
There's no one like You
           D 
None like You

 E C G 
Into the darkness You shine
 E C G 
Out of the ashes we rise
                 A 
There's no one like You
           D 
None like You

Chorus:
 E 
Our God is greater
 C 
Our God is stronger 
 G D 
God You are higher than any other
 E 
Our God is healer
 C 
Awesome in power
      G D 
Our God, Our God

Verse 2:
 E C G 
Into the darkness You shine
 E C G 
Out of the ashes we rise 
                A 
There's no one like You
           D 
None like You

(Chorus)

Bridge (2x):

 E 
And if our God is for us
 C 
Then who could ever stop us
 G 
And if our God is with us
 D 
Then what could stand against

Instant Repeater 99 chords – The Soundtrack Of Our Lives

 An easier way to play it and a few changes from existing version. Great song!

Please rate/comment/correct. =)

Capo on 2nd fret.


Intro:  D D A G  ,  D D A G D A G D A D G G A A  ,  G G A A 
  Here's a way to take you down. Another statement of our time.
 D A G D A D G G A A  ,  G G A A 
  Here's a way to let it roll, and it's a way to lose control.
 D A G D A D G G A A  ,  G G A A 
  It's not a way to draw the line, it's just a way to say goodbye.

 Em G A D D A G  ,  D D A G  
  Here's a way for a new age, another way to catch your eye.
 Em G A D D A G  ,  D D A G  ,
  Instant repeater '99, we're all rewinding to get high.

 Em Em Em Em  ,  G G A A D A G D A D G G A A  ,  G G A A 
  Well, here's a way to let it go, of all the things you ought to know.
 D A G D A D G G A A  ,  G G A A 
  Nobody wants to have you near, 'cause no one listens to your fears.

 Em G A D D A G  ,  D D A G  
  We took you serious for a while, but now we hate to see you smile.
 Em G A D D A G  ,  D D A G  
  A true reminder to get by, instant repeater '99.

 Em G A Em G A 
  I'm ready to close my eyes.   I'm ready to blow my mind.
 Em G A A# C D D 
  I'm ready to leave you all behind.

END