Tag: over

Start Over Acoustic chords by New Hope Club

[Intro]
F# C# B   B C#
F# C# B   B C#
[Verse 1: Blake]
F#             C#
Don't you hang up on me
B          B        C#        F#   C# B      B C#
I know you probably think I'm mad, oh no
F#            C#             B           B       C#      F#    C# B    B C#
But I haven't been to sleep, thinking of ways to get you back, oh no


[Pre-Chorus: George]
        F#   C# B                 B         C#    F#      C#
And I wonder,   if I'm in trouble with your older brother
B                 B    C#      F#     C#
I don't think you even kept my number
B                B       C#  F#     C# B
If only we could do this all again (again)


[Chorus: Reece]
F#                                         A#m
I wouldn't spill that drink on your dress, wouldn't be so late
E                                     B
I would have paid the bill instead of splitting it two ways
         F#                           A#m
Would of told ya "you look beautiful" instead of "you look nice"
E                              B
Girl I couldn't be more stupid even if I tried
   Bm
Oh I wish we could start over again


[Verse 3: Blake]
F#        C#               B           B           C#       F#    C# B     B C#
I bet you told your friends it was the worst night of your life (oh yeah)
F#       C#            B           B           C#       F#     C# B
I wish I could pretend but we both know you're probably right (oh yeah)


[Pre-Chorus: George & Reece]
F#                C#  B                  B      C#    F#      C#
And if I'm honest,    a second date with you is all I wanted
    B             B       C#       F#      C#
And if I'm honest,    a second date with you is all I wanted
And I just hope I haven't gone and blown it
B                B       C#  F#     C# B
If only we could do this all again (again)

[Chorus: All,  Reece ]

F#                                         A#m
I wouldn't spill that drink on your dress, wouldn't be so late
E                                     B
I would have paid the bill instead of splitting it two ways
         F#                           A#m
Would of told ya "you look beautiful" instead of "you look nice"
E                              B
Girl I couldn't be more stupid even if I tried

F#                                         A#m
I wouldn't spill that drink on your dress, wouldn't be so late
E                                     B
I would have paid the bill instead of splitting it two ways
         F#                           A#m
Would of told ya "you look beautiful" instead of "you look nice"
E                              B
Girl I couldn't be more stupid even if I tried
   Bm
Oh I wish we could start over again


[Bridge: Reece]

        F#   C# B                 B         C#    F#      C#
And I wonder,   if I'm in trouble with your older brother
B                 B    C#      F#     C#
I don't think you even kept my number
B                B       C#  F#     C# B
If only we could do this all again (again)


[Chorus: All,  Reece ]

F#                                         A#m
I wouldn't spill that drink on your dress, wouldn't be so late
E                                     B
I would have paid the bill instead of splitting it two ways
         F#                           A#m
Would of told ya "you look beautiful" instead of "you look nice"
E                              B
Girl I couldn't be more stupid even if I tried

F#                                         A#m
I wouldn't spill that drink on your dress, wouldn't be so late
E                                     B
I would have paid the bill instead of splitting it two ways
         F#                           A#m
Would of told ya "you look beautiful" instead of "you look nice"
E                              B
Girl I couldn't be more stupid even if I tried
   Bm
Oh I wish we could start over again

Head Over Boots chords – Jon Pardi Vsion 4

 Head over boots 


 C G D Em F D# Cm G 
I wanna sweep you off your feet tonight 
 D 
I wanna love you and hold you tight 
 Em 
Spin you around on some old dance floor 
    C Cm 
Act like we never met before for fun, 



 G 
Cause you re the one I want, you re the one I need 
 D 
Baby, if I was a king, ah, you would be my queen 
 Em 
You re the rock in my roll 
 C Cm 
You re good for my soul, it s true 
                            G 
I m head over boots for you


 G 
The way you sparkle like a diamond ring 
 D 
Maybe one day we can make it a thing 
 Em 
Test time and grow old together 
 C Cm 
Rock in our chairs and talk about the weather, yeah 
 G 
So, bring it on in for that angel kiss 
 C Cm 
Put that feel good on my lips, 
 G 
Cause you re the one I want, you re the one I need 
 D 
Baby, if I was a king, ah, you would be my queen 
 Em 
You re the rock in my roll 
  C Cm  
You re good for my soul, it s true
                            G 
I m head over boots for you


 G 
Yeah, I m here to pick you up 
      F C Cm 
And I hope I don t let you down, no, 
 G 
cause you re the one I want, you re the one I need 
 D 
Baby, if I was a king, ah, you would be my queen 
 Em 
You re the rock in my roll 
 C Cm 
You re good for my soul, it s true 
                           G 
I m head over boots for you


 G 
You re the one I want, you re the one I need 
 D 
Baby, if I was a king, ah, you would be my queen 
 Em 
You re the rock in my roll 
 C Cm 
You re good for my soul, it s true 
                            G 
I m head over boots for you


 G 
I wanna sweep you off your feet tonight 
 D 
I wanna love you and hold you tight 
 C Cm     
Spin you around on some old dance floor 
 
Outro:  G D Em C Cm G

Half Over You chords – Patty Loveless

 Patty Loveless - Half Over You


CAPO: 2nd Fret



INTRO:  C G F C G C Bb F C Cadd9 C 


I've seen rock bottom
          F C 
And I've sailed to the top
                        G 
Now I'm somewhere in between
   C 
Believe that it's over
         Cadd9 C F 
But sometimes still blue
                     C 
There's no place so lonely
          G C 
As being half over you


CHORUS:
             F              
And I don't feel much like climbing
       C  
But I don't want to fall
                                 Cadd9 C G 
Here in the middle I don't feel much  at all
      C Cadd9 C F 
I've almost accepted the fact that  we're through
                         C 
And there's no place so lonely
          G C 
As being half over you


INTERLUDE:  C Cadd9 C F C G C Bb F C 



I wasn't as bad off
      F C 
When first you were gone
                     G 
Misery kept me company
     C 
And then I remember 
             Cadd9 C F 
The heights we've been to
                     C 
There's no place so lonely
          G C Cadd9 
As being half over you


CHORUS:
     C F              
And I don't feel much like climbing
       C  
But I don't want to fall
                                 Cadd9 C G 
Here in the middle I don't feel much  at all
      C Cadd9 C F 
I've almost accepted the fact that  we're through
                         C 
And there's no place so lonely
          G C Cadd9 C 
As being half over you
         F C 
There's no place so lonely
          G C Bb F C 
As being half over you

Not Over By Half chords – Joan Shelley

 C F 
You've torn your shirt You've outgrown this town
                       C G 
Your friends are all scattered and you're lonesome
             C F 
But you're still searchin' for music in the sounds
                          C G 
It's a tame world would leave you unbroken

 C F 
Oh lady, oh mother bring your garden to me
                    C G 
Pull it 'round my body so the world cannot see
 C F 
Blue of my veins and the tracks on my cheeks
                       C G C 
Leave the tulips for when I go under

     F C G 
Cuz it's not over by half
           F C Am G 
There's a gold in your eyes bloomin' out through the black
     F C F 
And you're still standing your hand on the mat
              C G C 
No it's not over, not over by half

 C F 
And when that day comes and the lights grow dim
                      C G 
The weight off your shoulders the sun off your skin
           C F 
And the ones who have known you, your lovers and friends
                       C G C 
Will be marked by a spark that was taken

     F C G 
Cuz it's not over by half
           F C Am G 
There's a gold in your eyes bloomin' out through the black
     F C F 
And you're still standing your hand on the mat
              C G C 
No it's not over, not over by half

 C F 
Here on the mountain I am thinking of you
                    C G 
The birds are all singing, screaming of youth
 C F 
And here I am holding just keeping a room
                       C G C 
Just a place you can lay when you're older

     F C G 
Cuz it's not over by half
           F C Am G 
There's a gold in your eyes bloomin' out through the black
     F C F 
And you're still standing your hand on the mat
              C G C 
No it's not over, not over by half

Over The Creek chords – George Ezra

 Capo on 5th fret (or transpose ofcourse)

Enjoy!





 Am G C F 
I may love you in the morning
        G C 
Like today, you'll never know
 Am G C F 
Step this way, I find the garden
       G C 
Like today, you'll never know
 Am G C F 
Well you may claim that you found me
         G C Am 
Like today, you'll never know   
         G C 
Like today, you'll never know
      F 
Well nonetheless,
I must confess,
      G C 
That I'm the mess that has been left to save you

Your situation must be dire
                        F G C 
Your situation must be over the creek
 G F C 
Haunted we speak


     Am G C Am G C 
But I can't have left you, I still haven't met you

 Am G C F 
Well I may fall into your dance
        G C 
Like today, I'd never know
 Am G C F 
We may meet with awkward hearts
        G C 
Like today, I'd never know
 Am G C             
Oh like today, I'd never know
      F 
Well nonetheless,
I must confess,
      G C 
That I'm the mess that has been left to save you

Your situation must be dire
                        F G C 
Your situation must be over the creek
 G F C 
Haunted we speak


     Am G C Am G C 
But I can't have left you, I still haven't met you

 Am G C F 
If ever said too much
        G C 
Hear my last spoken words
 Am G C F 
And if I never said enough
        G C 
Well bleed my last spoken words
 Am G C             
Well bleed my last spoken words

     F G 
Oh nonetheless I must confess that I'm the mess
That has been left
      F G  
Well nonetheless I must confess that I'm the mess that
 C  
has been left to save you

Your situation must be dire
                        F G C 
Your situation must be over the creek
 G F C 
Haunted we speak
 G F C 
Haunted we speak



     Am G C Am G C 
But I can't have left you, I still haven't met you












Over And Over Again intro Tabs – Nathan Sykes

 Hi! My name is Jack and this is my first ever tab contribution to ultimate guitar.
I looked at the chords for this and I realized that there wasn't a tab for the 
song that suits the melody. So I decided to make up my own tab. This is my first
ever tab so I'm sorry if this isn't 100% accurate.
Thank you!
Capo 1
Chords: D,Am,Em+G 

     D                             Am                                      Em
e|---------2---------2------------------------0------------0-----------------------------0------------------|
B|-----3---------3----------3-------------1------------1-----------1----------------------------------------|
G|--2--------2----------2--------------------------------------------------------0--------------0-----------|
D|------------------------------------2-----------2----------2----------------------------------------------|
A|-----------------------------------------------------------------------------2---------------2------------|
E|----------------------------------------------------------------------------------------------------------|



         G                                                  (Extra part)listen to the song to hear it
e|-------------------------------------------------| |-------------------------------------------------------|
B|---------------0---------------0-----------------| |----------------0--------------------------------------|
G|-------------------------------------------------| |------------------0------------------------------------|
D|----------0---------------0--------------0-------| |--------------------0----------------------------------|
A|-------------------------------------------------| |-------------------------------------------------------|
E|------3--------------3--------------3------------| |-------------------------------------------------------|

^Goes back to the start



[Verse 1]
         
         D
From the way you smile
       Am
To the way you look
    Em
You capture me
   G
Unlike no other
         D
From the first hello
             C
Yeah, that's all it took
       Em
And certainly
  G
We had each other

[Prechorus]
    D       Am
And I won't leave you
Em        G
Always be true
 D          Am         G   G
One plus one, two for life
                  D
Over and over again

[Chorus]
                       Bm
So, don't ever think I need more
                    Em
I've got the one to live for

No one else will do, and
    A/D
I'm telling you
                          D
Just put your heart in my hands
                     Bm
Promise it won't get broken
                        Em
We'll never forget this moment

It will stay brand new
       A/D
'Cause I'll love you

Over and over again

D Am Em G

Over and over again


[Verse 2]
         D
From the heat of night
       Am
To the break of day
     Em
I'll keep you safe
    G
And hold you forever.
       D 
And the sparks will fly
            Am
They will never fade
       Em             G
'Cause every day gets better and better

[Prechorus]
    D       Am
And I won't leave you
Em        G
Always be true
 D          Am         G   G
One plus one, two for life
                  D
Over and over again

[Chorus]
                       Bm
So, don't ever think I need more
                    Em
I've got the one to live for

No one else will do, and
    A/D
I'm telling you
                          D
Just put your heart in my hands
                     Bm
Promise it won't get broken
                        Em
We'll never forget this moment

It will stay brand new
       A/D
'Cause I'll love you

Over and over again

D Am Em G

Over and over again

D Am Em G

[Bridge]
D
Girl when I'm with you
  Am
I lose track of time
Em
When I'm without you
       G
You're stuck on my mind
     D
I'll be all you need
          Am
Until the day that I die
     Em
I'll love you
G                 D
Over and over again

[Chorus]
                       Bm
So, don't ever think I need more
                    Em
I've got the one 

Mind Over Matter Tabs – PVRIS

 PVRIS - Mind over Matter Acoustic - (Simplified Version)

Intro

e|-4---0--9-7---0----4---0--2-0---0-|
B|---2--------0--------2--------0---|
G|----------------------------------|
D|----------------------------------|
A|-4-----------------4--------------|
E|----------0-----------------0-----|

Verse 1


e|-0---0----0---0----0---0----0---0-|
B|---2--------0--------2--------0---|
G|----------------------------------|
D|----------------------------------|
A|-4-----------------4--------------|
E|----------0-----------------0-----|

Pre-chorus

e|------------------------------------0---------------0-------|
B|-5---9---4----10----5---9---4-----2---2---9---4---2---2---4-|
G|------------------------------------------------------------|
D|------------------------------------------------------------|
A|-4---7---2----9-----4---7---2-----0-------7---2---0-------2-|
E|------------------------------------------------------------|

Chorus

e|-------------------------------|
B|-5---7---9---4---2---4---5---4-|
G|-------------------------------|
D|-------------------------------|
A|-4---0-------2---0---2---4---2-|
E|---------0---------------------|

Verse 2

e|----------------------------------------------------------|
B|-14---9---16---12---2---5---4---2---4---2---5---4---2---4-|
G|----------------------------------------------------------|
D|----------------------------------------------------------|
A|-12---7---14---9----0---4---2---0---2---0---4---2---0---2-|
E|----------------------------------------------------------|

Chorus

e|-------------------------------|
B|-5---7---9---4---2---4---5---4-|
G|-------------------------------|
D|-------------------------------|
A|-4---0-------2---0---2---4---2-|
E|---------0---------------------|

Bridge

e|----------------------------------------|
B|-10---5---9---4---10---5---12---14---16-|
G|----------------------------------------|
D|----------------------------------------|
A|-9----4---7---2---9----4---11---12---14-|
E|----------------------------------------|

Chorus X2

e|-------------------------------|
B|-5---7---9---4---2---4---5---4-|
G|-------------------------------|
D|-------------------------------|
A|-4---0-------2---0---2---4---2-|
E|---------0---------------------|

Dont Dream Its Over Acoustic chords – Crowded House V2

 Standard Tuning EADGBe 


 D#sus2  - x68866


Intro:  D#sus2 


Verse 1: 

 D#sus2 Cm G# G    
There is freedom within there is freedom without, Try to catch the deluge in a paper cup
 D# Cm G#                                    
There's a battle ahead many battles are lost, but you'll never see the end of the road-
               G 
-while you're travelling with me


Chorus 1: 

 G# A# D# Cm 
Hey now, hey now don't dream it's over
 G# A# D# Cm 
Hey now, hey now when the world comes in
 G# A# D# Cm 
They come, they come, to build a wall between us
 G# G# A# 
We know they won't win


Verse 2:

 D#sus2 Cm G# G       
Now Im towing my car,theres a hole inthe roof,my possessions r causin me suspicion but theresno proof
 D# Cm G# G 
In the paper today tales of war and of waste, but you turn right over to the T.V. page


Chorus 2: 

 G# A# D# Cm 
Hey now, hey now don't dream it's over
 G# A# D# Cm 
Hey now, hey now when the world comes in
 G# A# D# Cm 
They come, they come, to build a wall between us
 G# G# A# 
We know they won't win


Verse 3:

 D#sus2 Cm G# G 
Now I'm walking again to the beat of a drum, and I'm counting the steps to the door of your heart
 D# Cm G# G   
Only the shadows ahead barely clearing the roof, get to know the feeling of liberation and relief


Chorus 3: 

 G# A# D# Cm 
Hey now, hey now don't dream it's over
 G# A# D# Cm 
Hey now, hey now when the world comes in
 G# A# D# Cm 
They come, they come, to build a wall between us
 G# G# A# 
We know they won't win




(end)

In The Aeroplane Over The Sea solo Tabs – Neutral Milk Hotel

 -------------------------------------------------------------------------------
              Neutral Milk Hotel - In the Aeroplane over the Sea
-------------------------------------------------------------------------------
This is the tab for the horn solo that starts at 1:12 if it were to be played on guitar.
Tuning:E Standard

e|---------------------------------------------------------------------------|
B|---------------------------------------------------------------------------|
G|--------7---5-4---------9-7-4----------5----4-------------7-7-9-7-4-5-7----|
D|----------------7--5----------5-7--------------7-5-4-----------------------|
A|-----------------------------------------------------7---------------------|
E|---------------------------------------------------------------------------|

************************************

| /   slide up
| \   slide down
| h   hammer-on
| p   pull-off
| ~   vibrato
| +   harmonic
| x   Mute note
| b   Bend
| pb  Pre-bend
| br  Bend release
| pbr Pre-bend release
| brb Bend release bend

************************************

Look Over Your Shoulder chords – Kwabs

 [Verse 1]
                 G#m E 
I know what you done
   C#m F# G#m E C#m F#  
Doesn't matter how you try to hide it, no
             G#m E C#m 
And you can run forever more
             F# G#m E C#m F# 
But you'll only get trapped inside it, oh no oh

[Bridge]
          E G#m 
You can try to shut it out in the morning
                                 С#m
You can try to erase it in the evening
                  E G#m 
But you should listen long and hard through the warning
                                   D# 
Cause soon enough, that stuff is going to get you up

[Hook]
        G#m E C#m F# 
Better look over your shoulder and make sure that you're alone
        G#m E C#m F#  
Better stay out of the shadows when you wonder for the fall
        G#m E C#m F# 
Better look over your shoulders because when you're on your own
        E F# 
It'll creep into your head and it'll never let you go

[Verse 2]
                
                G#m E 
Know where you been,
 C#m F# G#m E C#m F# 
Giving them to every temptation, oh
              G#m E C#m 
And you can live anywhere you want
             F# G#m E C#m F# 
If you can handle your creation, oh no

[Bridge]
          E G#m 
You can try to shut it out in the morning
                                  C#m 
You can try to erase it in the evening
                  E G#m 
But you should listen long and hard through the warning
                                   D# 
Cause soon enough, that stuff is going to get you up

[Hook] - 2x

       G#m E C#m F# 
Better look over your shoulder and make sure that you're alone
        G#m E C#m F#  
Better stay out of the shadows when you wonder for the fall
        G#m E C#m F# 
Better look over your shoulders because when you're on your own
        E F# 
It'll creep into your head and it'll never let you go



[Outro]
  G#m 
Better look over your shoulder and make sure that you're alone

Better stay out of the shadows when you wonder for the fall

Better look over your shoulders because when you're on your own

Ill Be Over You chords – Toto V4

 I’LL BE OVER YOU
Toto
 G. S. Saavedra II

Capo 1

 
                D 
  Some people live their dreams
                 E 
  Some people close their eyes
                 Bm7 
  Some people's destiny
  D A 
  Passes by

                 D 
  There are no guarantees
                E 
  There are no alibis
                   Bm7 
  That's how our love must be
  D A 
  Don't ask why

Refrain I:
                  E    
  It takes some time
   D/F#   
  God knows how long
      Dm E 
  I know that I can forget you

Chorus I:
                   A E F#m E  
  As soon as my heart stops breakin'
         F#m E D E  
  *And tears are fading 
       Bm7 D E     
  As soon as forever is through
    D A 
  I'll be over you

                 D 
  Remembering times gone by
            E 
  Promises we once made
                 Bm7 
  What are the reasons why
  D A 
  Nothing stays the same

Refrain II:
                    E    
  There were the nights 
   D/F#   
  Holding you close
    Dm E 
  Someday I'll try to forget them

Repeat Chorus I ----

Adlib:  E F# D E Bm7 C#m7 DM7 

Chorus II:
                   A E F#m E/A 
  As soon as my heart stops breakin'                       
            F#m E/F# D E/D 
  And tears are fading
     Bm7 D E     
  Someday I’ll be over you

Chorus II:
                   A E F#m E  
  As soon as my heart stops breakin'
         F#m E D E  
  *And tears are fading 
   Bm7 D E     
  Someday I’ll be over you

Coda:
  (Do Chorus II chords twice then fade)
  As soon as my heart ………

*not "Anticipating" as some lyrics suggest

Sky Spills Over chords – Michael W Smith

 Sky Spills Over
Michael W. Smith

C:x32010
Em:022000
G:320003


Capo 2


Intro:

 Em C G    x 2


Verse 1:

            Em                
There's a rose in the desert
           C G 
Blooming red in the drought
              Em 
There's a quenching rain
                     C G 
In the wings of the ga-thering clouds
 Em 
Lift your eyes
                  C G 
Look to the hor-izon now
          Em 
There's still a hope for us

Reach up from the dust
 C G 
And call it down


Chorus:

          Em 
Can you hear
               C G 
Can you hear that thun-der
           Em 
Sing His name, sing it out
           C G 
'Til the sky spills over
 Em C G 
Whoa, oh
 Em C G 
Whoa, oh


Verse 2:

     Em                      
Oh, I may just be dry bones
               C G 
Stripped of sinew and skin
          Em 
But the wind of His spirit
               C G 
Will raise me up a-gain
    Em 
I lift my eyes
                    C G 
I look to the hor-izon now
              Em 
Oh, there's still a song to sing
                        C G 
Fall down on your knees and cry a-loud


Repeat Chorus


Bridge:

    G Em 
I hear the rolling thun-der
 C G 
Feel the pouring rain
      G Em 
My heart is filled with won-der
 C G 
Only You re-main
    G Em C 
I see a new hor-izon
               G 
Coming up my way


Tag:

    Em 
I lift my eyes
                    C G 
I look to the hor-izon now
              Em 
Oh, there's still a song to sing
           C G 
Fall down on your knees and cry a-loud


Chorus 2:

        Em 
I can hear
        C G 
I can hear that thun-der
                 Em C 
I'll sing Your name, sing it out
                     G 
'Til the sky spills o-ver
            Em 
Oh, I can hear
          C G 
I can hear that thun-der
                 Em C 
I'll sing Your name, sing it out
                     G 
'Til the sky spills o-ver (over)


Coda:

 Em C G 
Whoa, oh    x 4

Over My Head Tabs – Coal Chamber

 |--------------------------------------------------------------------------------------------------------|
|                                       COAL CHAMBER - OVER MY HEAD                                      |
|                                            Rivals (2015)                                         |
|--------------------------------------------------------------------------------------------------------|

                   If you have questions or corrections feel free to send me a message:
                                http://profile.ultimate-guitar.com/godspeedy/
                                    https://www.facebook.com/Godspeedy14
                     
                Also, check out my Youtube channel: http://www.youtube.com/user/Godspeedy14

                                         Tuning: 6 string BEADF#B 
                                                    
*********************************************GUITAR NOTATIONS*********************************************
*                                                                                                        *
*                                      | *   palm mute           |                                       *
*                                      | s   slide               |                                       *
*                                      | x   Mute note           |                                       *
*                                                                                                        *
**********************************************************************************************************

|--------------------------------------------------------------------------------------------------------|
|                                          INTRO (00:00-00:14)                                           |
|--------------------------------------------------------------------------------------------------------|

Guitars 1 and 2 (w/ dist)

 B|--------------------------|----------------------------|
F#|--------------------------|----------------------------|
 D|--------------------------|----------------------------|
 A|-----------5--5------4--4-|------------5--5------4--4--|
 E|-2--2------5--5------4--4-|-----2------5--5------4--4--|
 B|-0--0--0-0-3--3--0-0-2--2-|-0-0-0--0-0-3--3--0-0-2--2--|\
          * *       * *        * *    * *       * *         x2
 B|---------------------------|---------------------------|/
F#|---------------------------|---------------------------|
 D|---------------------------|---------------------------|
 A|------------5--5------4--4-|------------9--9--9--9--9--|
 E|-----2------5--5------4--4-|-----2------9--9--9--9--9--|
 B|-0-0-0--0-0-3--3--0-0-2--2-|-0-0-0--0-0-7--7--7--7--7--|
    * *    * *       * *        * *    * *

|--------------------------------------------------------------------------------------------------------|
|                                          VERSE (00:14-00:42)                                           |
|--------------------------------------------------------------------------------------------------------|

Guitars 1 and 2 (w/ dist)

 B|-------------------------|-----------------------|
F#|-------------------------|-----------------------|
 D|-------------------------|-----------------------|
 A|-------------------------|-----------------------|
 E|-------------------------|-----------------------|
 B|-0--8--8--0--8--0------0-|-8--0--8--0--8--8------|\
                                                      x4
 B|-------------------------|-----------------------|/
F#|-------------------------|-----------------------|
 D|-------------------------|-----------------------|
 A|-------------------------|-----------------------|
 E|-------------------------|-----------------------|
 B|-8--8--8--8--8--8------8-|s7--7--7--7--7--7------|

|-------------------------------------------------------------------------------------------------------

Its Not Over Yet chords – For King And Country

 (No capo)


[Verse 1:]
 Em G 
They are inside your head
 G 
You got a voice that says
 C 
You won't get past this one
 C 
You won't win your freedom

             G 
It's like a constant war
         G 
And you want to settle that score
     C 
But you're bruised and beaten
         C 
And you feel defeated

[Pre-Chorus:]
 G Em D G 
This goes out to the heaviest heart

[Chorus:]
 C 
Oh, to everyone who's hit their limit
 G 
It's not over yet
 D 
It's not over ye-et
 C 
And even when you think you're finished
 G 
It's not over yet
 D 
It's not over ye-et
 C 
Keep on fighting
 Em 
Out of the dark
 D 
Into the light
 C 
It's not over
 C 
Hope is rising
 G 
Never give in
 D 
Never give up
 C 
It's not over
 C 
Yea-et-et, woah
 G D C 
Yea-et-et, woah

[Verse 2:]
 C 
Oh, game set match
 G D C 
It's time to put it in your past, oh
 C 
Feel the winter leavin'
      G D 
It's redemption season
 C 
Long live the young at heart (Here we are)
 C 
Cheers to a brand new start (Here we are)
 C Em 
We're revived and breathing
 G D 
To live a life of freedom


[Chorus:]
 C 
Oh, to everyone who's hit their limit
 G 
It's not over yet
 D 
It's not over ye-et
 C 
And even when you think you're finished
 G 
It's not over yet
 D 
It's not over ye-et
 C 
Keep on fighting
 Em 
Out of the dark
 D 
Into the light
 C 
It's not over
 C 
Hope is rising
 G 
Never give in
 D 
Never give up
 C 
It's not over
 C 
Yea-et-et, woah
 G D C 
Yea-et-et, woah

[Bridge:]
 G 
Life is a race we run
 G 
So run till the race is won
 C 
Don't you ever give up (Here we are)
 Em D 
Oh no never give up (Here we are)
 G 
Life is a race we run
 G 
So run till the race is won
 C 
Don't you ever give up (Here we are)
 Em D 
Oh no never give up (Here we are)

 C 
Oh, to everyone who's hit their limit
 C 
And even when you think you're finished

[Chorus:]
 C 
Oh, to everyone who's hit their limit
 G 
It's not over yet
 D 
It's not over ye-et
 C 
And even when you think you're finished
 G 
It's not over yet
 D 
It's not over ye-et
 C 
Keep on fighting
 Em 
Out of the dark
 D 
Into the light
 C 
It's not over
 C 
Hope is rising
 G 
Never give in
 D 
Never give up
 C 
It's not over
 C 
Yea-et-et, woah
 G D C 
Yea-et-et, woah

If I Had Last Night To Live Over chords – Webb Pierce

 C C7 F 
If I had last night to live over

    C G7 
If I knew then what I know now

 C C7 F 
Things I know would be different

    C G7 C F C 
If I knew then what I know now


   D7 G7 
I fumbled and I stumbled and I lost you

    D7 G7 
Oh but too late my mistakes I have seen

 C C7 F 
If I had last night to live over

           C G7 C 
Darlin' I know I'd never lose you this way


   D7 G7 
I fumbled and I stumbled and I lost you

    D7 G7 
Oh but too late my mistakes I have seen

 C C7 F 
If I had last night to live over

           C G7 C 
Darlin' I know I'd never lose you this way

Crying Over You chords – Webb Pierce

 C C7 F 
Last night I never closed my eyes to sleep

   G7 C 
I spent the whole night crying over you

                C7 F 
Today I made a vow I'm gonna keep

     G7 C 
Yes I'm gonna quit my crying over you

 
           G7 
I'm gonna brush my tears away

    C 
Go out and paint the town

 D7 
And if you turn up again

 G7 
I'm gonna turn you down

 C C7 F 
I'm gonna look around for someone new
 
     G7 C 
Yes I'm gonna quit my crying over you

 
           G7 
I'm gonna brush my tears away

    C 
Go out and paint the town

 D7 
And if you turn up again

 G7 
I'm gonna turn you down

 C C7 F 
I'm gonna look around for someone new

         G7 C 
Yes I'm gonna quit my crying over you

Its All Over Now chords – Saosin

 Saosin - It's All Over Now
 Rachel Lauren

 C 
Leave, go on and leave, you said
               Asus2 
Turn and walk away
            C 
Life's not worth it anymore
                                          Asus2 
You stopped shaking and you slowly faded away
            C 
Now you're lying on the floor

 C Asus2 
I can't hear your heart beating anymore, no
 C Asus2 G 
I can't hear your heart beating anymore, no

      F C Asus2 Am 
It's all over now
                 F C Am G 
What am I gonna do with all this time I set aside for you (aside for you)
   F C Asus2 Am 
I won't be needed now
                          F 
To pick up the phone and call you
                      G 
Like I'm supposed to know
               Dm 
You were all alone

 C 
Gone, memories gone
                  Asus2 
I know I was the one
           C G 
Who was ignoring you for way too long
 C 
I hope while sleeping
                       Asus2 
I know that if you're finding solid ground
             C 
You'll know everything is, everything is sound

 C Asus2 
I can't hear your heart beating anymore, now (everything is sound)
 C Asus2 G 
I can't hear your heart beating anymore, now

      F C Asus2 Am 
It's all over now
                 F C Am G 
What am I gonna do with all this time I set aside for you (aside for you)
   F C Asus2 Am 
I won't be needed now
                          F 
To pick up the phone and call you
                      G 
Like I'm supposed to know
               Dm 
You were all alone

 C Asus2 F G C Asus2 F G 
Maybe someday I can meet you there

      F C Asus2 Am 
It's all over now
                 F 
What am I gonna do
                 G 
What am I gonna do

      F C Asus2 Am 
It's all over now
                 F C Am G 
What am I gonna do with all this time I set aside for you
   F C Asus2 Am 
I won't be needed now
                          F 
To pick up the phone and call you
                      G 
Like I'm supposed to know
      F C Asus2 Am 
No I won't be needed now
                          F 
To pick up the phone and call you
                      G 
Like I'm supposed to know
               Dm 
You were all alone

Mind Over Matter Acoustic chords – Pvris V2

 C#m7 E 
You were spoiled rotten and turned stale like all your plans,
 C#m7 E 
 My tongue's acquired tolerance for tastes I couldn't stand.
 C#m7 E B F#m 
    You've been stuck in a rut and a wasteland, 
C#m7.                 E B 
 drowned in swamps below your feet.

            A C#m7 B 
 So just trust me, you'll be just fine,
     A B 
 I need your trust just for tonight.

 C#m7 A  
This is not a place in my head,
                      E 
 Reach out your hands and tell me just what 
     B 
you feel.
 A B 
 This is not just all in your head,
               C#m 
 Mind over matter makes these things feel
      B 
 so real.


  A C#m 
 I can see the doubt in your eyes,
                  B 
 You say there's no such thing as better 
 F#m 
things in life.
 A C#m7  
 Well, I must confess this is all too new
      B 
 for me,
 A B 
 a whole new world, a whole new world to see.

            A C#m7 B 
 So just trust me, you'll be just fine,
     A B 
 I need your trust just for tonight.

 C#m7 A  
This is not a place in my head,
                      E 
 Reach out your hands and tell me just what 
     B 
you feel.
 A B 
 This is not just all in your head,
               C#m 
 Mind over matter makes these things feel
      B 
 so real.

 F#m C#m E  
 Keep an open mind, it brings open hearts
       B  
 and open eyes.
 F#m C#m  
 You walk around with your hands out, and
        E A B 
 I've never seen anyone so blind.

    

 C#m7 A  
This is not a place in my head,
                      E 
 Reach out your hands and tell me just what 
     B 
you feel.
 A B 
 This is not just all in your head,
               C#m 
 Mind over matter makes these things feel
      B 
 so real.


 C#m7 A  
This is not a place in my head,
                      E 
 Reach out your hands and tell me just what 
     B 
you feel.
 A B 
 This is not just all in your head,
               C#m 
 Mind over matter makes these things feel
      B 
 so real.

Move It On Over Tabs – George Thorogood V4

 MOVE IT ON OVER

As recorded by George Thorogood & The Destroyers
(From the 1978 Album MOVE IT ON OVER)

Words by Hank Williams
Music by Hank Willliams
Arranged by George Thorogood

 Slowhand


Gtr I (D G D G B D) - 'George Thorogood - Electric Guitar (Open G-Tuning)'
Gtr II (D G D G B D) - 'George Thorogood - Electric Guitar (Open G-Tuning)'


 1st Verse
  Q=147(8=s8)
  N.C.       G5
 4/4
  Gtr I (El. Gtr. w/ Open G-Tuning - DGDGDB)
             PM---------------------------------
  W          E E E E E E E E   E E E E E E E E
|----------|-----------------|-----------------|
|----------|-----------------|-----------------|
|----------|---------------0-|-------0-------0-|
|----------|-0---2p0-0-0-2---|-0-0-2---0-0-2---|
|----------|-0-0-0---0-0-0---|-0-0-0---0-0-0---|
|----------|-----------------|-----------------|


 ---------------------------------|
  E E E E E E E E   E E E E E E E E
|-----------------|------------------|
|-----------------|------------------|
|-------0-------0-|-------0-------0--|
|-0-0-2---0-0-2---|-0-0-2---0-0-2----|
|-0-0-0---0-0-0---|-0-0-0---0-0-0----|
|-----------------|------------------|


  C5
   E E E E E E   E E   +E  E E E +E  E E  E
|--------------------|----------------------|
|--------------------|----------------------|
|--------5---------5-|-(5)-5---5-(5)-5----0-|
|--5-5-7---5-5---7-5-|-(5)---7-5-(5)-5-7----|
|--5-5-5---5-5---5---|-------5---------5----|
|--------------------|----------------------|
|
| Gtr II (El. Gtr. w/ Open G-Tuning - DGDGDB)
|  PM----------------------------------------
|  E E E E E E a E E    E  E E E  E  E E  E
|--------------------|----------------------|
|--------------------|----------------------|
|--------------------|----------------------|
|-/5---7---5---5h7---|--5----7----5----5\---|
|-/5-5-5-5-5-5---5-5-|--5--5-5-5--5--5-5\-0-|
|--------------------|----------------------|


  G5
  E E E E E E E   E     +E  E E E +E  Q.
|---------------------|------------------------|
|---------------------|------------------------|
|-------0---------0---|-(0)-0---0-(0)-0--------|
|-0---2-0-----2---0---|-(0)-0-2-0-(0)-0--------|
|-0-0-0---0-0-0-------|-------0----------------|
|---------------------|------------------------|
|
|----------------------------------------|
|             |--3--|
| E E E E E E E E   E    E  E E E  E  E   E E
|---------------------|------------------------|
|---------------------|------------------------|
|---------------------|------------------------|
|-0---2---0---0h2---0-|--0----2-0--0--------7--|
|-0-0-0-0-0-0-0-------|--0--0-0-0--0--0--/7-7--|
|---------------------|------------------------|


  D5                     C5
                             |--3--|       |-3--|
   E E E E +Q    a E E   E E E E   E +Q    E  E E
|----------------------|--------------------------|
|----------------------|--------------------------|
|--------7-(7)-------5-|-----------5-(5)---0h=2-0-|
|-/7-7-9-7-(7)---5h7-5-|-5---5h7---5-(5)----------|
|-/7-7-7-----------7---|-5-5-5--------------------|
|----------------------|--------------------------|
|
|  PM----------------------------------------------
|  E E E E +E  Q     E   E E E   E   +E  E Q
|----------------------|--------------------------|
|----------------------|--------------------------|
|----------------------|--------------------------|
|--7---9-7-(7)-7-------|-5---7---5---(5)---5\-----|
|--7-7-7-7-(7)-7-----5-|-5-5-5---5---(5)-5-5\-----|
|----------------------|--------------------------|


                                      G5 C5 D5           G5
          |--3--|  |--3---| |--3--|            |3-|
   E  E   E E   E  E  E   E E E   E   Q   E E +E  Q   E  E
|-----------------------------------|----------------------||
|-----------------------------------|-------------7--------||
|-(0)-0-----0---------0-------0-----|-0--/5s7-(7)-----7\-0-||
|--0------3-----3--2------2-1-----1-|-0--/5s7-(7)--------0-||
|-----------------------------------|----------------------||
|---------------

Over The Mountain chords – Mickey Newbury

 Over The Mountain

 D G D 
Over the mountain I will build us a cabin 
                          Bm 
Over the mountain I will build us a home 
       Em Bm       
We’ll sit by the fire won't the juniper smell good 
 Em Em7 
Over the mountain 

 D G D 
Take me my lady and give me some babies 
                          Bm 
Share all my burdens and sew on my clothes 
 Em Bm       
Life is a fountain we’ll drink it bone dry 
 Em Em7 
Over the mountain 

 G D 
April will promise you blossoms my lady 
 G Bm 
Creek waters risin' and the mares gonna foal 
 Em Bm       
Gather the creatures and bring them on down
 Em Em7 
On down the mountain 

I will plant us a garden here next to the forest 
Dig us a well there with water so pure 
Water so pure and as sweet as the sunshine 
Over the mountain 

I will build us a cabin here in the tall wood 
Bottom land cedar and Snake River stone 
We will sit by the fire won't the juniper smell good 
Over the mountain