Tag: page

Turn The Page Live chords – Bob Seger And The Silver Bullet Band

 Turn The Page (Live) - Bob Seger And The Silver Bullet Band
From: 'Live Bullet' Album, 1976. ♫ Written By: Bob Seger, 1972. ♫
Recorded: September 4 or 5, 1975, in Cobo Hall, Detroit, MI.
Chorded By: Skidaddy, Esq., G.Q.

4/4 TIME @ 79 BPM (4 Min. 52 Sec.) in 'Em' ('G').

Chords Used:
-----------
            GUITAR            KEYBOARD
        E A D G B   e     Bass| Chord
      ------------------    -------------
Em  -  0  2  2  0  0  0      E    G-B-E
D   -  x  x  0  2  3  2      D    A-D-F#
A   -  x  0  2  2  2  0      A    A-C#-E
C   -  x  3  2  0  1  0      C    G-C-E

INTRO: [4 M]
-----

| Em       | Em       | Em       | Em         |
                                  On a

VERSE #1: [16 M]
--------

| Em                              | Em                          | 
 long… and lone-some high-… way… east… of O-ma-ha,…  you can

| D                                  | D                                |
 lis-ten… to the en-… gine moan-in' out… its one note song…  You can

| A                                   | A                             |
 think… a-bout… the wo-man,…  or the girl you knew… the night…  be-

| Em         | Em             | Em                                        |
-fore…            But your thoughts will soon be wan-… der-in'…  the

| Em                                   | D                                   |
 way… they al-… ways do,… when you're rid-in' six-teen ho-urs and there's

| D                               | A                                        |
 noth-in' much to do,…   and you don't feel much like rid-in',…  you just

| A                              | Em         | Em               |
 wish the trip was through,…           mmm…    Say, here I…

CHORUS #1: [11 M]
---------

| D              | Em                      | D                  |
 am…     on the road… a-gain…   There I am…     up on… the

| Em                 | D                    | A                       |
 stage…     Here I… go…     play-in' the star… a-gain…   There I

| C D               | Em       | Em       | Em       | Em              |
 go,…     turn the page…                                 Well, you

VERSE #2: [16 M]
--------

| Em                           | Em                                   |
 walk… in-to a rest-au-rant…  strung out… from the road,…  and you

| D                                  | D                              |
 feel the eyes u-pon you… as you're shak-in' off the cold… You pre-

| A                                      | A                         |
-tend it does-n't bo-ther you,… but you just want to ex-plode…

| Em       | Em          | Em                               |
…                Most times…  you can't hear 'em talk,…

| Em                               | D                               |
… oth-er times… you can…  All the same… old cli-ches:…  Is that a

| D                           | A                                 |
 wo-man, or a man?…  And you al-ways seem out-num-bered,…  you

| A                           | Em       | Em           |
 don't dare make a stand…                   Here I

CHORUS #2: [11 M]
---------

| D              | Em                      | D                 |
 am…     on the road… a-gain…  There I… am…    up on… the

| Em        

Praise To The Lord chords – Page Cxvi

 PRAISE TO THE LORD
Page CXVI
http://pagecxvi.com/

 B E G#m F#M E 
Praise to the Lord, the Almighty, the King of creation!
 B E G#m F#M E 
O my soul, praise Him, for He is thy health and salvation!
 B E G#m F#M   
All ye who hear, now to His temple draw near;

 E B F#M    (2X)

 B E G#m F#M E 
Praise to the Lord, who hath fearfully, wondrously, made thee;
 B E G#m F#M E 
Health hath vouch safed and, when heedlessly falling, hath stayed thee.
 B E G#m F#M   
What need or grief ever hath failed of relief?

Chorus
 E B F#M   
Praise Him, Praise Him
 E B F#M   
Praise Him, Praise Him
 E B F#M   
Praise Him, Praise Him
 E B F#M   
Praise Him

 G#m A#M B C#m D#m E 
Praise to the Lord, who, when tempests their warfare are waging,
 G#m A#M B C#m D#m E 
Who, when the elements madly around thee are raging,
 G#m A#M B C#m E 
Biddeth them cease, turneth their fury to peace,

Chorus 2
 E B F#M   
Praise Him, Praise Him
 E B F#M   
Praise Him, Praise Him
 E B F#M   
Praise Him, Praise Him
 E B F#M   
Praise Him

                   E B F#M E B F#M   
The whirlwinds assuaging
                   E B F#M E B F#M   
The whirlwinds assuaging

 B E G#m F#M E 
Praise to the Lord, O let all that is in me adore Him!
 B E G#m F#M E 
All that hath life and breath, come now with praises before Him.
 B E 
Praise Him (Praise Him), Praise Him (Praise Him)
 B E 
Praise Him (Praise Him), Praise Him (Praise Him)

Chorus 3
 E B F#M   
Praise Him, Praise Him
 E B F#M   
Praise Him, Praise Him
 E B F#M    
Praise Him, Praise Him
 E B F#M    
Praise Him

                   E B F#M E B F#M   
The whirlwinds assuaging
                   E B F#M E B F#M   
The whirlwinds assuaging
   

White Blank Page chords – Mumford And Sons V6

 I prefer to play it in CAPO 4

Intro:  Em  -  C  -  G Em 
Can you lie next to her 
                    C G 
and give her your heart
      C G Em 
your heart   as well as your body?

And can you lie next to her 
                   C G 
and confess your love, 
       C G Em 
your love,    as well as your folly

And can you kneel before the king 
               C G C G 
and say "Im clean,   Im clean"?

      D Em C D 
But tell me now where was my fault,
      D Em C D 
in loving you with my whole heart?
    D Em C D 
Oh tell me now where was my fault,
    D Em C D           
in loving you with my whole heart?

 Em  -  C  -  G Em C G C G 
 Her white blank page and a swelling rage,     rage
 Em C G C G 
 You did not think when you sent me to the brink,    to the brink
 Em C G C G 
 You desired my attention but denied my affections, my affections

      D Em C D 
But tell me now where was my fault,
      D Em C D 
in loving you with my whole heart?
    D Em C D 
Oh tell me now where was my fault,
    D Em C D           
in loving you with my whole heart?

 Em  -  C  -  G 
 Ahhhahh

 C G Em D           
 Lead me to the truth and I 
        C G Em D 
 will follow you with my whole life
       C G Em D 
 Oh lead me to the truth and I 
        C G Em D 
 will follow you with my whole life

 Em  -  C  -  G 
 Ahhhahh

Same Book But Never The Same Page Tabs by A Day To Remember

 .  I play rhythm, so the lead is not done for this tab.  I also did
not put the strumming pattern/# of strums in, so you have to figure those out (it's
REALLY easy).  You are going to need to have the song handy.  Let me know how I did.. 
maybe even add in the lead parts in the comments if you figure them out before me?

INTRO:

D|-10----14-10-PAUSE-10---15-14----|
A|----10---------------10-------10-|
F|---------------------------------|
C|---------------------------------|
G|---------------------------------|
C|---------------------------------|

VERSE: "I've lost a part of me.."

D|---------------------------|
A|---------------------------|
F|---------------------------|     (x4)
C|-99--00--55-55-------------|
G|-99--00--55-55-------------|
C|-99--00--55-55-------------|
   xx  xx  xx xx

END W/:

D|---------------------------|
A|---------------------------|
F|---------------------------|
C|--5------------------------|   Let it ring
G|--5------------------------|
C|--5------------------------|

CHORUS: Figure out pattern and # of strums

D|---------------------------|
A|---------------------------|
F|---------------------------|
C|-9-5-0-7-9---5-7-9-0-------|
G|-9-5-0-7-9---5-7-9-0-------|
C|-9-5-0-7-9---5-7-9-0-------|
               ^ This is played when Jeremy sings, "I can't stand it.."

[VERSE REPEATED, BUT ONLY TWICE]

PRE-CHORUS - "I'm a sucker for complication.."

D|---------------------------|
A|---------------------------|  x2
F|---------------------------|  Figure out pattern and # of strums
C|-9-7-5-0-5-----------------|
G|-9-7-5-0-5-----------------|
C|-9-7-5-0-5-----------------|

END W/:

D|---------------------------|
A|---------------------------|
F|---------------------------|  Do not let it ring
C|--7------------------------|
G|--7------------------------|
C|--7------------------------|

[REPEAT CHORUS]

BRIDGE:

D|---------------------------|
A|---------------------------|
F|---------------------------|  Figure out pattern and # of strums
C|--5-7-9-7---5-7-9-2-4-5----|
G|--5-7-9-7---5-7-9-2-4-5----|
C|--5-7-9-7---5-7-9-2-4-5----|
                    ^"You're just a notch in the wall.."

END W/:

D|---------------------------|
A|---------------------------|
F|---------------------------|
C|--5------------------------|  Let it ring
G|--5------------------------|
C|--5------------------------|

[REPEAT CHORUS], but end with this:

D|---------------------------|
A|---------------------------|
F|---------------------------|  Let last note (0's) ring
C|-5-7-0---------------------|
G|-5-7-0---------------------|
C|-5-7-0---------------------|


BREAKDOWN - OUTRO:

D|---------------------------|
A|---------------------------| This is the lead up to the breakdown.
F|---------------------------|
C|---------------------------| Figure out pattern and # of strums.
G|---------------------------|
C|--0-0-0-0-0-0-0-0-0-0-0-0--|

D|---------------------------|
A|---------------------------|
F|---------------------------| Same pattern and # of strums as above. ^
C|--0-0-0-0-0-0--------------|
G|--0-0-0-0-0-0--------------|
C|--0-0-0-0-0-0--------------|
    ^"YOU BREAK ME, DOWN!" until the end of the song.

Lost Cause Beyond Two Souls chords – Ellen Page

 Here are the Chords from the woderful Song from Beyond: Two Souls

Eleen Pages Lost cause


 F C F C 
Your sorry eyes cut through the bone
 F C Am E 
They make it hard to leave you alone
 F C F C 
Leave you here wearing your wounds
 F C Am E 
Waving your guns at somebody new

 F C 
Baby you're lost
 F C 
Baby you're lost
 F C 
Baby you're a lost cause

 F C F C 
There's too many people you used to know
 F C Am E 
They see you coming they see you go
 F C F C 
They know your secrets and you know theirs
 F C F Am 
This town is crazy; nobody cares

 F G               
Baby you're lost
 F G 
Baby you're lost
 F G C 
Baby you're a lost cause

 F G 
I'm tired of fighting
 F G 
I'm tired of falling
 F G C 
Fighting for a lost cause

 F C F C 
Theres a place where you are going
 F C Am E 
You ain't never been before
 F C F C 
No one left to watch your back now
 F C F C 
No one standing at your door
 F C Am E 
That's what you thought love was for

 F G 
Baby you're lost
 F G 
Baby you're lost
 F G 
Baby you're a lost cause

 F G 
I'm tired of fighting
 F G 
I'm tired of fighting
 F G C 
Fighting for a lost cause 

Empty page (tab) – Hey chords

Intro - Riff A
                               x4
|--------------------------------|
|--------------------------------|
|--------4/6\4--4---5/7\5----4---|
|-4--4---x------x---x--------4---|
|-4--4---2/4\2--2---3/5\3--0-2---|
|-2--2---------------------------|



Verse - Riff B
|------------------------------------------|-------------------------------------------|
|------------------------------------------|-------------------------------------------|
|--------4/6\4------5/7\5------------------|------------4/6\4------5/7\5---------------|
|-4--4---x----------x--------4--4-4-4--4-4-|-4--4-------x----------x--------4--4-4--4/-|
|-4--4---2/4\2------3/5\3--0-2--2-2-2--2-2-|-4--4-------2/4\2------3/5\3--0-2--2-2-----|
|-2--2-------------------------------------|-2--2--------------------------------------|
  pm..                     pm.............   pm..                         pm......

|------------------------------------------|-------------------------------------------|
|------------------------------------------|-------------------------------------------|
|--------4/6\4------5/7\5------------------|------------4/6\4------5/7\5----4----------|
|-4--4---x----------x--------4--4-4-4--4-4-|-4--4-------x----------x--------4----------|
|-4--4---2/4\2------3/5\3--0-2--2-2-2--2-2-|-4--4-------2/4\2------3/5\3--0-2----------|
|-2--2-------------------------------------|-2--2--------------------------------------|
  pm..                     pm.............   pm..


Pre-Ref - Riff C
|------------------------------------------|-------------------------------------------|
|------------------------------------------|-------------------------------------------|
|-14---11--11/12\11/12\11---9---5-4/11-11--|-14---11--11/12\11/12\11---9---5-4--4/5-4--|
|--x----x---x---------------x---x-x-----x--|--x----x---x---------------x---x-x--x---x--|
|-12----9---9/10\-9/10\-9---7---3-2/9---9--|-12----9---9/10\-9/10\-9---7---3-2--2/3-2--|
|------------------------------------------|-------------------------------------------|


|------------------------------------------|
|------------------------------------------|
|-14---11--11/12\11/12\11---9---5-4/11-11--|
|--x----x---x---------------x---x-x-----x--|
|-12----9---9/10\-9/10\-9---7---3-2/9---9--|
|------------------------------------------|

|--------------------------------------------------------------------|
|--------------------------------------------------------------------|
|-14---11--11/12\11/12\11--11/12--12-12-12/14--14-14-14/16--16-16-16-|
|--x----x---x---------------x------x--x--x------x--x--x------x--x--x-|
|-12----9---9/10\-9/10\-9---9/10--10-10-10/12--12-12-12/14--14-14-14-|
|--------------------------------------------------------------------|


Ref - Riff D
|---------------------------------|----------------------------------|
|-5-----5-------------------------|----------------------------------|
|-5--------5------5------5-----5--|--9--9-xx-7-xx-9------------------|
|-5-----------5---5---5-----5-----|--9--9-xx-7-xx-9------------2-----|
|-3---------------0---------------|--7--7----5----7---------2--2-----|
|---------------------------------|------------------0-3~---0--0-----|


|---------------------------------|--------------------------------------|
|-5-----5-------------------------|--------------------------------------|
|-5--------5------5------5-----5--|--9--9-xx-7-xx-9----------------------|
|-5-----------5---5---5-----5-----|--9--9-xx-7-xx-9----------------------|
|-3---------------0---------------|--7--7----5----7--10~--9h10p9--7--9-9-|
|---------------------------------|--------------------------------------|


Riff E
|--------------------------|--------------------------|
|--------------------------|--------------------------|
|--------------------------|--------------------------|
|--------------------------|--------------------------|
|-------5--2------