Tag: panic

High Hopes piano chords by Panic! At the Disco

[Intro]
Bb   F   Dm   C
Bb   F   Dm   Am

[Chorus]
            Bb                     F
Had to have high, high hopes for a living
                 Dm                           C
Shooting for the stars when I couldn't make a killing
              Bb                      F
Didn't have a dime but I always had a vision
           Dm         Am
Always had high, high hopes

            Bb                     F
Had to have high, high hopes for a living
            Dm                     C
Didn't know how but I always had a feeling
            Bb                F
I was gonna be that one in a million
           Dm         Am
Always had high, high hopes

[Verse 1]
     Bb
Mama said
F
Fulfill the prophecy
Dm
Be something greater
C
Go make a legacy
Bb
Manifest destiny
F
Back in the days
          Dm          Am
We wanted everything, wanted everything

     Bb
Mama said
F
Burn your biographies
Dm
Rewrite your history
C
Light up your wildest dreams
Bb                F
Museum victories, everyday
          Dm          Am
We wanted everything, wanted everything

[Pre-Chorus]
    F               A           Dm         Bbm
Mama said don't give up, it's a little complicated
         F          A             Dm              Bbm
All tied up, no more love and I'd hate to see you waiting

[Chorus]
            Bb                      F
Had to have high, high hopes for a living
                 Dm                           C
Shooting for the stars when I couldn't make a killing
              Bb                      F
Didn't have a dime but I always had a vision
           Dm         Am
Always had high, high hopes

            Bb                     F
Had to have high, high hopes for a living
            Dm                     C
Didn't know how but I always had a feeling
            Bb               F
I was gonna be that one in a million
           Dm         Am
Always had high, high hopes

[Verse 2]
     Bb
Mama said
F
It's uphill for oddities
Dm
The stranger crusaders
C
Ain't ever wannabes
Bb
The weird and the novelties
F
Don't ever change
          Dm                 Am
We wanted everything, wanted everything

Bb             F
Stay up on that rise
                Dm                  C
Stay up on that rise and never come down
Bb              F
Stay up on that rise
                Dm                 
Stay up on that rise and never come down

[Pre-Chorus]
F                    A          Dm           Bbm
Mama said don't give up, it's a little complicated
         F             A            Dm            Bbm
All tied up, no more love and I'd hate to see you waiting
             F                        A                       Dm   Bbm
They say it's all been done but they haven't seen the best of me
         F            A                            Dm    Bbm
So I got one more run and it's gonna be a sight to see

[Chorus]
            Bb                     F
Had to have high, high hopes for a living
                 Dm                           C
Shooting for the stars when I couldn't make a killing
              Bb                      F
Didn't have a dime but I always had a vision
           Dm         Am
Always had high, high hopes

            Bb                     F
Had to have high, high hopes for a living
            Dm                     C
Didn't know how but I always had a feeling
            Bb               F
I was gonna be that one in a million
           Dm         Am
Always had high, high hopes

            Bb                     F
Had to have high, high hopes for a living
                 Dm                           C
Shooting for the stars when I couldn't make a killing
              Bb                      F
Didn't have a dime but I always had a vision
           Dm         Am
Always had high, high hopes

            Bb                     F
Had to have high, high hopes for a living
            Dm                     C
Didn't know how but I always had a feeling
            Bb               F
I was gonna be that one in a million
           Dm         Am
Always had high, high hopes

Dying In La piano chords by Panic! At the Disco

[Intro]
Fm7  F  C  Em7

[Verse 1]
    Fm7                    F
The moment you arrived they built you up
    C                   Em7
The sun was in your eyes
               Fm7 F C  Em7
You couldn't believe it
Fm7               F
Riches all around, you're walking
C                       Em7
Stars are on the ground
               Fm7 F C  Em7
You start to believe it

[Pre-Chorus]
Am                   Em7            C                  F
Every face along the boulevard is a dreamer just like you
Am                       Em7                C                   F
You looked at death in a tarot card and you saw what you had to do

[Chorus]
    C      Am        F
But nobody knows you now
            Em       G
When you're dying in LA
    C      Am       F
And nobody owes you now
            Em       G
When you're dying in LA
            C       Am Em
When you're dying in LA
            C       Am Em
When you're dying in LA
    C          C          C
The power, the power, the power
       F          F          F
Oh the power, the power, the power
    C    Am    Em
Of LA

[Interlude]
C  Am  Em

[Verse 2]
Fm7              F
Nights at the chateau
                C              Em7
Trapped in your sunset bungalow
               Fm7 F C  Em7
You couldn't escape it, yeah
Fm7          F
Drink of paradise
                 C                Em7
They told you to put your blood on ice
                 Fm7 F C  Em7
You're not gonna make it

[Pre-Chorus]
Am                   Em7            C                 F
Every face along the boulevard is a dreamer just like you
Am                       Em7                C                   F
You looked at death in a tarot card and you saw what you had to do

[Chorus]
    C      Am        F
But nobody knows you now
            Em       G
When you're dying in LA
    C      Am       F
And nobody owes you now
            Em       G
When you're dying in LA
            C       Am Em
When you're dying in LA
            C       Am Em
When you're dying in LA
    C          C          C
The power, the power, the power
       F          F          F
Oh the power, the power, the power
    C    Am   Em
Of LA

[Outro]
C    Am    Em
C    Am    Em
C    Am    Em
F          C

The End Of All Things Tabs – Panic! At The Disco Vsion 3

 : jcameronp
Tuning: standard, capo on 1 (notes relative to capo, so fret 7 with capo on 1 is actually played at fret 8)


Intro:

(make sure to emphasize the high e of every chord)

e|-0~-3-5-7~-2~-0~-3-5--10~-5~-3~-3-5-7~-2~-0~-3-5-10-5-3~-------------------|
B|-0~-----0~-3~-0~------7~--x~-0~-----0~-3~-0~----------0~-------------------|
G|-0~-----0~-2~-0~------7~--4~-0~-----0~-2~-0~----------0~-------------------|
D|-2~-----5~-0~-2~------7~--4~-2~-----5~-0~-2~----------2~-------------------|
A|-3~-----7~----3~------9~--5~-3~-----7~----3~----------3~-------------------|
E|---------------------------------------------------------------------------|

Verse:

Whether near or far...

e|-3-5-7~-2~-0~-3-5-10~-5~-3~-3-5-7~-2~-3-5-7~-7-7-5~------------------------|
B|-----0~-3~-0~-----7~--x~-0~-----0~-3~-----0~-----x~------------------------|
G|-----0~-2~-0~-----7~--4~-0~-----0~-2~-----0~-----4~------------------------|
D|-----5~-0~-2~-----7~--4~-2~-----5~-0~-----5~-----4~------------------------|
A|-----7~----3~-----9~--5~-3~-----7~--------7~-----5~------------------------|
E|---------------------------------------------------------------------------|

Prechorus:

Lay us down...

e|-3-----5-------7---------5-5-7---------5-----------------------------------|
B|-1-----3-------8---------3-3-5---------3-----------------------------------|
G|-0-----4-----------------4-4-4---------4-----------------------------------|
D|---------------------------------------------------------------------------|
A|---------------------------------------------------------------------------|
E|---0-0---0-0-0---0-0-0-0-------0-0-0-0---0-0-0-0---------------------------|

e|-3-----5-------7---------5-3-7---------5-----------------------------------|
B|-1-----3-------8---------3-1-5---------3-----------------------------------|
G|-0-----4-----------------4-0-4---------4-----------------------------------|
D|---------------------------------------------------------------------------|
A|---------------------------------------------------------------------------|
E|---0-0---0-0-0---0-0-0-0-------0-0-0-0---0-0-0-0---------------------------|

Guitar 2 (optional along with piano)

e|-16-18-20-18-18-20-18--16-18-20-18-16-23-----------------------------------|
B|---------------------------------------------------------------------------|
G|---------------------------------------------------------------------------|
D|---------------------------------------------------------------------------|
A|---------------------------------------------------------------------------|
E|---------------------------------------------------------------------------|

Chorus:

e|-23-22-18-23-22-18-23-22-18-20---------------------------------------------|
B|---------------------------------------------------------------------------|
G|---------------------------------------------------------------------------|
D|---------------------------------------------------------------------------|
A|---------------------------------------------------------------------------|
E|---------------------------------------------------------------------------|

or if your guitar doesn't have that many frets you can play

e|-11-10----11-10----11-10---------------------------------------------------|
B|-------11-------11-------11-13---------------------------------------------|
G|---------------------------------------------------------------------------|
D|---------------------------------------------------------------------------|
A|---------------------------------------------------------------------------|
E|---------------------------------------------------------------------------|

e|---------------------------------------------------------------------------|
B|---------------------------------------------------------------------------|
G|-0-2-4---------------------------------------------------------------------|
D|-----5-------4-------------------------------------------------------

Dont Threaten Me With A Good Time solo Tabs – Panic! At The Disco Vsion 2

 -------------------------------------------------------------------------------
               DON'T THREATEN ME WITH A GOOD TIME - Panic! At the Disco
-------------------------------------------------------------------------------
: thanic
 ethanrocketman2
Note:  so it might not be 10/10...
Tuning: Standard

Intro riff. 

e|---------------------------------------------------------------------------|
B|---------------------------------------------------------------------------|
G|----------------------6----------------------------------------------------|
D|--------------7676-6------7----------7676--------------------------7676-6--|
A|-----6-76---------------------76--------------------------6-76-------------|
E|--9--------9-----------------------9-------------------9--------9----------|

Rest of the parts with riff.

e|---------------------------------------------------------------------------|
B|---------------------------------------------------------------------------|
G|---------------------------------------------------------------------------|
D|--------------7676-6--------------7676-----------------------------------------|
A|------7-76--------------6-76-----------------------------------------------|
E|--9--------9---------9---------9------------------------------------------|

Nicotine intro Tabs – Panic At The Disco V2

 -------------------------------------------------------------------------------
                        NICOTINE    Panic! At The Disco
-------------------------------------------------------------------------------
: Perri Freeman McKeon 
 perrifreema1

Tuning: Standard

e|---------------------------------------------------------------------------|
B|-------6-------------------------------------------------------------------|
G|-----5---5---8-5------------------------8----------------------------------|
D|-3-6-------------6-6-5-------8-5------5---8-5------------------------------|
A|---------------------------6----6---6--------------------------------------|
E|-------------------------8-------------------------------------------------|



************************************

I hope this was helpful! Sorry if it's not accurate!
************************************

Nicotine intro Tabs – Panic At The Disco

 -------------------------------------------------------------------------------
                             Nicotine - Panic! At The Disco
-------------------------------------------------------------------------------
(I did tab this by ear so sorry for any mistakes, although I think it sounds right.)

Intro/Main Riff

Tuning: Standard (EADGBe)

e|--------------------------------------------------------------------------|
B|--------------------------------------------------------------------------|
G|----------10---8----------------------------------------------------------|
D|--------10--10--10----------------------------13-8------------------------|
A|---8-11-----------11-11-10------13-10------10-------10--------------------|
E|---------------------------8-11------11--11-------------------------------|

Panic Station Tabs by Muse V3

 This is how I play the song, its a bit different from the original at some points 
but it still sounds pretty good. I'm in a band and this song sounds better played 
with two guitars and a bass. If you want to see a cover of this, go to this link:


Thanks

Standard Tuning (EADGBe)

Intro & Verse 1:
|--------------------12----|\
|--------------------12----| \
|--------------------12----|  \ x6
|-----------7/9------------|  /
|-----------5/7------------| /
|-----0-0-0-----0000-------|/

Chorus:
Normally played on bass but you can play on guitar:
|---------------------------------------|\
|---------------------------------------| \
|---------------------------------------|  \ x2
|--2-2-2-2-5-5-5-5-7-7-7-7-9-10--12--12-|  /
|---------------------------------------| /
|-0-0-0-0-3-3-3-3-5-5-5-5-7-8--10--10---|/
Guitar 2
|-------------------------------------------------------------|
|-------------------------------------------------------------|
|-------------------------------------------------------------|
|-99-xx-9-x-9-x-99--77-xx-7-x-7-x-77--9-9--xx-9--x-9--x-9-9---|
|-88-xx-8-x-8-x-88--88-xx-8-x-8-x-88--1010-xx-10-x-10-x-1010--|
|-77-xx-7-x-7-x-77--77-xx-7-x-7-x-77--9-9--xx-9--x-9--x-9-9---|

Riff:
|---------------------------|   |----------------------------121212-151515-|
|---------------------------|   |----------------------------121212-151515-|
|--9-----9---------12--7h9--|x2 |--9-----9---------12--7h9---121212-151515-|
|---9-12---9h12/14----------|   |---9-12---9h12/14-------------------------|
|---------------------------|   |------------------------------------------|
|---------------------------|   |------------------------------------------|

Verse 2:
Same as Verse 1

Chorus:
Same but with Riff played over the top by another guitar

First Solo:
Sounds better if played with open strings after each note but sounds alright with the open notes.
|----------------------------------|--------------------------------|
|----------------------------------|--------------------------------|
|----------------------------------|--------------------------------|x3
|----------------------------------|--------------------------------|
|----------------------------------|--------------------------------|
|-12-0-11-0-10-0-9-0-8-0-7-0-6-7-0-|-0-12-0-11-0-10-0-9-0-8-0-6-7---|

|----------------------------------|--------------------------------|
|----------------------------------|--------------------------------|
|----------------------------------|--------------------------------| 
|----------------------------------|--------------------------------|
|----------------------------------|--------------------------------|
|-12-0-11-0-10-0-9-0-8-0-7-0-6-7-0-|-0-12-0-11-0-10-0-9-0-8-0-6-7---|

Final Solo:
|------------------------------------------------------------------------|
|-12----------12----12----------12----14----------14----13----------13---|
|---12------12--12----12------12--12----14------14--14----12------12--12-|
|-----14--14------------12--12------------14--14------------14--14-------|x6
|-------14----------------14----------------16----------------15---------|
|------------------------------------------------------------------------|

Outro:
|----------------------------------12-12-12-12-|
|----------------------------------12-12-12-12-|
|----------------------------------12-12-12-12-|X2
|--------------7/9-----------------------------|
|--------------5/7-----------------------------|
|-----0--0--0--------0--0--0--0----------------|

A Deep Slow Panic intro Tabs by Afi

 AFI - A Deep Slow Panic
 Burials

Jade usually has tuned his guitar Half step down. But just for the intro I used 
standart tunning...
I love this song! 

(Use a Digital Delay and a Distortion)

Standart Tunning:


e¦---------------------------------------¦
B¦---------------------------------------¦
G¦--------------------------12-13-12-----¦
D¦-10--10-12--10--12-13-13-----------13--¦
A¦---------------------------------------¦
E¦---------------------------------------¦


e¦---------------------------------------¦-13\slide down -------------------¦
B¦---------------------------------------¦----------------------------------¦
G¦--------------------------12-13-12-----¦----------------------------------¦
D¦-10--10-12--10--12-13-13-----------15r-¦----------------------------------¦
A¦---------------------------------------¦----------------------------------¦
E¦---------------------------------------¦----------------------------------¦


e¦---------------------------------------¦
B¦---------------------------------------¦
G¦-12-13-12------------------------------¦
D¦----------13-13--12r-------------------¦
A¦---------------------------------------¦
E¦---------------------------------------¦


That's it. That's what I know. Have fun! 
Feel free to correct

Cant Fight Against The Youth chords – Panic At The Disco

 PANIC! AT THE DISCO
Can't Fight Against The Youth
Standard



Verse 1:
 B F# C# D#min 
Moving forward,  using all my breath,
 B F# C# D#min 
"I'll make it up to you," is all I should have said.
 B F# C# D#min 
Mom and Dad, looked me right between the eyes,
        B F# C# 
Then I awoke, a blinding light.



Chorus:
-                        E 
Can't fight against the youth! (Hey!)
      B F# 
Woah-oh-oh-oh-oh-oh
       D#min C# E 
Can't fight against the youth! (Hey!)
        B F# 
You'll never take us alive! 
       D#min C# E 
Can't fight against the youth! (Hey!)
      B F# 
Woah-oh-oh-oh-oh-oh
                         E 
Can't fight against the youth! (Hey!)
        B F# 
You'll never take us alive! 
-
Can't fight against the youth!


Verse 2:
 B F# C# D#min 
In December, 1995,
 B F# C# D#min       
Though I had the thoughts, no one ever heard them right
 B F# C# D#min 
Fought resistance nearly my entire life,
 B F# C# 
Then I awoke, a blinding light.



PLAY CHORUS


Bridge:
 B C# D#min            
   (Never gonna take us, never gonna break us.)
 B C# D#min 
   (Futures open wide, and the past is all behind us.)
 B C# D#min 
   (Never gonna take us, never gonna break us.)


PLAY CHORUS TWICE!


Pretty sure thats it :P hope it helps

Diner chords – Widespread Panic

 Lyrics :   Brian Whitman
Music :    Pete Millett 
Kevin Watson 
Scott Holcomb
This song has several "themes" which are very
harmonious and are sequenced troughout the song.
Once you get these themes, there's nothing to
the song. Houser showed me this one so its accurate.

Theme 1:
  /  /   /  /  /  /  /  /   /  /  /  /
   G F C G F 
|-3----5-----|-3--3--3----|-1----------|
|-3----6-----|-3--3--3----|-1----------|
|-0----5-----|-0--0--0----|-2----------|
|-0----------|-2--x--0----|-3----------|
|-2----------|-3--2--2----|-3----------|
|-3----------|-------3----|-1----------|

Verse 1:
 G F C G F 
Beautiful, the girl's cooking in the diner today
         G F 
Oh, she won't show the bother,
      C G F 
Even time she gets covered in blues

Theme 2, taking the song a little darker:
you will hold the same chord shape, letting it flow. . .

Theme 2:
  /  /  /  /   /  /  /  /
   G Eb C Bb 
|-3-----6----|-3-----6----|
|-3-----6----|-3-----6----|
|-0-----0----|-0-----0----|
|-0-----5----|-2-----0----|
|-2-----6----|-3-----5----|
|-3----------|-------6----|

        G Eb 
I sing kind little songs
 C Bb G Eb C Bb 
Trying to bait her soul
           G Eb C 
And she's like natural music
    Eb G Eb C Bb 
Anyway she moves

back to Theme 1


Verse 2:
Oh in time, time, time, I just love to watch her hands move
A little sugar, pepper,
Little brother wants to shine my shoes
   (move to Theme 2)
Go ahead, shine, shine, shine, I'll sit real still
And my backbone shivers as she looks this way
And I try not to move

She's beautiful - natural
Hangin in the diner basking in the light of Ms. Lee

Verse 2 (original lyrics):
Given time, Lord I'd build her a mountain for a room.
Given an hour, an hour, I'd build a rocket to the moon.
   (move to Theme 2)
Might take at least a week to find the strongest tool
Might take the rest of this lifetime
To find the strongest fuel

But she natural, she take the moon and put it in her pocket
She's beautiful, smiling it on me while I build this rocket

Jam section:
   /  /  /  /    /  /  /  /  x3  /  /  /  /    /  /  /  /
|--5-----6----|--6-----3------|--5-----6----|--8-----10----|
|--5-----6----|--6-----3------|--5-----6----|--10----12----|
|.-7-----8----|--6-----4-----.|--7-----8----|--10----12----|
|.-7-----8----|--8-----5-----.|--7-----8----|--8-----10----|
|--5-----6----|--8-----5------|--5-----6----|--8-----10----|
|--x-----x----|--6-----3------|--x-----x----|--x-----x-----|
  ( D7 )  ( D#7 )   ( Bb7 ) ( G )       ( D7 )  ( D#7 )   ( F7 )  ( G7 )

Solo in F penatonic (I think that's what you call that
scale, maybe it's Gm penatonic) over the first section of
above.  Move to the last section the last time through.

back to Theme 1

Verse 3:
Because the tounge tastes so old,
Can't even load you coffee sweet
When she serves a bowl of lightning,
Makes sure you get all you need
   (move to Theme 2)
Sometimes come for a menu, some just come in to breathe
Hanging in the diner sitting in the light of Ms. Lee

She's beautiful - natural
Hanging in the diner, basking in the light,
Basking in the light…

another jam section (see above)

Verse 4:
She's beauty, yeah, the girl's cooking in the diner today
No, she won't show the bother,
Even time she gets covered in blues
I sing comical songs trying to blame myself
She's all-ready mus

Trade Mistakes chords – Panic At The Disco V2

 Panic! at the Disco
Trade Mistakes
Standard


Violin & String start

(Actually arpeggios)

 G# A# D# 


(verse)
 Cmin G# A# 
Placing a smile at the perfect event,
               D# Cmin 
Gracing your skin with the side of my hand.
             G# A# 
If I ever leave I could learn to miss you
                   D# Cmin 
But "Sentimental Boy" is my nom de plume

 G# A# Gmin A#         
Let me save you, hold this rope



(Chorus)
 Cmin G# D# 
I may never sleep tonight,
 Cmin G# D# 
As long as you're still burning bright.
 Cmin                  
If I could trade mistakes for sheep,
 G# D# 
Count me away before you sleep.
-
I'll stay awake till I trade my mistakes
 G# D# 
Or they fade away



Verse - (arpeggio) and A#Maj arpeggio in background

 G# A# D# Cmin G# A# 
I feel marooned in this body
                D# Cmin 
Deserted, my organs can go on without me.
           G# A# 
You can't fly these wings.
            D# Cmin 
You can't sleep in this box with me.

 G# A# Gmin A# 
Let me save you, hold this rope



(Chorus)
 Cmin G# D# 
I may never sleep tonight,
 Cmin G# D# 
As long as you're still burning bright.
 Cmin                  
If I could trade mistakes for sheep,
 G# D# 
Count me away before you sleep.
-
I'll stay awake till I trade my mistakes
 G# D# 
Or they fade away



Bridge

     Gmin G# 
So, let me save you
 A# D# 
hold this rope and ill pull you in
       Gmin G# 
Cause I am an anchor
 A# D# 
save her or Feel it sinking in
 Gmin G# A# D# 
Let me save you, hold this rope
 Gmin G# A# D# 
I am an anchor, sinking her


 G# A# D# Cmin G# A# D# Cmin 
I may never sleep tonight,
    G# A# D# Cmin 
As long as you're still burning bright.



Chorus - different patterns

    G# A# 
If I could trade mistakes for sheep,
 D# Cmin 
Count me away before you sleep.
-
I'll stay awake till I trade my mistakes
 D# 
Or they fade away





Done. :) 
ill do Chorus lead later if I canbf

Diner Tabs by Widespread Panic

 Lyrics :   Brian Whitman
Music :    Pete Millett
Kevin Watson
Scott Holcomb
This song has several "themes" which are very
harmonious and are sequenced troughout the song.
Once you get these themes, there's nothing to
the song. Houser showed me this one so its accurate.

Theme 1:
  /  /   /  /  /  /  /  /   /  /  /  /
  G    F       C     G      F
|-3----5-----|-3--3--3----|-1----------|
|-3----6-----|-3--3--3----|-1----------|
|-0----5-----|-0--0--0----|-2----------|
|-0----------|-2--x--0----|-3----------|
|-2----------|-3--2--2----|-3----------|
|-3----------|-------3----|-1----------|

Verse 1:
G         F           C              G       F
Beautiful, the girl's cooking in the diner today
        G              F
Oh, she won't show the bother,
     C             G          F
Even time she gets covered in blues

Theme 2, taking the song a little darker:
you will hold the same chord shape, letting it flow. . .

Theme 2:
  /  /  /  /   /  /  /  /
  G     Eb     C     Bb
|-3-----6----|-3-----6----|
|-3-----6----|-3-----6----|
|-0-----0----|-0-----0----|
|-0-----5----|-2-----0----|
|-2-----6----|-3-----5----|
|-3----------|-------6----|

       G           Eb
I sing kind little songs
C         Bb             G   Eb   C   Bb
Trying to bait her soul
          G    Eb      C
And she's like natural music
   Eb      G      Eb   C   Bb
Anyway she moves

back to Theme 1


Verse 2:
Oh in time, time, time, I just love to watch her hands move
A little sugar, pepper,
Little brother wants to shine my shoes
   (move to Theme 2)
Go ahead, shine, shine, shine, I'll sit real still
And my backbone shivers as she looks this way
And I try not to move

She's beautiful - natural
Hangin in the diner basking in the light of Ms. Lee

Verse 2 (original lyrics):
Given time, Lord I'd build her a mountain for a room.
Given an hour, an hour, I'd build a rocket to the moon.
   (move to Theme 2)
Might take at least a week to find the strongest tool
Might take the rest of this lifetime
To find the strongest fuel

But she natural, she take the moon and put it in her pocket
She's beautiful, smiling it on me while I build this rocket

Jam section:
   /  /  /  /    /  /  /  /  x3  /  /  /  /    /  /  /  /
|--5-----6----|--6-----3------|--5-----6----|--8-----10----|
|--5-----6----|--6-----3------|--5-----6----|--10----12----|
|.-7-----8----|--6-----4-----.|--7-----8----|--10----12----|
|.-7-----8----|--8-----5-----.|--7-----8----|--8-----10----|
|--5-----6----|--8-----5------|--5-----6----|--8-----10----|
|--x-----x----|--6-----3------|--x-----x----|--x-----x-----|
  (D7)  (D#7)   (Bb7) (G)       (D7)  (D#7)   (F7)  (G7)

Solo in F penatonic (I think that's what you call that
scale, maybe it's Gm penatonic) over the first section of
above.  Move to the last section the last time through.

back to Theme 1

Verse 3:
Because the tounge tastes so old,
Can't even load you coffee sweet
When she serves a bowl of lightning,
Makes sure you get all you need
   (move to Theme 2)
Sometimes come for a menu, some just come in to breathe
Hanging in the diner sitting in the light of Ms. Lee

She's beautiful - natural
Hanging in the diner, basking in the light,
Basking in the light…

another jam section (see above)

Verse 4:
She's beauty, yeah, the girl's cooking in the diner today
No, she won't show the bother,
Even time she gets covered in blues
I sing comical songs trying to blame myself
She's all-ready music in a booth, man, if she catch you

Then it progresses to the slower part as Houser gears up:


Theme 3:
  /  /  /  /   /  /  /  /
|-5-----6----|-3-----6----|
|-5-----6----|-3-----6----|
|-x-----0----|-0-----0----|
|-x-----5----|-2-----0----|
|-5-----6----|-3-----5----|
|------------|-------6----|

This goes on for a few bars as Schools works around.
Then back to Theme 2 for the remainder, this time with
a sweeping