Tag: paradise

Fought For Me Acoustic Tabs – Paradise Fears

 -------------------------------------------------------------------------------
                             Fought for Me - Paradise Fears
-------------------------------------------------------------------------------
: Naskablackbelt



Tuning:Standard 

CAPO 2 for recorded version! Listen to recording for exact rhythm

Easy way to do the song is hold a D chord fingering throughout with your middle, ring, and pinky fingers, 
and make your index finger a movable finger that will cover the A and Low E strings. 

Intro/Chorus/Bridge:

e|---------------------------------------------------------------------------|
B|-----------3---------3-----3-----------------------------------------------|
G|-----2-------2---------------2---------------------------------------------|
D|---0-----0-----0---0-----0-----0-------------------------------------------|
A|-2-----2-------------------------------------------------------------------|
E|-----------------2-----3---------------------------------------------------|

For Intro and parts between chorus and next verse/bridge: 2x
For Chorus: 4x
For Bridge: 8x

Verses: 

* = Percussive stroke, aka slapping the strings and guitar to make a beat without producing a note

e|--------*------------------------------------------------------------------|
B|-------3*-----3-----3------------------------------------------------------|
G|-----2--*-------------2----------------------------------------------------|
D|---0----*---0-----0-----0--------------------------------------------------|
A|-2------*------------------------------------------------------------------|
E|--------*-2-----3----------------------------------------------------------|

For verse: 8x

Song Structure:
Intro
Verse
Chorus
Verse
Chorus
Bridge
Chorus x2

Rose In Paradise chords – Waylon Jennings

 Intro:  D C G D 
Verse 1
 D C 
She was a flower for the takin'
 G D 
Her beauty cut just like a knife.
 D C     
He was a banker from Macon. 
 G D 
He swore he'd love her all his life.

Verse 2
 D C 
He bought her a mansion on a mountain,
 G D  
With a floral garden and a lot of land.
 D C 
But paradise became her prison
 G D 
That Georgia banker was a jealous man

Chorus
 Bm G 
And every time he talked about her
 Bm G A 
You could see the fire in his eyes  

...and he'd say...

 D C 
I would walk through hell on Sunday
 G D 
To keep my rose in paradise

Verse 3
 D C 
He hired a man to tend the garden
 G D 
Keep an eye on her while he was gone
 D C 
Some say they ran away together
 G D 
Some say that gardener left alone

Verse 4
 D C 
Now that banker is an old man
 G D 
That mansions crumblin' down
 D C 
He sits all day and stares at the garden
 G D 
Not a trace of her was ever found

Chorus
 Bm G 
And every time he talked about her
 Bm G A 
You could see the fire in his eyes  

...and he'd say...

 D C 
I would walk through hell on Sunday
 G D 
To keep my rose in paradise

Verse 5
 D C 
Now there's a rose out in the garden
 G D 
It's beauty cuts just like a knife
 D C 
Some say it even grows in the winter time
 G D 
And blooms in the dead of the night 

Outro:  D C G D  X 4 and fade

Paradise Lost chords – Hollywood Undead V2

 Alternate between using Dsus2 and Dm. First tab so hope you guys and gals enjoy.

Intro.
 Dsus2 Gm Bb A Dm Am Bb 
So watch my chest heave
           C 
as this last breath leaves me
        Dsus2 
I am trying to be

what you're dying to see
               Bb 
I feel like "Fuck man,
                     C 
can't take this, anymore,

this heart, break this."
          Dsus2 
This is life that's so thankless,

How could he just forsake us?
 Bb 
Breaks us he makes us
 C 
hate us he gave us
 Dsus2 
nothing but no trust

and I am so fucked up
     Bb 
So let this gun bond us
 C 
Lets hide by this lust
          Dsus2 
and once we are just dust

he'll know that he loved us
 A Bb 
LET IT ALL BURN
              C 
I will burn first
               Dsus2 Dm Dsus2 Dm 
God i've tried, am i lost in your eyes?
             Amaj7 C 
Just let me burn, it's what I deserve.
                 Dsus2 Dm Dsus2 Dm 
God i've lied, am i lost in your eyes?
 Bb 
So take me and make me
 C 
weakened and save me
      Dsus2 
this hate that you gave me
                  
keeps saying the same thing
     Bb 
to sing when you hurtin'
      C 
to sing when you cry
    Dsus2 
to sing when you livin'

to sing when you die
      Bb 
and here at the end
         C 
at the end of the hurt
         Dsus2 
all the pain ain't the same

when it's your turn to burn
            Bb 
We're the heart for the heartless,
       C 
the thoughts for the thoughtless,
      Dsus2 
the lies for the honest
            Dm 
We're the gods of the godless!
             Bb 
Let it all burn
              C 
I will burn first
            Dsus2 Dm Dsus2 Dm 
God I've tried, am I lost in your eyes?
              Bb 
Just let me burn
               C 
It's what I deserve
          Dsus2 Dm Dm Dsus2 Dm 
God I've lied, am I lost in your eyes?
                    G 
So cry 3 tears for me,
           F 
burning so good,
             A 
sing me this song
        Dsus2 Gm 
So cry 3 tears for me,
          F 
burning so good,
               
burning so good
 Dm 
I can not stand
       Gm 
who i am I'm this man
          F 
with this blood on my hands
          A 
in this blood I am damned
          Dm 
so watch my wings burn
          Gm 
as they burn in the fire
        F 
I'll scatter the ashes
     A 
no need for the choir
            Amaj7 
Let it all burn,
              C 
I will burn first
          Dsus2 Dm Dm Dsus2 Dm   
God i've tried, am i lost in your eyes?
              Bb 
Just let me burn
              C 
it's what I deserve,
          Dsus2 Dm Dsus2 Dm Dsus2 Dm 
God i've lied, am i lost in your eyes?
     Bb C 
This hate that you gave me keeps saying
              Dsus2 
Just let me burn,
              Dm<

In This We Dwell Tabs by Paradise Lost

 Paradise Lost
Tragic Idol
In This We Dwell
Tuning: A D G C F A D
=======================================================================
Notes
+ Video of Greg playing the intro shows that he changes positions, moving toward the nut 
for the final 2 or 3 notes.
  I think if you transpose the notes from the C string to the high A or D strings
  then you'll get more of the authentic way Greg plays it. I just feel more comfortable 
playing as I have tabbed the intro.
+ All Lead parts - I can't play lead so the notes are my best guesses.
+ No main solo
=======================================================================

Intro
D |------------------------------------|-----------------------------------------|
A |------------------------------------|-----------------------------------------|
F |-----7---8-----5---7--------7-------|------7---8-----5---7--------7-----------|
C |-5-5---5---5-5---5---5-8--5----7^8--|--5-5---5---5-5---5---5-8--5----7^8^7^5--|
G |------------------------------------|-----------------------------------------|
D |------------------------------------|-----------------------------------------|
A |------------------------------------|-----------------------------------------|

                                       Play x2
D |----------------------------------||--------------------------||
A |----------13-15-15v----15^13-13v--||-15-15^13^11-15-15^13^11--||
F |-12-14-15-------------------------||--------------------------||
C |----------------------------------||--------------------------||
G |----------------------------------||--------------------------||
D |----------------------------------||--------------------------||
A |----------------------------------||--------------------------||
                   F       C    C#      G#            G

D |-------------------------------------------------------|
A |-16-15-13-15-13-11-13-11----11-------------------------|
F |-------------------------14----14-12-12v-----14-15v----|
C |-------------------------------------------------------|
G |-------------------------------------------------------|
D |-------------------------------------------------------|
A |-------------------------------------------------------|
    C                     G              F       C   C#

D |-------------------------------------------|----------------------|
A |--------------------------------13-15-15v--|----------------------|
F |-----------------------12-14-15------------|----------------------|
C |--------------12-13-15---------------------|----------------------|
G |-----12-13-15------------------------------|----------------------|
D |--15---------------------------------------|--Depress whammy bar--|
A |-------------------------------------------|----------------------|
     G#                       G     C           G

Intro
Repeat x2 (F C C# G# G C G)
Approximate chord locations are written below the Intro Lead tab
D |----------------------------------|
A |----------------------------------|
F |----------------------------------|
C |--------7-------------------------|
G |--5-----5--------8-----7-------7--|
D |--3--------6-----6-----5--5----5--|
A |-----------4--------------3-------|


Verse lead-in
D |---------------------------------------|-------------------------------------|
A |---------------------------------------|-------------------------------------|
F |---------------------------------------|-------------------------------------|
C |------5--------------------------------|------5--------5---------------------|
G |------5-----5---6-5-5-5-5-6^5^3-6^5^3--|------5-----5--3----55(5)/8-77(7)/5--|
D |--3-3-3-3-3---3---3-3-3-3--------------|--3-3-3-3-3----3----33(3)/6-55(5)/3--|
A |---------------------------------------|-------------------------------------|


Verse 1 part 1
*Play main riff, then *1, back to main riff, then *2
D |----------------|---------------------|----------------|
A |

Summer Paradise chords – Simple Plan V5

 Capo: 2

    C 
My heart is sinking
 G Am 
As I'm lifting up
                F 
Above the clouds away from you

       C G 
And I can't believe I'm leaving
      Am F 
Oh I don't kno-kno-know what I'm gonna do

Pre-Chorus :

    Am F 
But someday
 C G 
I will find my way back
      Am F 
To where your name
     E 
Is written in the sand

Chorus:

 F C 
Cause I remember every sunset
 G Am G F 
I remember every word you said
  F C 
We were never gonna say goodbye
 G 
Say la-ta-ta-ta-ta

 F C 
Till we had to get back to
 G Am G F 
Back to summer paradise with you
 F C G 
And I'll be there in a heartbeat
   G 
Oh-oh
   F C G 
I'll be there in a heartbeat
   G 
Oh-oh

Home chords – Paradise Fears

 C 
Can you feel this, the walls are closing,
 Am 
slipping further from the hand we're holding,
 G F 
feel the footsteps inching closer -- still so far away.
 C 
It's 2 am, but I can't sleep,
             Am 
I'm running circles in my head around a restless dream,
        G 
I know I'm not the person that I used to be but
 F G 
I still can't shake this, no I can't take this.
 C Am G F 
You said, you said, "are you finding me right where you're supposed to be?"
    C Am G F 
But I said, I said, I'm so scared to want this knowing all that I want is

 C G 
Home Why am I everywhere but home?
              Am F G 
Why do I feel so alone when everybody's screaming out my name?
                 C G 
I just wanna go home, pack my bags and hit the road,
                Am F G 
knowing all I need to find is the life I left behind,
I just wanna go

 C 
Home is where they say the heart is,
 Am 
but mine can't figure out just where we started,
 G F 
so caught between chasing this dream and watching what I left fall apart and
 C 
My mom, I swear she's every face I see,
 Am 
My dad, when I'm gone, oh he can't sleep.
 G 
They tell me that the world is waiting for me
         F 
but I hate watching my brother growing up without me.
 C Am G F 
You said, you said, "are you finding me right where you're supposed to be?"
    C Am G F 
But I said, I said, I'm begging on my knees, please god just take me

 C G 
Home Why am I everywhere but home?
              Am F G 
Why do I feel so alone when everybody's screaming out my name?
                 C G 
I just wanna go home, pack my bags and hit the road,
                Am F G 
knowing all I need to find is the life I left behind,
I just wanna go

 C Am F 
When the miles are getting longer, streets are getting darker,
                         G 
you've got nowhere to turn, and the walls are closing
 Am C 
in on you and everyone you love, feels like there's no one left to trust,
 F G Am 
I just need something to believe, so please god just take me home
               F 
Just take me home
Just take me

 C G 
Home Why am I everywhere but home?
              Am F G 
Why do I feel so alone when everybody's screaming out my name?
                 C G 
I just wanna go home, pack my bags and hit the road,
                Am F G 
knowing all I need to find is the life I left behind,
                C G 
I just wanna go  home

Lost In Paradise chords – Rihanna

 Verse 1:

 C#M ,  B ,  A ,  F#  
What am I supposed to do with this heart?
How do I take it off if I love it on? It's like a work of art
In love we all will fall but we fell a little harder
What am I supposed to do with this heart?

 A B 
    It may be wrong, but it feels right
To be lost in paradise
 C#M B E F# 
      I'm so lost in paradise
 C#M B E F# 
     If I open up my eyes

                     C#M B 
I can see the storm, I can see the sky
                      E A 
I can see the darkness, flashing lights
             C#M B E 
All my fears don't deny, let me stay
       F# 
I'm lost in paradise


Verse 2:

 C#M ,  B ,  A ,  F#  
How was I to know that my love was delusional?
Somebody tell me how to mend a brokenhearted soul
In love we all will fall but we fell a little harder
What am I supposed to do with this heart?

 A B 
It may be wrong, but it feels right
To be lost in paradise
 C#M B E F# 
      I'm so lost in paradise
 C#M B E F# 
     If I open up my eyes

                     C#M B 
I can see the storm, I can see the sky
                      E A 
I can see the darkness, flashing lights
             C#M B E 
All my fears don't deny, let me stay
       F# 
I'm lost in paradise

 A B 
     It may be wrong but it feels right
                                       A B 
All my fears are gone tonight
I'm lost in paradise

 C#M B E F# 
      I'm so lost in paradise
 C#M B E F# 
     If I open up my eyes

                     C#M B 
I can see the storm, I can see the sky
                      E A 
I can see the darkness, flashing lights
             C#M B E  
All my fears don't deny, let me stay
       F# 
I'm lost in paradise
 C#M B E F# 
Lost in paradise
   C#M B E F# 
Yeah, lost in paradise
   C#M B E F# 
Lost in paradise

Lost In Paradise chords – Joanna Wang

 verse          Gmaj7  | A/G | A/F# | Bm Gmaj7  | A   | A/F# | B7sus4 , B7 | B7 , B7sus4 

pre-chorus     Gmaj7  | A   | A/F# | Bm Bb , Am7 | A   | Gm   | A7sus4 | A7 

chorus         Gmaj7 , A | A/F# , Bm | Gmaj7 , A   | A/F# , Bm Gmaj7 , A | A/F# , Bm | B7sus4 , B7 | B7 , B7sus4 

bridge         Emaj7 , Em7 | Ebm7 | B/G# , G#m | Dbm7 Bsus2/F# , G | A , B 

last chorus play chorus 1 whole step up

lyrics
I know that it might sound strange
But you made my seasons start to change
It happened so suddenly
Like heaven has waited up for me

I've just been looking so long
Kept meeting my Mr.wrong
In every model and every size
Now my fantasy is staring at your eyes

Sometimes you think I'm beautiful
But I don't know
I'll keep it to myself
You say it. It feels wonderful
My smile can show
I'm lost in paradise

The letters you wrote to me
Showed me the signs I've never seen
I thought every man I'd want
Falls out of a dating magazine

But now I know that with you
That was so far from the truth
On every page and every line
Now you've my everything
I guess you know how to read my mind

Sometimes you think I'm beautiful
But I don't know
I'll keep it to myself
You say it. It feels wonderful
My smile can show
I'm lost in paradise

I know
I guess that it shows
The message that flows to me
Make it more worth than make believe

Sometimes you think I'm beautiful
But I don't know
I'll keep it to myself
You say it. It feels wonderful
My smile can show
I'm lost in paradise

Sometimes you think I'm beautiful
But I don't know
I'll keep it to myself
You say it. It feels wonderful
My smile can show
I'm lost in paradise