Tag: parquet

Black And White solo Tabs – Parquet Courts

 Black and White - Parquet Courts
   Sunbathing Animal (2015)
~~~~~~~~~~~~~~~~~~~~~~~~~~~~~~~~

All 3 Verses

"..bold strokes crack..."

e|---------------------|
B|---------------------|
G|---------------------|
D|---------------------|
A|--0~-----------------| let note ring out w/ feedback
E|---------------------|

"..I want something more than..."

e|-------------------------------------------|
B|-------------------------------------------|
G|-------------------------------------------|
D|--------5--4--2----------7--5--4--2~-------| let last note ring out w/ feedback 
A|--5--------------3--3\5--------------------|   (especially on the last verse)
E|-------------------------------------------|


What I could make from the solo;

Starts at about 1:55

e|--------------------------------|
B|--------------------------------|
G|--------------------------------|
D|--------------------------------|
A|--14----12----9---9\10-9/-7~----|
E|--------------------------------|

Yr No Stoner Tabs by Parquet Courts

 : Federico Ribeiro

Tuning: Standard

Main Riff

e|---------------------|
B|---------------------|
G|---------------------|
D|-----------------9-7-|
A|------------7-10-----|
E|-10-10-10-8----------|

e|---------------------|
B|---------------------|
G|---------------------|
D|-8--------10---------|
A|-8--------10---------|
E|-6--------8----------|


Solo

e|-----------------------------------------------------------------------------------------------|
B|-----------------------------------------------------------------------------------------------|
G|-14--14--14--14-12--10---------------------------7-9-------7-9-------7-9--11--11-11-16-16-15~--|
D|------------------------12--10-12-10-12-----7-10------7-10------7-10---------------------------|
A|-----------------------------------------------------------------------------------------------|
E|-----------------------------------------------------------------------------------------------|

Stoned And Starving Tabs by Parquet Courts

 Parquet Courts - Stoned and Starving
Tuning: C A D G B e

The band plays the song in C G D G B e, an old Pavement tuning, but you 
can still play the song fine without tuning down the A string. If you 
want to play it without the A tuned down, it should be relatively easy 
to figure out.

Main riff:

   C                                F
e|-------------------------------|------------------------------------|
B|-------------------------------|--10---10---10-10-10-10-------------|
G|-------------------------------|--10---10---10-10-10-10-------------|
D|---------------8---8---8-8-----|--10---10---10-10-10-10-------------|
G|---10-10p9-/5--5---5---5-5-----|--10---10---10-10-10-10-------------|
C|-0---------------0---0---------|------------------------------------|

   x4                              x1

After solos, play the riff twice instead of four times before the F 
chord.  The rhythm guitarist plays the notated chords and continues 
the pattern during solos.

First solo:

e|--------------------------------------------------------------------|
B|--13----13--13--11--11/13--13----15--15/17---/20--20--17--20--17----|
G|--------------------------------------------------------------------|
D|--------------------------------------------------------------------|
G|--------------------------------------------------------------------|
C|--------------------------------------------------------------------|

e|--------------------------------------------------------------------|
B|--17--15--13----11---/8----8--/11---15----17---17--15--17-----------|
G|--------------------------------------------------------------------|
D|--------------------------------------------------------------------|
G|--------------------------------------------------------------------|
C|--------------------------------------------------------------------|

e|--------------------------------------------------------------------|
B|--15---15---15---15/17--17--17------15---15---15---15/17--17--17-15-|
G|--15---15---15---15/17--17--17------15---15---15---15/17--17--17-15-|
D|--------------------------------------------------------------------|
G|--------------------------------------------------------------------|
C|--------------------------------------------------------------------|

e|--------------------------------------------------------------------|
B|-15---15---15---15---15/17--17--15---15---15---15---15/17--17-17-15-|
G|-15---15---15---15---15/17--17--15---15---15---15---15/17--17-17-15-|
D|--------------------------------------------------------------------|
G|--------------------------------------------------------------------|
C|--------------------------------------------------------------------|

e|----------------------------------------------------------15--------|
B|--17--17--17-15---15/13-11/13-----13/15-15-15---15--11-13----11-13--|
G|--17--17--17-15-----------------------------------------------------|
D|--------------------------------------------------------------------|
G|--------------------------------------------------------------------|
C|--------------------------------------------------------------------|

e|--------------------------------------------------------------------|
B|--15-------------15----17-------------------------------------------|
G|------10-/15--------------------------------------------------------|
D|--------------------------------------------------------------------|
G|--------------------------------------------------------------------|
C|--------------------------------------------------------------------|


Second solo:

e|--------------------------------------------------------------------|
B|---13-----13---11---11--11/8-8--8/11-/8---8/6---6/8--8--8/11--------|
G|--------------------------------------------------------------------|
D|--------------------------------------------------------------------|
G|------------------------

Yonder Is Closer To The Heart Tabs by Parquet Courts

 YONDER IS CLOSER TO THE HEART - Parquet Courts-
---------------------------------------------------------------- 
:      n8cee Email: nbcline81tabs 
Tuning: Standard
    Em     A    G5
e|---7-----5---------------------------------------------------------------|
B|---8-----5---------------------------------------------------------------|
G|---9-----6----12---------------------------------------------------------|
D|---9-----7----12---------------------------------------------------------|
A|---7-----7----10---------------------------------------------------------|
E|---x-----5---------------------------------------------------------------|

Em                                      A                                                       
Pocket contents: Rizla pack, spare change, receipts in wads.

Em                                     A
Stacked in camps across my desk, each day another pile.
Em                                      A
Time was measured in balls of lent, laundry claim tags and number of cents
Em                                      A
It takes to drown your brain into a just-dowsed former fire.

Em A Em A Em A

Em                                    A
Coffee breaks and lamb's tail shakes aren't arbitrary marks.
Paycheck stubs, good sex and drugs can fade away distractions of the
Mantras of "keep going" that are lodged into my thoughts.
They replay on days when yonder is closer to the heart.

CHORUS RIFF X2
This thickness is just enough to wade through. [x2]

Pocket contents: Rizla pack, spare change, receipts in wads.
Stacked in camps across my desk, each day another pile.
Time was measured in balls of lent, laundry claim tags and number of cents
It takes to drown your brain into a just-dowsed former fire.

CHORUS RIFF X4
This thickness is just enough to wade through. [x4]

BRIDGE
G5 Em G5 Em G5 Em G5 Em

Em                                  A
Coffee breaks and lamb's tail shakes aren't arbitrary marks.
Paycheck stubs, good sex and drugs can fade away distractions of the
Mantras of "keep going" that are lodged into my thoughts.
They replay on days when yonder is closer to the heart.

CHORUS RIFF X4
This thickness is just enough to wade through. [x4]

CHORUS RIFF
e|---------------------------------------------------------------|
B|---------------------------------------------------------------|
G|--------------------12-12-12--9-9-9-9--9-9-9-9-----------------|
D|-----------------7--12-12-12--9-9-9-9--9-9-9-9-----------------|
A|-9-7---------7-9----10-10-10--7-7-7-7--7-7-7-7-----------------|
E|-----10-9-10---------------------------------------------------|

N Dakota Tabs by Parquet Courts

 NOTE: Andrew plays this song in an alternate Open G tuning (CGDGBd). Also, this is only 
my interpretation of what he plays, based off of this video: 
http://www.youtube.com/watch?v=iWAdh4YIpd8, so I'm likely quite off.

d|----------------------------------------------------------------|
B|----------------------------------------------------------------|
G|----------------------------------------------------------------|
D|------------------------------------------------7---------------|
G|----9---9-7---------9---9-7---------7---7-5---5-----5-8---8---8-|
C|0-------------7-7-------------5-5-------------------------------|