Tag: party

Give Myself A Party chords – Don Gibson

 Give Myself A Party:Don Gibson.
#5 US Country and #46 on BB Hot 100
on RCA Records in 1958.

INTRO:  G C D G 

#1.
 Em G C D 
I've got a lot of memories to last me 
                G 
the rest of my life.
 G C D 
So, if you don't want to love me, baby, 
                G 
that'll be all right.
 G C D 
I'm gonna take all the lovin' that I 
          G 
have for you.
 G C D 
Gonna take all the loneliness, sit right 
               G 
down with the blues.

CHORUS:
 G C 
I'm gonna give myself a party, and serve 
     G 
old memories.
 G Em A 
Give myself a party, think of how it used 
    D 
to be.
                  C G 
Remember all the happiness that we once knew.
 G Em D 
I'm gonna give myself a party, just me and 
     G C G 
the blues..(just me and the blues.)


INTERLUDE:  G C D G  

#2.
 Em G C D G 
A  few of your love letters, a photograph or two.
 G C D C 
A gift you gave on my birthday with words of, I 
      G 
love you.
 G C 
There's a lots of things to think about, when 
        D G 
you're happy, feeling blue.
 G C D 
So, I'm gonna take all the loneliness, sit right 
               G 
down with the blues.

CHORUS:
 G C 
I'm gonna give myself a party, and serve 
     G 
old memories.
 G Em A 
Give myself a party, think of how it used 
    D 
to be.
                  C G 
Remember all the happiness that we once knew.
 G Em D 
I'm gonna give myself a party, just me and 
     G C G 
the blues..(just me and the blues.)



A fifties smash from Kraziekhat.



Road Trip chords – Ninja Sex Party

 ROAD TRIP - Ninja Sex Party
Standard Tuning (EADGBe)

*If you don't like playing Bb chords, put a capo on the 3rd 
fret and transpose this tab DOWN 3 half-steps to play in G


 Bb                                 
   I met a girl a few weeks ago 
            ( Bb )
   She's so smart and beautiful
 C       
   When she's around I feel my heart beat 
                Eb F 
   Down in the very depths of my soul
               Bb 
   So c-c-c-c-c'mon Ninja Brian pack your bags
              ( Bb )
   We're going on a cross-country trip
                   C 
   'Cause if this girl and I go on one more date
                  Eb F 
   We'll start a meaningful relationship

  
   FUCK THAT! WOOOOO!!!


 Eb Bb 
   Let’s hit the road
      F Gm Eb Bb       
   I was so close to... personal growth 
           F Gm 
   So California here I come
 Eb Bb F Gm 
   I wanna bone across the nation 
 Ab Eb F 
   Let's bust a load of summer fun!


             Bb 
   I porked most of New York 
                ( Bb )
   I banged 'em silly in Philly
             ( Bb )
   I had ‘em screaming for Balti-more
                 C 
   I slapped my groin on Des Moines
                  ( C )
   And dropped my phallus in Dallas
               Eb F 
   We’re only halfway through Day Four


                        Bb 
   I g-g-g-g-gave some C to DC
           ( Bb )
   Bust coconuts on Miami
           ( Bb )
   I shot puree on Santa Fe
                C 
   I gave some penix to Phoenix
               ( C )
   And my nuts rattled Seattle
                 Eb F 
   So hard they felt it in L.A.


   TAKE THAT! YEAH!!!


 Eb Bb F Gm 
   Now here we are in California
 Eb Bb 
   These girls are hot
              F Gm 
   And Brian bought us a new yacht 
      ( Gm )
   He killed the previous owner
 Eb Bb F Gm 
   Let's raise the sail for a gonadventure
 Ab Eb F 
   This boner quest has just begun!


 Eb Bb 
   I left 'em smitten in Britain
                F Gm 
   And had sex so hard with Lima it landed in Argentina
 Eb Bb 
   Then things got beejy in Fiji
            F Gm 
   I had a four-way in Norway and started breedin' with Sweden 
 Eb Bb 
   New Zealand got a blast of my semen
               F Gm 
   I did some butt stuff with Russians until they got a concussion
    Bb Eb 
   I Banged-ladesh!
                F 
   Now there's only one way to keep things fresh, 'cause...


 Eb Bb 
   I've conquered Earth
          F Gm  
   It is time to move on!
 Eb Bb 
   Let's take a rocket
              F Gm 
   Find some hot alien sluts
       ( Gm ) 
   Set phasers to thrust
 Eb Bb 
   No time for spacesuits
         F Gm 
   I am way too horny!
 Ab Eb 
   Let's show this galaxy what's - HAUKKKKKKKKK

Party Tonight chords – Xo-Iq

 Standard Tuning (2nd Fret Capo)

 AM7 
What's up there's something in the air
 E 
It's that feeling when the weekend comes
 A 
Say what you doing way up there
 A 
I think that we could have some fun

 AM7 
I know this place a week ago
 E 
we're not invited but who cares
 A 
we girls are putting on a show
 A AM7  
there's so much happening out there
 E A A 
Out there out there 

 Asus2 
do whatever ever
 E 
be whatever ever
 G# 
dance forever ever ever ever

                   AM7 
so climb out your window
                         E 
cause we're waiting for you we're gonna party tonight 
 A A 
oh oh oh oh oooh oh oh oh oh oooh

                  AM7 
we'll go crash a party
              E 
call up everybody we're gonna party tonight
 A A 
oh oh oh oh oooh oh oh oh oh oooh

                  AM7 
forget what your head says
                    E 
we're young and we love it we could do whatever we like
 A A  
oh oh oh oh oooh oh oh oh oh oooh

                   AM7 
so climb out your window
                         E 
cause we're waiting for you we're gonna party tonight 
 A A   
oh oh oh oh oooh oh oh oh oh oooh
we're gonna party tonight 

 AM7 
hook all your friends up with a text
 E 
we'll turn some speakers up and dance
 A 
break rules like Charli XCX
 A 
And throw stuff up on instagram

 AM7 
set fireworks off in the parks
 E 
and watch them lighting up the air
 A 
we'll crash out underneat the stars
 A AM7  
there's so much happening out there
 E A A 
Out there out there 

 Asus2 
do whatever ever
 E 
be whatever ever
 G# 
dance forever ever ever ever

                   AM7 
so climb out your window
                         E 
cause we're waiting for you we're gonna party tonight 
 A A 
oh oh oh oh oooh oh oh oh oh oooh

                  AM7 
we'll go crash a party
              E 
call up everybody we're gonna party tonight
 A A 
oh oh oh oh oooh oh oh oh oh oooh

                  AM7 
forget what your head says
                    E 
we're young and we love it we could do whatever we like
 A A  
oh oh oh oh oooh oh oh oh oh oooh

                   AM7 
so climb out your window
                         E 
cause we're waiting for you we're gonna party tonight 
 A A   
oh oh oh oh oooh oh oh oh oh oooh
we're gonna party tonight 

 AM7 E 
We don't need nobody
 A A 
Turn the lights up Turn the lights up up
 AM7 E 
We don't need nobody
 A A 
Turn the lights up Turn the lights up 

                   AM7 
so climb out your window
                         E 
cause we're waiting for you we're gonna party tonight 
 A A 
oh oh oh oh oooh oh oh oh oh oooh

                  AM7 
we'll go crash a party
              E                             
call up everybody we're gonna party tonight
 A                 
oh oh oh oh oooh Oh We're gonna party

 AM7 E  
oh oh oh oh oooh oh oh oh oh oooh
 A A 
oh oh oh oh oooh 
                   AM7 
so climb out your window
                

Wild World Tabs – Birthday Party

 Artist: The Birthday Party
Song: "Wild World"
 The Bad Seed (1983)



Standard Tuning



Rowland S. Howard (Fender Jaguar into Fender Twin Reverb)



INTRO/VERSE I:
e|------------------------------------------------------------------------|
B|------------------------------------------------------------------------|
G|------------------------------------------------------------------------|
D|------------------------------------------------------------------------|
A|------------------------------------------------------------------------|
E|------------------------------------------------------------------------|
+
e|-------------------------------------16----15---------------------------|
B|-------------------------------------------------13----14----13---------|
G|-------------------------------------------------------------------13---|
D|------------------------------------------------------------------------|
A|------------------------------------------------------------------------|
E|------------------------------------------------------------------------|
+
e|------------------------------------------------------------------------|
B|------------------------------------------------------------------------|
G|------------------------------------------------------------------------|
D|-15~--------------------------------------------------------------------|
A|------------------------------------------------------------------------|
E|------------------------------------------------------------------------|
+
e|-------------------------------------16----15---------------------------|
B|-------------------------------------------------13----14----13---------|
G|-------------------------------------------------------------------13---|
D|------------------------------------------------------------------------|
A|------------------------------------------------------------------------|
E|------------------------------------------------------------------------|
+
e|------------------------------------------------------------------------|
B|------------------------------------------------------------------------|
G|-12~--------------------------------------------------------------------|
D|------------------------------------------------------------------------|
A|------------------------------------------------------------------------|
E|------------------------------------------------------------------------|
+
                                     * play softly
e|------------------------------------------------------------------------|
B|------------------------------------------------------------------------|
G|-------------------------------------13-13-13-13-13-13-13-13-13-13-13-13|
D|------------------------------------------------------------------------|
A|------------------------------------------------------------------------|
E|------------------------------------------------------------------------|
+
e|------------------------------------------------------------------------|
B|------------------------------------------------------------------------|
G|-13---------------------------------------------------------------------|
D|------------------------------------------------------------------------|
A|------------------------------------------------------------------------|
E|------------------------------------------------------------------------|
+
e|------------------------------------------------------------------------|
B|------------------------------------------------------------------------|
G|------------------------------------------------------------------------|
D|-------------------------------------10----11----10----11----10----11---|
A|------------------------------------------------------------------------|
E|------------------------------------------------------------------------|
+
e|------------------------------------------------------------------------|
B|----------------------------

The Marshals Are Dead Tabs – Bloc Party V2

 Found this tab elsewhere and it seemed to better than ones on here already.




ARTIST: Bloc Party
SONG: The Marshals Are Dead
ALBUM: Bloc Party (EP)
TABBED BY: Jonny Kates
DATE: 18th January, 2005
RELATED LINKS: www.blocparty.com, www.blocparty.net (unofficial).
LYRICS: http://www.blocparty.net/themarshalsaredead.html
STREAM/DOWNLOAD: http://www.blocparty.com/special/Bloc_Party_-_The_Marshals_Are_Dead.mp3
The author refuses to be held responsible for the content or legality of the above links.

AUTHORS NOTES:
I felt that this song was just crying out to be tabbed, so here it is. See the end of the
page for the structure of the song to help if you need it. I have tried to set out the timing
as best I can, but listening to the song will obviously help. I am also unsure/cannot be
bothered to check that the 'guitar1' and 'guitar2' titles above the sections do actually
correspond to the correct guitar. Either way, they are both fairly accurate I think. This
whole tab was worked out by ear, I didn't copy it from anywhere. Obviously alot of the riffs
can be transposed to different places on the guitar, although I have found that the way it is
tabbed below is my personal preferance. Sometimes the other guitar will be playing something
already tabbed, so I haven't repeated it. It should be pretty obvious if you hear it.

 Enjoy and email me feedback at jonnykates@gmail.com!


GUITAR1: INTRO/VERSE1 (0:01-0:39)
E|-------------------------------------|-------------------------------------|
B|-------------------------------------|-------------------------------------|
G|-------------------------------------|-------------------------------------|
D|-12--12--12--12--12--12--14-14-14-14-|-12--12--12--12--12--12--12-12-12-12-|
A|-14--14--14--14--14--14--14-14-14-14-|-14--14--14--14--14--14--13-13-13-13-|
E|-------------------------------------|-------------------------------------|

GUITAR1: CHORUS (0:39-1:05)
E|-------------------------------------|
B|-------------------------------------|
G|-11--11--11--11--11--11--11-11-11-11-| (repeat over. Guitar 2 may actually play
D|-12--12--12--12--12--12--12-12-12-12-|  some of the higher notes in the same chord,
A|-14--14--14--14--14--14--14-14-14-14-|  but it's not really needed and you can't
E|-------------------------------------|  really tell.)

GUITAR1: BRIDGE (1:05-1:18)
E|-----------------------------------|-------------------------------|
B|-----------------------------15-14-|-------------------------------|
G|--------------------14-16-14-------|-------------------------------|
D|-16-16---16-16---16----------------|--14-14---14-14---12-12--12-12-|
A|-----------------------------------|-------------------------------|
E|-----------------------------------|-------------------------------|

E|-------------------------------------------------------------------------------|
B|-----------------------------15-14-14-15-17---------------------------14-------|
G|--------------------14-16-14----------------14------------14~~~~------14-------|
D|-16-16---16-16---16------------------------------17-16-17----------16----16----|
A|----------------------------------------------------------------17-------------|
E|-------------------------------------------------------------------------------|

GUITAR2: BRIDGE (1:05-1:18)
E|--------------------------|---------------------------|
B|----------------------8-7-|---------------------------|
G|-7-7----7-7---7-7-9-7-----|-6-6----6-6----4-4----4-4--|
D|-9-9----9-9---9-----------|-7-7----7-7----5-5----5-5--|
A|--------------------------|---------------------------|
E|--------------------------|---------------------------|

E|--------------------------|---------------------------|
B|----------------------8-7-|---------------------------|
G|-7-7----7-7---7-7-9-7-----|-6-6----6-6----6-6----6-6--|
D|-9-9----9-9---9-----------|-7-7----7-7----7-7----7-7--|
A|--------------------------|---------------------------|
E|--------------------------|------------------------

Danger Love chords – Top Less Gay Love Tekno Party

 -------------------------------------------------------------------------------
                  DANGER LOVE - Top Less Gay Love Tekno Party
-------------------------------------------------------------------------------
: Pat Malavi
pat.malavi

 A   X02220
 E   022100
 B   X2444X


Verse 1 - repeat twice:
                   A     
I wanna see those eyes
 E B 
That you gave me that night
                A 
So inquisitive
 E B 
So inquisitive


Chorus:
 A E                          
They call it danger love because it's hard to leave 
 B 
So addicting and so in-between
 A E                      
And my tender heart and your tender heart
 B 
And our tender heart is in danger
 

Verse 2 - repeat twice:
                     A        
And there's nothing as sweet
 E B 
As when you're learning to speak to me
                          A 
But with no sound and no speech darling
 E B 
Just a feeling


Bridge:
                   A E B 
I wanna see those eyes
                   A E B 
I wanna see those eyes
 

Chorus - repeat twice:
 A E                          
They call it danger love because it's hard to leave 
 B 
So addicting and so in-between
 A E                      
And my tender heart and your tender heart
 B 
And our tender heart is in danger


Outro - repeat six times:
 A E 
And my tender heart and my tender heart
 B 
And my tender heart is in danger (and my tender)

Heaven Coming Down intro Tabs by Tea Party

 -------------------------------------------------------------------------------
                             Heaven Coming Down (intro) - The Tea Party
-------------------------------------------------------------------------------
: Daniel
 drummerdee@hotmail.com

Tuning: F#, B, D, F#, B, d

d |----|-------0---------|---0---------------|-------0----------|-------0---------|------------|
B |----|---0-------------|-----2---0---------|------------------|---0-------------|------------|
F#|----|-----7---3---0---|-------3---0-----0-|---5-7---3---0----|-----7---3---0---|------------|
D |----|-----------5---7-|-------------2/5---|-----------5---/7-|-----------5---7-|------------|
B |----|-----------------|-------------------|-0----------------|-8---------------|------------|
F#|--7-|-8---------------|-3-----------------|------------------|-----------------|-8----------|


This is what I have sat down and figured out by listening to the song and watching
multiple videos of
Jeff Martin playing it. When he plays live and acoustically, he tunes down a whole step.

Life Of The Party chords – Matt And Toby

 SONG:   LIFE OF THE PARTY
ARTIST: MATT & TOBY
TAB BY: DON CZARSKI
EMAIL:  GUITARZAN7@HOTMAIL.COM

                  LIFE OF THE PARTY
                     MATT & TOBY


VERSE:
 E 
I picked up an old acoustic
  Abm 
Thought my hands knew how to use it
       B A 
But these days aren't like the old ones
          E 
Or the songs we sang on the long way home


VERSE:
    E     
I sat back down beside that girl who was texting
      Abm 
And laughed out loud over obsessions with next things
      B A 
And how every good song has the words


BREAK:
   Dbm 
Tonight
       A 
Take back
      F#m 
And burn
          Dbm 
By your side
           A 
Miss the way
    F#m B 
And I will never learn


PRE-CHORUS:
 B 
So if there's nothing new to say 
                                     E 
Then let's just say it all again tonight


CHORUS:
 E Dbm Abm 
We had the best times of our lives
  A 
Let's do it all again
  E Dbm Abm 
Take back my place there by your side
  A 
And never let it end
  E 
The hours passed like days
      Dbm                
The nights were our escape
 Abm                     
We held onto our friends
      A F#m E 
And made a couple million mistakes
              Dbm Abm 
We were so reckless and young
     A           
Go get your CD case
  B F#m 
Let's drive around this town
        A E 
Sing Dashboard at the top of our lungs


VERSE:
     E 
I still remember my parents divorcing
     Abm 
It took 10 long years of the back and forth thing
  A B E 
Finally I saw it in my mother's eyes


VERSE:
    E 
A road you can choose that you can't come back from
          Abm 
And the words you can say to add some traction
          Dbm A 
But it's what you didn't say
       F#m B 
That keeps you awake


PRE-CHORUS:
  B 
So we tell ourselves it's late

And we save it all for another day


CHORUS:
 E Dbm Abm 
We had the best times of our lives
  A 
Let's do it all again
  E Dbm Abm 
Take back my place there by your side
  A 
And never let it end
  E 
The hours passed like days
      Dbm               
The nights were our escape
 Abm                    
We held onto our friends
      A F#m E 
And made a couple million mistakes
              Dbm Abm 
We were so reckless and young
     A           
Go get your CD case
  B 
Let's drive around this town
        A Ab 
Sing Dashboard at the top of our lungs


BREAK:
 Ab 
I want to go back
                       E 
I want to go back tonight
                        Dbm 
Could it be that we're one and the same
      A 
The world never showed but it gave us a name
       E 
That hole in your heart is the same shape as mine
       B 
The piece has gone missing that filled up our lives
       Dbm 
I'll stand here and I'll take the worst
          A 
But the song was my own and I sang every verse
       E 
I'm giving mys

Three Minutes Of Ecstasy chords – Ninja Sex Party V2

 The other version on here is not quite correct, and so I decided to make my own. 
Not sure if this is 100% correct, especially with eventual chord colorings, but it 
is definitely possible to play along to the recording with this.


Capo on 1st fret. (Since this is a guitar site, I decided to do the chords as they 
are played with a capo on the first fret, since that makes the chords simpler. If 
you want to play along to the recording with another instrument, or don't have a 
capo, use the transpose function to transpose the chords up half a step.)

*Intro*
 A E G#m C#m A E C#m D 

*Verse*
 A E G#m C#m 
You've been counting all the days off
 A E G#m D 
Of your calendar for weeks now
 A E G#m C#m 
You can't wait for Saturday 'cause
 A E G#m D 
That's the night that it all goes down
 A E G#m C#m 
From 7:45 to 7:48 PM in particular
 D A/E B Bsus4 B      
Cause that is when I'll give you what you need

*Chorus*
 E D A 
Three minutes of ecstasy several nights a month
                  F 
You just tell me baby if that is too much
 E D 
When my stuff is in your stuff
                    A 
Our souls become entwined
         F 
For 180 seconds
                       A 
My sex has blown your mind

*Repeat intro*

(Oh my god you're so welcome.)

*Verse*
Go ahead and call all your girlfriends
And give them the details of how it went down
I know you can't wait, to brag to all of them
About how I took your ass to Wangtown
I'll get my captain's hat, put on my floaties
And we'll set for sexy seas, for at least...

*Chorus*
Three minutes of ecstasy
Any more and this house would burn
That's why I don't last longer
Your safety is my main concern
If you haven't finished
Well baby that's just fine
You know that I'm here for you
Oh shit, look at the time

*Repeat intro again*

(I have to go to the pudding store, for pudding. Adieu....)

 E 
1 one thousand, 2 one thousand
 G 
3 one thousand, 4 one thousand
 C 
5 one thousand, 6 one thousand
 D/A 
7 one thousand, 8 one thousand
 E 
9 one thousand, 10 one thousand
 G 
11 one thousand, 12 one thousand
 C 
13 one thousand, 14 one thousand
 D/A 
15 one thousand, 16 one thousand
 E G C 
(Maybe it's starting to sink in, just how long three minutes really is. Let's skip to the end...
                 D/A 
179 one thousand, 180 one thousand HU-AAAH!!!
GAH!)

*Chorus*
Three minutes of ecstasy
Several nights a month
But not more than four times a month
That would be ridiculous

I'm sure I left you happy
But in case that's not enough
Here's a copy of my headshot
And a drawing of my nuts
A drawing of my nuts 
A drawing of my nuts...

(Repeat chorus to fade)

Absinthe Party At The Fly Honey Warehouse Acoustic Tabs by Minus The Bear

 -------------------------------------------------------------------------------
         Absinthe Party at the Fly Honey Warehouse - Minus the bear
-------------------------------------------------------------------------------
:Der_Aggster
alexanderholstner@hotmail.com

Guitar 1 Tuning: Drop D  (d A D G B E)
Guitar 2 Tuning: Standard (E A D G B E) 

INTRO Guitar 1 ( played 3 times )

e|-----------------|    
B|---------8-------|    
G|---7-------7-----|x3  
D|-----5-----------|    
A|-----------------|    
d|-5-----5---------|    


e|---------------------------------0---| e|-------------|
B|---------8-----------0-----0---3-----| B|---3---------|
G|---7-----------2---2-----------------| G|-----0-0-2-0-|x4
D|-----5-------------------------------| D|-------------|
A|-----------0-2---2-----0-3---3-------| A|-------------|
d|-5-----5---------------------------0-| d|-2-----------|


INTRO Guitar 2 (starts at 3rd playthrough of INTRO Guitar 1, played 1 time)


e|-------------------------------------------------------|
B|-8----8---8----8---8----8---8----8---8----8---8----8---|
G|-7----7---7----7---7----7---7----7---7----7---7----7---|
D|-5--5--5--5--5--5--5--5--5--5--5--5--5--5--5--5--5--5--|
A|-------------------------------------------------------|
E|-------------------------------------------------------|

e|-------------------------------------------------|
B|-10----10----10----10----10----10----10----10----|
G|-9-----9-----9-----9-----9-----9-----9-----9-----|
D|-------------------------------------------------|
A|-12--12--12--12--12--12--12--12--12--12--12--12--|
E|-------------------------------------------------|


VERSE 1 Guitar 1 ( played 3 times )


e|-----------------|    
B|---------8-------|    
G|---7-------7-----|x3  
D|-----5-----------|    
A|-----------------|    
d|-5-----5---------|    


e|---------------------------------0---| e|-------------|
B|---------8-----------0-----0---3-----| B|---3---------|
G|---7-----------2---2-----------------| G|-----0-0-2-0-|x4
D|-----5-------------------------------| D|-------------|
A|-----------0-2---2-----0-3---3-------| A|-------------|
d|-5-----5---------------------------0-| d|-2-----------|


VERSE 1 Guitar 2 ( played 3 times )


e|-------------------------------------------------------|
B|-8----8---8----8---8----8---8----8---8----8---8----8---|
G|-7----7---7----7---7----7---7----7---7----7---7----7---|
D|-5--5--5--5--5--5--5--5--5--5--5--5--5--5--5--5--5--5--|
A|-------------------------------------------------------|
E|-------------------------------------------------------|

e|-------------------------------------------------|
B|-10----10----10----10----10----10----10----10----|
G|-9-----9-----9-----9-----9-----9-----9-----9-----|
D|-------------------------------------------------|
A|-12--12--12--12--12--12--12--12--12--12--12--12--|
E|-------------------------------------------------| 


CHORUS 1 Guitar 1


e|--------------------------------------------|
B|-1-3-0-00-------------------------55----88--|
G|-0-0-0-00--2-4-2-22---------------44----77--|x4
D|-2-2-2-22--2-2-2-22--5-7-5-55---2-22--5-55--|
A|-3-3-3-33--0-0-0-00--5-5-5-55---2-22--5-55--|
d|---------------------5-5-5-55---2-22--5-55--|

e|-3----3----3----3-----------------------------------|
B|-3----3----3----3---------------3p0------------3p0--|
G|-0----0----0----0-------2/4-2p0--------2/4-2p0------|x2
D|-0----0----0----0----2--------------2---------------|
A|-3----3----3----3----2--------------2---------------|
d|---------------------2--------------2---------------|

e|-------------------------------|
B|------3----0----------0--------|
G|---------------------------2---|
D|-------------------------------|
A|-3--------------0--------------|
d|-------------------------------|


CHORUS 1 Guitar 2


e|----------------------------3-33--0-00-3-33--|
B|------1-11-------0-00-------3-3

Three Minutes Of Ecstasy chords – Ninja Sex Party

 Intro:  Bb ,  F ,  Dm ,  Bb ,  F ,  D# Bb F Dm 
You've been counting all the days off
 Bb F D# 
Of your calendar for weeks now
 Bb F Dm 
You can't wait for Saturday cause
 Bb F D# 
That's the night that it all goes down
 Bb F Dm 
From 7:45 to 7:48 PM in particular
 D# F G 
Cause that is when I'll give you what you need

 F D# Bb 
Three minutes of ecstasy several nights a month
                 D# F 
You just tell me baby if that is too much
                  D# 
When my stuff is in your stuff
                    Bb 
Our souls become entwined
         D# 
For 180 seconds
(cutoff)
My sex has blown your mind

 Bb ,  F ,  Dm ,  Bb ,  F ,  D# 
(Oh my god you're so welcome.)

 Bb F Dm 
Go ahead and call all your girlfriends
 Bb F D# 
And give them the details of how it went down
 Bb F Dm 
I know you can't wait, to brag to all of them
 Bb F D# 
About how I took your ass to Wangtown
 Bb F Dm 
I'll get my captain's hat, put on my floaties
 D#                                
And we'll set for sexy seas, for at least...


 F D# 
Three minutes of ecstasy
                              Bb 
Any more and this house would burn
                        D# 
That's why I don't last longer
                   F 
Your safety is my main concern
                D# 
If you haven't finished
                      Bb 
Well baby that's just fine
                        D# 
You know that I'm here for you

Oh shit, look at the time

 Bb ,  F ,  Dm ,  Bb ,  F ,  D# 
(I have to go to the pudding store, for pudding. Adieu....)

 F 
1 one thousand, 2 one thousand
 D# 
3 one thousand, 4 one thousand
 Bb 
5 one thousand, 6 one thousand
 D# 
7 one thousand, 8 one thousand
 F 
9 one thousand, 10 one thousand
 D# 
11 one thousand, 12 one thousand
 Db 
13 one thousand, 14 one thousand
 D# 
15 one thousand, 16 one thousand


                                                     
 F D# Db 
Maybe it's starting to sink in, just how long three minutes really is. Let's 
                                                  D#  (few strums then hold)
skip to the end... 179 one thousand, 180 one thousand HU-AAAH!!! 


GAH!

 F D# 
Three minutes of ecstasy
                  Bb 
Several nights a month
                        D# 
But not more than four times a month
                 F 
Than would be ridiculous
                      D# 
Im sure Ive left you happy
                       Bb 
But in case thats not enough
                    D# 
Heres a copy of my headshot
                     F D# 
And a drawing of my nuts
                 Bb D# 
A drawing of my nuts 
                 F D# 
A drawing of my nuts
                 Bb D# 
A drawing of 

Swingin Party chords – Lorde V3

 B 
Bring your own lampshade, somewhere there's a party
 C#m 
Here it's never ending, can't remember when it started
 B 
Pass around the lampshade, there'll be plenty enough room in jail
    C#m 
If being wrong's a crime, I'm serving forever
    E B 
If being strong's your kind, then I need help here with this feather
    G#m E 
If being afraid is a crime, we hang side by side
        C#m E B 
At the swingin' party down the line
 B 
Pound the prairie pavement, losing proposition
 C#m 
Quitting school and going to work and never going fishing
 B 
Water all around, I never learned how to swim now
   
    C#m 
If being wrong's a crime, I'm serving forever
    E B 
If being strong's your kind, then I need help here with this feather
    G#m E 
If being afraid is a crime, we hang side by side
        C#m E B 
At the swingin' party down the line
        C#m E B 
At the swingin' party down the line

 B 
Bring your own lampshade, somewhere there's a party
 C#m 
Here it's never ending, can't remember when it started
 B 
Pass around the lampshade, there'll be plenty enough room in jail
    C#m 
If being wrong's a crime, I'm serving forever
    E 
If being strong is what you want, then I need help here with this feather
    G#m E 
If being afraid is a crime, we hang side by side
        C#m E B 
At the swingin' party down the line
        C#m E B 
At the swingin' party down the line

Party Fun Love And Radio Tabs by We The Kings V2

 WE THE KINGS – “PARTY FUN LOVE & RADIO” TAB

*Drop D Tuning.

Verse/Pre-chorus: 0:11-0:40
e:-----------------------------------------------------|
B:-----------------------------------------------------|
G:--5---5---5---5---5-5---9---9---7---7---7-7----------|
D:--3---3---3---3---3-3---7---7---5---5---5-5----------|   x8
A:-----------------------------------------------------|
D:-----------------------------------------------------|


Chorus:
e:---------------------------------------------|
B:---------------------------------------------|
G:--5-------9--------7-------------------------|
D:--3-------7--------5-------------------------| x3
A:--3-(x8)---7-(x3)----5(x5)-------------------|
D:--3-------7--------5-------------------------|

Chorus: "Our time is runnin' out"
e:-------------------------------|
B:-------------------------------|
G:--5------7---------------------|
D:--3------5---------------------|
A:--3-(x8)--5-(x8)---------------|
D:--3------5---------------------|

Repeat Chorus x4

Repeat Verse/Pre-chorus x8

Repeat Chorus x3

Chorus: "Our time is runnin' out"
e:----------------------------|
B:----------------------------|
G:--5------7------------------|
D:--3------5------------------|
A:--3(x8)--5-(x8)-------------|
D:--3------5------------------|

Repeat Chorus x2


Bridge:"Shout out"
e:--------------------------------------|
B:--------------------------------------|
G:--------------------------------------|
D:--3-----------------------------------|
A:--3-----------------------------------|
D:--3----------slide down---------------|

Repeat Verse/Pre-chorus over Rap: 2:16-2:30 x4

Repeat Chorus x3

Chorus: "Our time is runnin' out"
e:----------------------------|
B:----------------------------|
G:--5------7------------------|
D:--3------5------------------|
A:--3(x8)--5-(x8)-------------|
D:--3------5------------------|

Repeat Chorus x3

Chorus: "Our time is runnin' out"
e:----------------------------|
B:----------------------------|
G:--5------7------------------|
D:--3------5------------------|
A:--3(x8)--5-(x8)-------------|
D:--3------5------------------|

Finally, Repeat Chorus x4

Lead riff:
e:-----------------------------8--------|
B:--10-10-8-10-10-8-10-10-8-10---10-8---|
G:--------------------------------------|
D:--------------------------------------|
A:--------------------------------------|
D:--------------------------------------|

Search Party Tabs by Enter Shikari V2

 Guitar comes in around 0:19
'Now, my crew is six thousand million strong...'
D#-----------------------------------------------------------------|
A#-----------------------------------------------------------------|
F#-----------------------------------------------------------------|
C#-----------------------------------------------------------------|
G#-0~0~0~3~0~0~0~3~0~0~0~3~0~0~0~3~3~3~3~3~3~3~3~3~3~3~3~3~3~3~3~3~|
C#-0~0~0~2~0~0~0~2~0~0~0~2~0~0~0~2~3~3~3~2~3~3~3~2~3~3~3~2~3~3~3~2~|
PM-*-*-*---*-*-*---*-*-*---*-*-*---*-*-*---*-*-*---*-*-*---*-*-*---|

'A history of conflict and violence...'
D#-----------------------------------------------------------------|
A#-----------------------------------------------------------------|
F#-----------------------------------------------------------------|
C#-----------------------------------------------------------------|
G#---------0~0~0~3~0~0~0~3~0~0~0~3~3~3~3~3~3~3~3~3~3~3~3~3~3~3~3~~~|
C#---------0~0~0~2~0~0~0~2~0~0~0~2~3~3~3~2~3~3~3~2~3~3~3~2~3~3~3~~~|
PM---------*-*-*---*-*-*---*-*-*---*-*-*---*-*-*---*-*-*---*-*-*---|


'I know that we've gotta find something new...'
D#---------------------------------|
A#---------------------------------|
F#---------------------------------| X3
C#-8~8~8~8~8~8~8~8~8~8~8~8~8~8~8~8~|
G#-8~8~8~8~8~8~8~8~8~8~8~8~8~8~8~8~|
C#-8~8~8~8~8~8~8~8~7~7~7~7~5~5~5~5~|

D#---------------------------------------|
A#---------------------------------------|
F#---------------------------------------|
C#-8~8~8~8~8~8~8~8~10~10~10~10~--10~--10~|
G#-8~8~8~8~8~8~8~8~10~10~10~10~7~7-~8~8-~|
C#-8~8~8~8~8~8~8~8~10~10~10~10~----------|
PM-----------------------------*----*----|


'Retracing all our steps we sent out the setback search party...'
D#-------------------------------------------------------------------------|
A#-------------------------------------------------------------------------|
F#-------------------------------------------------------------------------| X2
C#-------------------------------------------------------------------------|
G#-0000~~03~0000~~03~0000~~03~0000~~08~8888~~88~8888~~88~8888~~88~8888~~7~7|
C#-0000~~02~0000~~02~0000~~02~0000~~07~8888~~87~8888~~87~8888~~87~8888~~7~7|
PM-****--*--****--*--****--*--****--*--****--*--****--*--****--*--****--*-*|


'Now, my crew is six thousand million strong...'
D#-----------------------------------------------------------------|
A#-----------------------------------------------------------------|
F#-----------------------------------------------------------------|
C#-----------------------------------------------------------------|
G#---------0~0~0~3~0~0~0~3~0~0~0~3~3~3~3~3~3~3~3~3~3~3~3~3~3~3~3~~~|
C#---------0~0~0~2~0~0~0~2~0~0~0~2~3~3~3~2~3~3~3~2~3~3~3~2~3~3~3~~~|
PM---------*-*-*---*-*-*---*-*-*---*-*-*---*-*-*---*-*-*---*-*-*---|

'A history of conflict and violence...'
Rhythm
D#-----------------------------------------------------------------|
A#-----------------------------------------------------------------|
F#-----------------------------------------------------------------|
C#-----------------------------------------------------------------|
G#---------0~0~0~3~0~0~0~3~0~0~0~3~3~3~3~3~3~3~3~3~3~3~3~3~3~3~3~~~|
C#---------0~0~0~2~0~0~0~2~0~0~0~2~3~3~3~2~3~3~3~2~3~3~3~2~3~3~3~~~|
PM---------*-*-*---*-*-*---*-*-*---*-*-*---*-*-*---*-*-*---*-*-*---|

Lead
D#-----------------------------------------------------------------|
A#-----------------------------------------------------------------|
F#-----------------------------------------------------------------|
C#---3-2-----3-2-----3-2-----3-2-----3-2-----3-2-----3-2-----3-2---|
G#-------2~------2~------2~------2~------2~------2~------2~------2~|
C#-00-0-0--00-0-0--00-0-0--00-0-0--33-3-3--33-3-3--33-3-3--33-3-3--|
PM-**-*-*--**-*-*--**-*-*--**-*-*--**-*-*--**-*-*--**-*-*--**-*-*--|


'I know that we've gotta find something new...'
D#---------------------------------|
A#