Tag: Peace

Peace And Love On Planet Earth chords – Rebecca Sugar

 [Steven]

 Dm7 G 
   Life and death and love and birth
     Cmaj7 Am7 
And peace and war on the planet Earth
 Dm7 G 
   Is there anything that's worth
           Cmaj7 Am7 
More than peace and love on the planet Earth
    Dm7 G 
Whoahh come on and sing it with me [Sing?]
 Cmaj7 Am7 
     The words relate to the key [Key?]
 Dm7 G 
   If it's a pattern, if it's a pattern
 Cmaj7 Am7 
     Then just repeat after me



 Dm7 G 
   Life and death and love and birth

[Peridot]

 Cmaj7 Am7 
     Life and death and love and birth

[Steven]

            Dm7 G 
Then using mi-fa-mi-mi-fa-mi-ti-la

[Both]

      Cmaj7 Am7 
And peace and war on the planet Earth



[Steven]

 Dm7 
   Yes yes! That's it!

[Peridot]

 G 
 That's so easy

[Steven]

 Cmaj7 Am7 
     Yeah but that's what's fun about it
                Dm7 G 
You should write something, you should write a song!

[Peridot]

About what?

[Steven]

       Cmaj7 Am7 
Whatever you're thinking



[Peridot]

                       Dm7 G 
I guess we're already here
                 Cmaj7 Am7 
I guess we already know
                           E7 
We've all got something to fear
                        Am7  
We've all got nowhere to go
                      Dm7 
I think you're all insane!
              Cmaj7 Am7 
But I guess I am too
               Dm7 
Anybody would be
              G Cmaj7 
If they were stuck on Earth with you!



[Steven]

       Cadd9 
Hehehehe yes!
 Dm7 G 
   Life and death and love and birth

[Amethyst]

 Cmaj7 Am7 
     Life and death and love and birth

[Pearl]

 Dm7 G 
   Life and death and love and birth and
  Cmaj7 Am7 
peace and war on the planet Earth

[Garnet]

 Dm7 G 
   Is there anything that's worth more

[Steven]

 Cmaj7 Am7 
     Is there anything that's worth more

[Peridot]

 Dm7 G 
   Is there anything that's worth more
      Cmaj7 Am7 
Than peace and love on the planet Earth

------------------------------------------
Props to danon24 for finding the chords on guitar.
Check out the awesome tutorial video here! https://www.youtube.com/watch?v=Us5uKcgZOQQ

Steven Universe – Peace And Love On Planet Earth Tabs – Misc Cartoons

 -------------------------------------------------------------------------------
                             Peace & Love (On Planet Earth) - Steven Universe
-------------------------------------------------------------------------------

Provided lyrics are a rough guide.

Tuning: Standard

    Life...       love...         peace...        planet earth
e|8-----8---------7-----7---------7-----7---------5-----5---------|
B|8---------8-----8---------8-----5---------5-----5---------5-----|
G|9-----------9---9-----------9---5-----------9---5-----------5---|
D|----------------------------------------------------------------|
A|----------------------------------------------------------------|
E|----------------------------------------------------------------|

    Is there   anything...        Peace...        planet earth?
e|8-----8---------7-----7---------7-----7---------5-----5---------|
B|8---------8-----8---------8-----5---------5-----5---------5-----|
G|9-----------9---9-----------9---5-----------9---5-----------5---|
D|----------------------------------------------------------------|
A|----------------------------------------------------------------|
E|----------------------------------------------------------------|

    Come on...    Me,               the words...  key,
e|8-----8---------7---------------7-----7---------5---------------|
B|8---------8-----8---------------5---------5-----5---------------|
G|9-----------9---9---------------5-----------9---5---------------|
D|----------------------------------------------------------------|
A|----------------------------------------------------------------|
E|----------------------------------------------------------------|

    If...           if...           then...       me,
e|8-----8---------7-----7---------7-----7---------5---------------|
B|8---------8-----8---------8-----5---------5-----5---------------|
G|9-----------9---9-----------9---5-----------9---5---------------|
D|----------------------------------------------------------------|
A|----------------------------------------------------------------|
E|----------------------------------------------------------------|

    Life...       love...           Life...       love...  But using
e|8-----8---------7---------------7-----7---------5---------------|
B|8---------8-----8---------------5---------5-----5---------------|
G|9-----------9---9---------------5-----------9---5---------------|
D|----------------------------------------------------------------|
A|----------------------------------------------------------------|
E|----------------------------------------------------------------|

  mi fa mi mi fa  mi ti la    and peace...        planet earth,
e|8-----8---------7-----7---------7-----7---------5-----5---------|
B|8---------8-----8---------8-----5---------5-----5---------5-----|
G|9-----------9---9-----------9---5-----------9---5-----------5---|
D|----------------------------------------------------------------|
A|----------------------------------------------------------------|
E|----------------------------------------------------------------|
    Yes, yes, that's it...
e|8-----8---------7---------------7-----7---------5---------------|
B|8---------8-----8---------------5---------5-----5---------------|
G|9-----------9---9---------------5-----------9---5---------------|
D|----------------------------------------------------------------|
A|----------------------------------------------------------------|
E|----------------------------------------------------------------|

  You should write...                                   ...already
e|8-----8---------7-----7---------7-----7---------5-----5---------|
B|8---------8-----8---------8-----5---------5-----5---------5-----|
G|9-----------9---9-----------9---5-----------9---5-----------5---|
D|----------------------------------------------------------------|
A|----------------------------------------------------------------|
E|--------------------------------

A Song Of Peace chords – Jean Sibelius

 G C Em D G 
This is my song for people of all nations,
 G C Em D G  
A song of peace for lands afar and mine.
 G Em G Bm Am  
This is my home, the country where my heart is.
 Am Em G Am B  
Here are my hopes, my dreams, my holy shrine.
 B Em G Bm Am  
But other hearts in other lands are beating
 Am G C D G 
With hopes and dreams as pure and high as mine.


 G C Em D G  
My country's skies are bluer than the ocean.
 G C Em D G  
And sunlight beams on clover leaf and pine.
 G Em G Bm Am  
But other lands have sunlight too and clover,
 Am Em G Am B  
And skies are everywhere as blue as mine.
 B Em G Bm Am  
This is my song for you of every nation,
 Am G C D G 
A song of peace for your lands and for mine.

Peace Sign Acoustic chords – LIGHTS Vsion 2

 Here´s the video:  https://www.youtube.com/watch?v=BDsz-jfldn0

Capo: 7

Intro:  G Am Em D G Em D G  
     If they take my hand
         Em D G Am 
Will it be to burn me or to say 'amen'
      Em D G 
We beckon so we can make amends
              Em D G Am 
And with the same flip of the hand we curse our friends


Chorus:

 Em D G Am Em    
   Where it's all a blur, you are the hard line
         D G Am Em 
In the disorder, you are the peace sign
                D G Am Em 
And when the riots stir, you are a sound mind
            D G Am Em 
And in the disorder, you are a peace sign


               D G 
It's getting hard to know
 Em D G Am 
If I'm on the tracks or off the beaten road
 Em D G 
When no truth ever easily shows
    Em D G Am 
So I'll follow you no matter where you go


Chorus:
              
 Em D G Am Em 
And when it's all a blur, you are the hard line
         D G Am Em 
In the disorder, you are the peace sign
                D G Am Em  
And when the riots stir, you are the sound mind
            D G Am Em F# Em D 
And in the disorder, you are the peace sign  oh oh oh oh 


 G F# Em D      
I can't tell if they're laughing at me or with me
 G F# Em 
All these hints and subtleties got me on my knees
   D G 
Begging for serenity


               D Em D G 
And when it's all a blur, you are the hard line
        D Em D Em 
In the disorder, you are the peace sign
               D G Am Em  
And when the riots stir, you are the sound mind
            D G Am Em D G 
And in the disorder, you are the peace sign
 Am Em D G      
you are the peace sign 
 Am G 
you are the peace sign

No Peace No End chords – Richard Thompson

 B Bsus4 
Where were you when the walls were crumbling 
 B Bsus4 
Where were you when the guns were rumbling 
 B G 
Where were you when the hounds of hell 
      C G D 
Took sons and lovers away
 B Bsus4 
Did you see me on the slippery slope
 B Bsus4 
Wrong end of a telescope
 B G 
Do you even pause for breath
            C G D 
As you sleepwalk through the day
 A Aaug 
Some day won't you
 A6 Aaug 
Stand in my shoes
            C# D 
And see the world I see
             F#m 
No hope no friend
 D F#m D F#m 
No hope no friend
    A E D F#m F# 
No peace, no end
 B Bsus4 
I'm ground between two stones
 B Bsus4 
Soon I'll be nothing but bones
 B G 
Who'll be my shining savior
 C G D 
Before I turn to dust?
 B Bsus4 
Are you the hand that kills me?
 B Bsus4 
Are you the hand that saves me?
 B G 
When they both sell you down the river
 C G D 
Which one can you trust?
 A Aaug 
Some day won't you
 A6 Aaug 
Stand in my shoes
    C# D 
And see the world I see
 D F#m D F#m 
No hope no friend
 D A E D F#m F# 
No peace, no end
 B Bsus4 
In the peace museum there's a mangy dove
 B Bsus4 
To remind us all of universal love
 B G 
You can rent her out for your corporate dinner
          C G D 
And feel good about yourself
 B Bsus4 
Geneva Convention they use as a pessary
 B Bsus4 
Olive branch is a fashion accessory
 B G 
In the big chess game there's just one winner
            C G D 
And it's always somebody else

 A Aaug 
Some day won't you
 A6 Aaug 
Stand in my shoes
    C# D 
And see the world I see
 D F#m D F#m 
No hope no friend
 D A E D            
No peace, no end
 D F#m D F#m 
No hope no friend
    A E D            
No peace, no end

 F#m B

Better Than You chords – Heather Peace

 Hether Peace "Better than you"

intro:  Dm C Bb C Dm C 
 Today’s the day I’m leaving 
                                    Bb 
 I want nothing, you can have it all
                                      C  
 I’m leaving with the last bit of my sanity 
                  Dm 
 You took the rest 
                            C 
 Like a drip drip tap you fed me
                       Bb        
 Nothing but insults and lies
                                             C  
 I want to leave with the remainder of my sanity 
            Dm 
 So bye bye 

                C 
I’ll find better than you
     Bb  
Oh no 
               C 
I’ll find better than you
                           Dm  
Even though I’m broken down 
            C 
Oh I want nothing from you 
                  Bb 
You can have it all
               C  
I’ll find better than you
         Dm C Bb C  
Oh ohhhhh 

 Dm C 
 The way you broke me down was clever
                      Bb  
 Almost unnoticeable 
                                           C 
 To all our friends it looked like I was crazy
                        Dm  
 And totally irrational 
                            C 
 Like a drip drip tap you fed me
                      Bb  
 Feeding on my insecurities
                                          C  
 I want to go with the remainder of my sanity
                       Dm  
 Now it’s time to leave 


               C             
I’ll find better than you 
     Bb 
Oh no 
               C                
I’ll find better than you 
                             Dm 
Even though I’m broken down 
            C 
Oh I want nothing from you
                  Bb  
You can have it all
              C  
I’ll find better than you
          Dm C Bb C Dm C Bb C  
Oh ohhhhh 

 Dm C 
 Was it always your intention to leave me like this 
 Bb C 
 Was it always your intention to hurt me this way
 Dm C  
 Was it always your intention to break me 
 Bb C 
 God I never thought I’d be so breakable
  Oh no no no 

 Dm C 
 I’ll find better than you
      Bb  
 Oh no 
                C 
 I’ll find better than you
                             Dm  
 Even though I’m broken down 
             C 
 Oh I want nothing from you
                  Bb  
 You can have it all
               C  
 I’ll find better than you 
          Dm C Bb C D 
 Oh ohhhhh

Peace Will Come chords – Melanie Safka

 Melanie Safka - Peace Will Come
 
 
NOTE: This is the long version Unplugged And Solo Powered

 Asus2  = 002200
 Asus4  = 002230
 Esus4  = 022200
 
 
INTRO:             D A E 
        There's a chance peace will come in your life
                    A 
        Please buy one 
         A Asus4 Asus2 A Asus4 Asus2 A Asus4 Asus2 A Asus4 A 
Oh, sometimes when I am feeling as big as the land 
                             D 
With the velvet hill in the small of my back 
        A E 
And my hands are playing in the sand 
        A 
And my feet are swimming in all of the waters 
                       D A 
All of the rivers are givers to the ocean 
              E 
According to plan
              A Asus4 A Asus4   
According to man 
 
 
           A 
Well, sometimes when I am feeling so grand 
                  D 
And I become the world 
         A E Esus4 
And the world becomes a man 
        A 
And my song becomes a part of the river 
              D A E 
I cry out to keep me just the way I am 
              A 
According to plan 
 
 
REFRAIN
               D A E 
Oh, there's a chance peace will come in your life
            A 
Please buy one
           D A E 
There's a chance peace will come in your life
            A 
Please buy one
           D A E 
There's a chance peace will come in your life
            A 
Please buy one
           D A E 
There's a chance peace will come in your life
            A Asus4 A Asus4   
Please buy one
 
 
         A 
Oh, sometime when we have reached the end 
                             D 
With the velvet hill in the small of our backs
         A E Esus4 
And our hands are clutching the sand 
          A 
Will our blood become a part of the river 
                    D A 
All of the rivers are givers to the ocean 
              E 
According to plan
              A 
According to man 
 
 
REFRAIN
               D A E 
Oh, there's a chance peace will come in your life
            A 
Please buy one
           D A E 
There's a chance peace will come in your life
            A 
Please buy one
           D A E 
There's a chance peace will come in your life
            A 
Please buy one
           D A E 
There's a chance peace will come in your life
            A Asus4 A Asus4   
Please buy one
               D E A D 
Oh, there's a chance peace will come in your life
            E A 
Please buy one
           D E A D 
There's a chance peace will come in my life
            E Esus4 E 
Please buy one
 
 
         A 
Oh, sometime when I am feeling as big as the land 
                             D 
With the velvet hill in the small of my back 
         A E

Peace Has Come chords – Hillsong Live

 Title: Peace Has Come
Artist: Hillsong Worship
 Peace Has Come [2014]

========================================================================================================

Intro
 G  -  Am  -  G/B  -  C D  -  C/E  -  C 

Verse 1
           G C/G G 
Behold the star of Beth - le - hem
      D/F# Em D C 
The Word of God has become flesh
     G C/G G 
Unto us a child is born
     D/F# Em D C 
The Sa - vior  of this broken world

Chorus
     G/B C Dsus4 D G/B C Dsus4 D 
Oh, hear the angel voic - es sing come let us a - dore Him
Em        D        C       D     G/ Gsus/ G/ G2sus4/
Peace has come for King is with us

Verse 2
      G C/G G 
Fully God and fully  man
       D/F# Em D C 
He comes   for all with open hands
              G C/G G 
He rules with love on David's throne
     D/F# Em D C 
All praise be - longs to Christ a - lone

Chorus
     G/B C Dsus4 D G/B C Dsus4 D 
Oh, hear the angel voic - es sing come let us a - dore Him
 Em D C D G 
Peace has come for King is with us

Instrumental
 G  -  Am  -  G/B  -  C D  -  C/E  -  D 

Chorus 2
 G Am G/B D 
Holy, holy, ho - ly
 G/B C G/D D 
Jesus, we a - dore Thee
 Em D C D 
Peace has come for our King is with us

Bridge
   G 
O come let us adore Him
   G 
O come let us adore Him
   G 
O come let us adore Him, Christ the Lord
   G 
O come let us a - dore Him
   G G/D D 
o come let us a - dore Him
   C D Em G/D D G 
O come let us a - dore Him, Christ the Lord

Chorus
     G/B C Dsus4 D G/B C Dsus4 D 
Oh, hear the angel voic - es sing come let us a - dore Him
 Em D C D 
Peace has come for King is with us
 Em D C D G 
Peace has come for King is with us

Pipes Of Peace chords – Paul Mccartney V2

 E F#m Edim E 
  I light a candle to   our love
 A E F#m7 B7sus4 
  In love our problems disa_pper
 E F#m Edim E 
  But all in all we soon discover
 A E G6 B7sus4 C 
  That one and one is all we long to hear
 
   C 
  All'round the world
          G7 Em 
  Little children being born to the world
          F Am G F 
  Got to give them all we can 'til the war is won
   C G7 
  Then will the work be done
 
   Dm         
  Help them to learn (help them to learn)
            G7 C  
  Songs of joy instead of burn, baby, burn (burn, baby burn)
          E Am F 
  Let us show them how to play the pipes of peace
   Am Fmaj7 G7 Am G Am F C Em Am F 
  Play   the pipes of peace
 
   Dm 
  Help me to learn 
 G7 C  
  Songs of joy instead of burn, baby, burn
             E Am F 
  Won't you show me to play (how to play) the pipes of peace (pipes of peace)
   Am Fmaj7 G7 Am G Fmaj7 G7 F G  
  Play the pipes of peace

   C 
  What do you say? (what do you say)
            G7 Em 
  Will the human race be run in a day? (in a day)
           F Am G F 
  Or will someone save this planet we're playing on?
   C G7 
  Is it the only one? (What are we going to do?)
 

   Dm 
  Help them to see (help them to see)
            G7 C      
  That the people here are like you and me (you and me)
          E Am F 
  Let us show them how to play (how to play) the pipes of peace (pipes of peace)
   Am Fmaj7 G7 Am G Fmaj7 G7 F G 
  Play   the pipes of peace  

  Ooh

 E F#m Edim E 
  I light a candle to   our love
 A E F#m7 B7sus4 
  In love our problems disa_pper
 E F#m Edim E 
  But all in all we soon discover
 A E G6 B7sus4 C 
  That one and one is all we long to hear
 
   C      
  All'round the world
          G7 Em 
  Little children being born to the world
          F Am G F 
  Got to give them all we can 'til the war is won
   C G7 
  Then will the work be done
 
   Dm         
  Help them to learn (help them to learn)
            G7 C  
  Songs of joy instead of burn, baby, burn (burn, baby burn)
          E Am F 
  Let us show them how to play the pipes of peace
   Am Fmaj7 G7 Am G 
  Play the pipes of peace
 
 Am F C Em Am F Dm 
  Help me to learn 
 G7 C  
  Songs of joy instead of burn, baby, burn
             E Am F 
  Won't you show me to play (how to play) the pipes o

Default Tabs – Atoms For Peace

 Standard Tuning EADGBe 

I was surprised nobody tabbed out this incredible song. The chords are relatively simple,
I included the intro riff at the beginning and I included the keyboard riff for the chorus 
at the bottom of the page. Enjoy!


Intro: 

e|-2--2-3--5-5-3-2--2--2-3-5-5-3-2----2--2-3--5-5-3-2--2--2-5-5-3--|
B|-----------------------------------------------------------------|
G|-----------------------------------------------------------------|
D|-----------------------------------------------------------------|
A|-----------------------------------------------------------------|
E|-----------------------------------------------------------------|

(x2) 



Verse 1: 

        F#     A      E       F#
"Huh!"

(F#) A         E   F#    A    E    F#  A     E        F#
It slipped my mind, and for a time, I felt completely free
(F#)     A     E   F#      A    E  F#   A   E       D
Oh what a troubled, silent poor boy, a pawn into a queen


Chorus 1:(riff*) 

F#  G    D   E  B

        F#        G    D       E   B
I laugh now, but later's not so easy
            F#      G        D              E       B
I've gotta stop, the will is strong but the flesh is weak
             F#        G     D            E       B
Guess that's it, I've made my bed and I'm lying in it


Verse 2: 

(F#)      A     E   F#    A    E        F#    A     E        F#
I'm still hanging on, bird upon the wires, I fall between the waves
(F#)  A      E   F#        A      E    F#    A     E     D
I avoid your gaze, pattern out of phase, a pawn into a queen


Chorus 2: 

F#  G    D   E  B

        F#        G    D       E   B
I laugh now, but later's not so easy
            F#      G        D              E       B
I've gotta stop, the will is strong but the flesh is weak
             F#        G     D            E       B
Guess that's it, I've made my bed And I'm lying in it


Outro:

(B)                E         D            G             B
But it's eating me uuuuuuuuuuuuuuuuuuuuuuuuuuuuuuuuuuuuuup
               E             D             G            B
It's eating me uuuuuuuuuuuuuuuuuuuuuuuuuuuuuuuuuuuuuuuuuup
               E             D             G            B
It's eating me up, If I could feel all the snakes on my head
               E             D            G            B
It's eating me up, If I could feel all my snails on my head
               E             D            G             B
It's eating me up, If I could feel all my snares and my net


(till end)



*Chorus keyboard riff: 

e|------------------------------|
B|------------------------------|
G|--11~~~-12~-12~------9~-------|
D|--11~~~-12~-12~-12---9~--9----|
A|---9~~~-10~-10~-12---7~--9----|
E|----------------10-------7----|


Cheers!

We Are The 21St Century Ambassadors Of Peace And Magic Tabs – Foxygen

 Foxygen - We Are The 21st Century Ambassadors Of Peace And Magic


INTRO

E Eb D Db

e|--------------------------|
B|--------------------------|
G|-------------9-7----------|
D|-------------9-7----------|
A|--5---6--7-7--------------|
E|--------------------------|

Free, free


VERSE 1 (riff continues)
Well, it really isn't even too hard to be
In the twenty, twenty, twenty-first century
We are the twenty-first century
It really isn't even too hard to be
(Say it again)


CHORUS
E            D            A            G
We are the 21st century ambassadors of peace and magic

- back to the riff
(Fish man)

E            Eb           D           Db
We are the 21st century ambassadors of peace and magic

- back to riff


VERSE 2
See the big orange slug in the purple grass
Well, if you ain't ready for it to pass
If you're really really really really not ready to pass
Well, the twenty-first century's gonna kick your ass, boy
(Say it again)


CHORUS
E                 D
We're the twenty, lots of money
   A          G            (back to riff)
Philosopher ambassadors of peace and magic

E  D \
A  G / x2


BRIDGE (see below for the finger placement of these chords)
              Em                    Em/M7
But if you're not in class then you cannot answer
    Em7                   Em/M6              C
You can't be funny if you want to make money now


CHORUS
Em          A             E            A
We are the 21st century ambassadors of peace and magic
Em          A            E           A
We are the 21st century, we are the 21st century
Em          A             E            A
We are the 21st century ambassadors of peace and magic
Em                A
On Blue Mountain, God insists you
E              A
Put the pieces back together

- back to riff


VERSE 3
Free to live, free to do what I want
Go out and get it

e|----|
B|----|
G|--7-| at some points, the riff suddenly stops with this chord
D|--7-|
A|----|
E|----|

e|-------------------------------|
B|-------------------------------|
G|-------------------------------|
D|-----5/7-7---7-5/9---9-9-7-5---|
A|-7---------------------------7-|
E|-------------------------------|

E  G
A  B

e|-------------------------------|
B|-10~---------------------------|
G|-------------------------------|
D|---------5---------------------|
A|------\5-----7\5/7-------------|
E|-------------------------------|

E  G 
A  B 

E  G
A       B
 Yeah I do what I want 

E  G 
A  B 

- back to riff (while slowing down)

- transition to outro:

e|--------------------------|
B|--------------------------|
G|--------------------------|
D|-77777777777--------------| (shred)
A|--------------------------|
E|--------------------------|



OUTRO

Am   G       \
Dm   Dmsus2   x4 (fade out)
Am   G       /

___________________________________
CHORDS

   Em   Em/M7 Em7  Em/M6  Dmsus2
e|-7----7-----7-----------(5)-----|
B|-8----8-----8-----8------5------|
G|-9----8-----7-----6------7------|
D|-9----9-----9-----9------7------|
A|-7----7-----7-----7------5------|
E|--------------------------------|









A Little Peace Of Heaven Acoustic chords – Avenged Sevenfold

 Avenged Sevenfold – A Little Piece Of Heaven (Acoustic)

Intro (sing the intro melody while playing these chords):  D5 ,  C#5 ,  Bb5 ,  A5 ,  E5  2x

Enter Drums:  Dm ,  Fm  2x

 Dm C#5 
Before the story begins, is it such a sin,
 Fm G#m 
For me to take what's mine, until the end of time?
 Dm C#5 
We were more than friends, before the story ends,
 Fm G#m 
And I will take what's mine, create what

God would never design

 Dm A 
Our love had been so strong for far too long,
 G#m 
I was weak with fear that
 Dm  [followed by A small breakdown of  G#5 ,  G5 ,  F5 ]
Something would go wrong,
 Dm A 
Before the possibilities came true,
 G#m Dm  [followed by A small breakdown of  G#5 , F5 ]
I took all possibility from you

 Dm F Fm G#m 
Almost laughed myself to tears, (CRAZY LAUGHTER)
 Dm F Fm Dm 
Conjuring her deepest fears (COME HERE YA’ FUCKIN’ BITCH!!!)

 Dm C#5            ( F5  slide to  G#5    3x)
Must have stabbed her fifty fucking times,

I can't believe it,
 Dm C#5                  ( F5  slide to  G#5    3x)
Ripped her heart out right before her eyes,
                    (guitar silent for eat it eat it eat it)
Eyes over easy, eat it, eat it, eat it

 Dm 
She was never this good in bed

Even when she was sleepin'

 A 
Now she's just so perfect I've

Never been quite so fucking deep in

One Bar of  Dm ,  Bb  before singing continues

         Dm Bb 
It goes on, and on, and on,
                   Dm Bb 
I can keep you lookin' young and preserved forever,
         Dm Bb 
With a fountain to spray on your youth whenever

(the string walk down section which I simplified is now over)

              Gm C 
'Cause I really always knew that my little crime
           F Dm 
Would be cold that's why I got a heater for your thighs
          Bb C F 
And I know, I know it's not your time
       Dm 
But bye, bye
         Bb C 
And a word to the wise when the fire dies
                 A Dm ,  C ,  Bb 
You think it's over but it's just begun
                   C 
But baby don't cry

                  Bb C 
You had my heart, at least for the most part
           F C Dm C Bb 
'Cause everybody's gotta die sometime, we fell apart
               C 
Let's make a new start
           F C Dm C Bb 
'Cause everybody's gotta die sometime yea-yeah
                   C 
But baby don't cry-ay-ay-ay-ay

             Dm A 
The possibilities I'd never considered
 G#m Dm A      
Are occurring the likes of which I'd never heard
       Dm A 
Now an angry soul comes back from beyond the grave
       G#m Dm A 
To repossess a body with which I'd misbehaved
 Dm F Fm G#m 
Smiling right from ear to ear
 Dm F Fm Dm 
Almost laughed herself to tears
 Dm C#5</

We Sing Like Jailbirds Tabs by Picture Atlantic

 The alternate tuning is sort of optional for this song. The 6th string is really 
only used sometimes as a bass note between measures. You can leave it as an E if 
you don't mind losing that detail.

You can also just use C instead of Cadd4. The Cadd4 is my personal preference. =]


The picking pattern looks something like this for each chord:

        C             Cadd4             Em              F
e|--------0-----|---------------|---------------|---------------|
B|-----------1--|--------1------|--------0------|--------1------|
G|------0-------|-----------0---|-----------0---|-----------2---|
D|---2----------|-----3---------|-----2---------|-----3---------|
A|--------------|--3------------|--2------------|--3------------|
C|--------------|---------------|---------------|---------------|
It's slightly different in some parts of the song, but this is the general pattern.




"We Sing Like Jailbirds"
by Picture Atlantic


Intro: C

Riff:
e|-----------0-----------0----------0----------|
B|--------------1-----------1----------1-------|
G|--------2--------------------0h2-------------|
D|-----2------------0h2-------------------0h2--|
A|---------------------------------------------|
C|(0)~-----------------------------------------|

Verse:
C                                Em
First the thought and then the seed

F                       C      
I am parched and beyond peace

                          Em
It's not like I enjoy the act

               F                   C
I just need to drown this panic attack



Chorus:
C               Cadd4             F
There's really nothing here to see

               Em                 C
We sing like jailbirds when we drink

              Cadd4              F
We've gone a couple cups too deep

                Em                  F
We sing like jailbirds when we drink

                       C
We sing like jailbirds


[Riff]

Verse:
C                       Em
My holy father sheds a tear

      F                C
I repent each time I'm here

                           Em
Worried more than I should be

          F               C
A pint of ignorance for me



Chorus:
C               Cadd4             F
There's really nothing here to see

               Em                 C
We sing like jailbirds when we drink

             Cadd4                F
You really shouldn't be calling me

                 Em                    F
You sing like a jailbird when you drink

                        Cadd4
We sing like jailbirds when we drink

                        F
We sing like jailbirds when we drink

                      Cadd4
We sing like jailbirds

                      C
We sing like jailbirds



Outro: C

Bring Back The Sun Tabs by Our Lady Peace V3

 Our Lady Peace - Bring Back The Sun

 Andreas Schwarz

Eb-Tuning

INTRO:
                 
e|---------------------|---------------------|
B|---------------------|-------------------2-|
G|-----------2-2-2-4-1-|-----------2-2-2-4-1-|
D|-----0h4---4-4-4-4-2-|-----0h4---4-4-4-4-2-|
A|-0h4-------4-4-4-4-2-|-0h4-------4-4-4-4-2-|
E|--------2--2-2-2-2-0-|--------2--2-2-2-2-0-|
        
e|---------------------|-------------------------|
B|---------------------|-------------------2-0-0-|
G|-----------2-2-2-4-1-|-----------2-2-2-4-1-1-1-|
D|-----0h4---4-4-4-4-2-|-----0h4---4-4-4-4-2-2-2-|
A|-0h4-------4-4-4-4-2-|-0h4-------4-4-4-4-2-2-2-|
E|--------2--2-2-2-2-0-|--------2--2-2-2-2-0-0-0-|

VERSE:
         
e|---------------------|-----------------------0---|
B|---------------------|-------------------2-0---0-|
G|-----------2-2-2-4-1-|-----------2-2-2-4-1-------|
D|-----0h4---4-4-4-4-2-|-----0h4---4-4-4-4-2-------|
A|-0h4-------4-4-4-4-2-|-0h4-------4-4-4-4-2-------|
E|--------2--2-2-2-2-0-|--------2--2-2-2-2-0-------|

e|---------------------|--------------------------|
B|---------------------|-------------------2-2-0--|
G|-----------2-2-2-4-1-|-----------2-2-2-4-1-1-1--|
D|-----------4-4-4-4-2-|-----0h4---4-4-4-4-2-2-2--|
A|-----------4-4-4-4-2-|-0h4-------4-4-4-4-2-2-2--|
E|--------2--2-2-2-2-0-|--------2--2-2-2-2-0-0-0--|

e|---------------------|------------------------|
B|---------------------|-------------------2-0--|
G|-----------2-2-2-4-1-|-----------2-2-2-4-1-1--|
D|-----0h4---4-4-4-4-2-|-----0h4---4-4-4-4-2-2--|
A|-0h4-------4-4-4-4-2-|-0h4-------4-4-4-4-2-2--|
E|--------2--2-2-2-2-0-|--------2--2-2-2-2-0-0--|

e|---------------------|-----------------------0-|
B|---------------------|-------------------2-0---|
G|-----------2-2-2-4-1-|-----------2-2-2-4-1-1---|
D|-----0h4---4-4-4-4-2-|-----0h4---4-4-4-4-2-2---|
A|-0h4-------4-4-4-4-2-|-0h4-------4-4-4-4-2-2---|
E|--------2--2-2-2-2-0-|--------2--2-2-2-2-0-0---|

CHORUS:

e|-------0---------0---|-------0-------0-------|
B|--0-----0---0-----0--|--0-----0---0---0--0---|
G|---6-----6---6-------|---6-----4---4---4--4--|
D|----7-----7---7------|----6-----6---6---6--6-|
A|---------------------|-----------------------|
E|-5-------------------|-4---------------------|


e|--0--------0-------|-0-------0------0--------|
B|----0--0----0--0---|--0--0-0--0--0-0-0---0---|
G|-----2--2----2--2--|---1--1----1--1---1-1----|
D|------4--4----4--4-|----2-------2------2-----|
A|-------------------|-------------------------|
E|-(2)---------------|-------------------------|

repeat

SOLO:

e|------------------------------------------------------------------------|
B|-----------------------------7---7---7-7/9-7-5~--5-5\3-3\2-2---2-3-2----|
G|-1/6-6-6--6-6h7-7p6-6\4--4-4---4---4------------------------2-4-----4-2-|
D|------------------------------------------------------------------------|
A|------------------------------------------------------------------------|
E|------------------------------------------------------------------------|

e|--------------------|-------5----0-5b7r5-5-4~-4-4\2-2------|
B|--------------------|---------------------------------5-5--|
G|-2-2-2\1-1b2r1------|-4/6~-6-6-6---------------------------|
D|---------------2/4-2|--------------------------------------|
A|--------------------|--------------------------------------|
E|--------------------|--------------------------------------|

e|----------------------------------------------------------------|
B|-5-5b7-5-5b7-5-2b3-5-5b7-3-3\2-2h3-2p0--------------------------|
G|--------------------------------------2--2-1-2-1h2p1------------|
D|----------------------------------------------------2-----------|
A|-----------------------------------------------------2--2-2-----|
E|----------------------------------------------------------------|


Intro
Verse
Chorus
Verse
Chorus
Solo
Bridge (Same as Chorus)
Chorus
Outro

Grace And Peace chords – Sovereign Grace Music

 VERSE 1
 B G#m 
Grace and peace, oh how can this be
      F# G#m E 
For lawbreakers and thieves, for the worthless, the least
 B G#m 
You have said that our judgment is death
 F# G#m E 
For all eternity without hope, without rest
 E G#m F# E G#m F# E 
Oh, what an amazing mystery, what an amazing mystery
           F# B G#m | E   | B G#m  |  E 
That Your grace has come to me

VERSE 2 
 B G#m 
Grace and peace, oh how can this be?
     F# G#m E 
The matchless King of all paid the blood price for me
 B G#m 
Slaughtered lamb, what atonement You bring!
 F# G#m E 
The vilest sinner's heart can be cleansed, can be free
 E G#m F# E G#m F# E 
Oh, what an amazing mystery, what an amazing mystery
           F# B G#m  |  E  |  B G#m  |  E 
That Your grace has come to me

VERSE 3
 B G#m 
Grace and peace, oh how can this be?
 F# G#m E 
Let songs of gratefulness ever rise, never cease
 B G#m 
Loved by God and called as a saint
 F# G#m E 
My heart is satisfied in the riches of Christ
 E G#m F# E G#m F# E 
Oh, what an amazing mystery, what an amazing mystery
           F# E G#m  |  F# B  |  E G#m  |  F# 
That Your grace has come to me

TAG
 B E G#m 
Oh, what an amazing love I see, what an amazing love I see
                             F# 
That Your grace has come to me
OUTRO  E G#m  |  F# B  |  E G#m  |  F# E G#m  |  F# B  |  E G#m  |  E  |  B

Step A Lil Closer intro Tabs by Peace

 Hello this is a Riff of "Step Lil Closer" by "Peace" , this is guitar that play Doug 
with a fender stratocaster
the effects that i use are:
Delay -tempo 20 , you can play with this effect
reverb - the reverb should be very noisy, play with the effects
you can use a distrotion Ds-1 , Big Muff Pi , or any other distortion/overdrive effect

tuning:standard


e|----------------------------------------------------|
B|----------------------------------------------------|
G|----------------------------------------------------|
D|----------------------------------------------------|
A|-9-11-12s14-12-11-9--------9-11-12s14-12-11-12-11-9-|
E|----------------------------------------------------|


follow the rythm...

Peace Song chords – Kye Kye

 -------------------------------------------------------------------------------
                             PEACE SONG - Kye Kye
-------------------------------------------------------------------------------
: Leek
 faln@live.com

Tuning: Standard

Verse 1

 E A 
Garden full of the brightest range of colors, oh the sight is something I know
 E A 
room full of family and friends, hear the laughter oh this sound is something I know
    E A 
familiar roads with my windows rolled down oh the smell is something I know

Prechorus

          E A 
but you gave life so not the way I thought (Jon.3:16)(Ro.5:1 & 5:8)
      E A 
you gave love so not the way I knew (Eph.5:2)


Chorus

                E 
There is no weeping, (Mat.5:3-12)
      
there is no sorrow,
                        A  
cause you're holding me now there's no rules to follow (Gal.3:19 & 24-26) (Ro.3:21-22)
                   E 
I know who you are now (Jon.17:2-3)
                   C#m 
i'm running a different way
         A 
so overwhelmed (Eph 3:18-19)

by you Jesus


Verse 2

  E 
Eleven years old there was pride running my shoulder
        A 
was a brick too hard to break
   E 
resisting the cold she's a young and humble mother
      A 
in a park she sits and waits
               E 
but when I looked into her eyes guess what I recognized
   A 
a love too strong to fake it


Prechorus 2

 E A 
love you waited so patiently (1Jo.4:16 )(1Cor.13:4) 
     E A 
for all this to finally hit me


Chorus (x2)



Scriptural Citations in Parentheses taken directly from 'About' section of song's 
official Youtube page, uploaded by Kye Kye.

Absence Of War Does Not Mean Peace Tabs by Impaled Nazarene

  Impaled Nazarene
 Absence Of War Does Not Mean Peace
Song: Absence Of War Does Not Mean Peace

: pablo1349



.  - palm mute           /  - slide up to
\  - slide down to       ~  - vibrato
h  - hammer on           b  - Bend
p  - pull off            Suffixes for bend
t  - tap                 f  - full bend    h - half bend
ph - pinched harmonic    q  - quarter bend t - tap bend
*  - see comment         ^  - Hold bend    r release bend
x  - Stuccatto           ~  - vibrato bend
,  - slight palm mute    () - ghost note, sustained note
"  - tremolo note          - Trill

Tunning E A D G B E

Intro
e:----------------------------|
b:----------------------------|
g:--------------------2-------|
d:-3---3333-33--------2-----5-|x3
a:-3---3333-33--2h3p2-0-----5-|
e:-1---1111-11--------------3-|


e:--------------------|------------------------------------------|
b:--------------------|------------------------------------------|
g:--------------------|-----------------5--5---------------------|
d:-3---3333-33--------|2----2----2------3--3-2----2------6-6653--|x2
a:-3---3333-33--2h3p2-|0-0000-0000-0000------0-0000-0000-4-4431--|
e:-1---1111-11--------|------------------------------------------|
                         .... .... ....        .... .... . ....

Riff 1a

e:-----------------------------------------------|   -------------------|
b:-----------------------------------------------|   -------------------|
g:------------------5--5-------------5---5-5-4-4-|   -------------------|
d:-2----2----2------3--3-2----2------3---3-3-2-2-|x4 -6----6----6-6-5-3-|
a:-0-0000-0000-0000------0-0000-0000-------------|   -4-4444-4444-4-3-1-|
e:-----------------------------------------------|   -------------------|
     .... .... ....         .... ....                  . .... .... . . .

Riff 1b

e:-----------------------------------------------| --------------------------|
b:-----------------------------------------------| --------------------------|
g:------------------5--5-------------5---5-5-4-4-| ------------------5-5-7-7-|
d:-2----2----2------3--3-2----2------3---3-3-2-2-|x4 ----2----2----2-3-3-5-5-|
a:-0-0000-0000-0000------0-0000-0000-------------| -0-0000-0000-0000---------|
e:-----------------------------------------------|---------------------------|
     .... .... ....         .... ....                  .... .... ....

Riff 2 (Chorus)

e:-------------------------------------------------|
b:-------------------------------------------------|
g:-------------------------2-2-2-2-2-2-2-2-2-2-2-2-|
d:-3-3-3-3-3-3-3-3-3-3-3-3-2-2-2-2-2-2-2-2-2-2-2-2-|x4
a:-3-3-3-3-3-3-3-3-3-3-3-3-0-0-0-0-0-0-0-0-0-0-0-0-|
e:-1-1-1-1-1-1-1-1-1-1-1-1-------------------------|



Estructure:
Intro
Riff 1a
Riff 1b
Riff 2(x4)
Riff 1a
Riff 1b
Riff 2(x4)
Riff 1
END

Sweet Secret Peace chords – Neil Finn

 SWEET SECRET PEACE      -       Neil Finn

Intro:
   Dm Am/C D5/B F/A G 
e|1-----1---0---0--/----------1---1--/---/
B|3-----3---1---1--/3-----3---1---1--/2--/
G|2-(2)-2-2-2-2-2-2/2---2-2-2-2-2-2-2/0--/
D|0-----0----------/(0)--------------/0--/
A|----------3---3--/2-----2---0---0--/2--/
E|---------  ------/-----------------/3--/


 Dm Am/C D5/B F/A G                            
     Real and        right and        true, the      sky is    blue
 Dm Am/C D5/B F/A G                                 
     Ever -       lasting        arms up-      holding     you
 Dmaj7/A Dm7/A F7         F6sus4                                            
          Sweet         secret      peace 
 Dmaj7/A Dm7/A F7         F6sus4                                            
          Sweet         secret      peace 

 Dm  -  Am/C  -  D5/B  -  F/A  -  G       2x 


 Dm Am/C D5/B F/A G                             
     Beauti -       ful are       you, your       hands on     you
 Dm Am/F D5/B F/A G                             
     All you        feel is        real and      right and      true
 Dmaj7/A Dm7/A F7          F6sus4                                            
          Sweet         secret      peace          secret
 Dmaj7/A Dm7/A F7         F6sus4                                             
          Sweet         secret      peace 


Break:
 Dmaj7/A Dm7/A F7         F6sus4                                    
          Whoeoe -        hoeoe -     hoeoe 

e|10------/----------/---------/0-------/7------/
B|----10--/-----10-8-/6---10---/8-6-3---/8------/
G|12------/11--------/---------/--------/-------/
D|----12--/12---12-10/9---11---/--------/-------/
A|--------/----------/---------/--------/-------/
E|--------/----------/---------/--------/-------/

e|5-3-1---/3---2---/----------------------|
B|----1-3-/3---3---/----------------------|
G|----2-2-/2---1---/----------------------|
D|------0-/--------/----------------------|
A|--------/--------/----------------------|
E|--------/--------/----------------------|

 Dm  -  Am/C  -  D5/B  -  F/A  -  G  -
 Dm  -  Am/F  -  D5/B  -  F/A  -  G Dm Am/C D5/B F/A G                          
     Real and       right and        true will      turn in -     to
 Dm Am/F D5/B F/A G                           
     Secret        peace in -        side the       heart of     you
 Dmaj7/A Dm7/A F7         F6sus4                                              
          Sweet        secret     peace 
 Dmaj7/A Dm7/A F7         F6sus4                                            
          Sweet        secret     peace          ooh
 Dmaj7/A Dm7/A F7         F6sus4                                            
          Sweet        secret     peace 
 Dmaj7/A Dm7/A F7         F6sus4  //                                           
          Sweet        secret     peace 



 Dm        xx0231
 Am/C      x3x210
 D5/B      x20

Follow Baby Tabs by Peace V3

 INTRO
e|--4-4-4-4---\12-12-12-12---\4-4-4-4---\12-12-12-12---\4-4-4-4---\12-12-12-12-|
B|--4-4-4-4---\12-12-12-12---\4-4-4-4---\12-12-12-12---\4-4-4-4---\12-12-12-12-|
G|--5-5-5-5---\13-13-13-13---\5-5-5-5---\13-13-13-13---\5-5-5-5---\13-13-13-13-|
D|--6-6-6-6---\14-14-14-14---\6-6-6-6---\14-14-14-14---\6-6-6-6---\14-14-14-14-|
A|--6-6-6-6---\14-14-14-14---\6-6-6-6---\14-14-14-14---\6-6-6-6---\14-14-14-14-|
E|--4-4-4-4---\12-12-12-12---\4-4-4-4---\12-12-12-12---\4-4-4-4---\12-12-12-12-|

e|--\9--9--9--9----\7-7-7-7---\9---\4~-----------------------------------------|
B|--\9--9--9--9----\7-7-7-7---\9---\4~-----------------------------------------|
G|--\10-10-10-10---\8-8-8-8---\10--\5~-----------------------------------------|
D|--\11-11-11-11---\9-9-9-9---\11--\6~-----------------------------------------|
A|--\11-11-11-11---\9-9-9-9---\11--\6~-----------------------------------------|
E|--\9--9--9--9----\7-7-7-7---\9---\4~-----------------------------------------|

PRE-CHORUS
e|----------11-----11--------------14--11--------------------------------------|
B|--12--9---------------12--9--------------9-----------------------------------|
G|-----------------------------------------------------------------------------|
D|-----------------------------------------------------------------------------|
A|-----------------------------------------------------------------------------|
E|-----------------------------------------------------------------------------|

CHORUS
e|--3~----|
B|--3~----|
G|--4~----|    x4
D|--5~----|
A|--5~----|
E|--3~----|

e|--4-4-4-4---\12-12-12-12---\4-4-4-4---\12-12-12-12---\4-4-4-4---\12-12-12-12-|
B|--4-4-4-4---\12-12-12-12---\4-4-4-4---\12-12-12-12---\4-4-4-4---\12-12-12-12-|
G|--5-5-5-5---\13-13-13-13---\5-5-5-5---\13-13-13-13---\5-5-5-5---\13-13-13-13-|
D|--6-6-6-6---\14-14-14-14---\6-6-6-6---\14-14-14-14---\6-6-6-6---\14-14-14-14-|
A|--6-6-6-6---\14-14-14-14---\6-6-6-6---\14-14-14-14---\6-6-6-6---\14-14-14-14-|
E|--4-4-4-4---\12-12-12-12---\4-4-4-4---\12-12-12-12---\4-4-4-4---\12-12-12-12-|

e|--\9--9--9--9----\7-7-7-7---\9---\4~-----------------------------------------|
B|--\9--9--9--9----\7-7-7-7---\9---\4~-----------------------------------------|
G|--\10-10-10-10---\8-8-8-8---\10--\5~-----------------------------------------|
D|--\11-11-11-11---\9-9-9-9---\11--\6~-----------------------------------------|
A|--\11-11-11-11---\9-9-9-9---\11--\6~-----------------------------------------|
E|--\9--9--9--9----\7-7-7-7---\9---\4~-----------------------------------------|

OUTRO
e|--3-3-3-3-3---\12-12-12---\10-10-10-10-10---\12-12-12------------------------|
B|--3-3-3-3-3---\12-12-12---\10-10-10-10-10---\12-12-12------------------------|
G|--4-4-4-4-4---\13-13-13---\11-11-11-11-11---\13-13-13------------------------|
D|--5-5-5-5-5---\14-14-14---\12-12-12-12-12---\14-14-14------------------------|
A|--5-5-5-5-5---\14-14-14---\12-12-12-12-12---\14-14-14------------------------|
E|--3-3-3-3-3---\12-12-12---\10-10-10-10-10---\12-12-12------------------------|

e|--3-3-3-3-3---\12-12-12---\10-10-10-10-10---\7-7-7---------------------------|
B|--3-3-3-3-3---\12-12-12---\10-10-10-10-10---\7-7-7---------------------------|
G|--4-4-4-4-4---\13-13-13---\11-11-11-11-11---\8-8-8---------------------------|
D|--5-5-5-5-5---\14-14-14---\12-12-12-12-12---\9-9-9---------------------------|
A|--5-5-5-5-5---\14-14-14---\12-12-12-12-12---\9-9-9---------------------------|
E|--3-3-3-3-3---\12-12-12---\10-10-10-10-10---\7-7-7---------------------------|

e|--3-3-3-3-3---\12-12-12---\10-10-10-10-10------------------------------------|
B|--3-3-3-3-3---\12-12-12---\10-10-10-10-10------------------------------------|
G|--4-4-4-4-4---\13-13-13---\11-11-11-11-11------------------------------------|
D|--5-5-5-5-5---\14-14-14---\12-12-12-12-12------------------------------------|
A|--5-5-5-5-5---\14-14-14---\12-12-12-12-12------------------------------------|
E|--