Tag: peer

You Let A Good Man Go Tabs – Peer Günt

 Main Riff:
e:---------------------------------------------------------------------------|
B:-----8--7----5~------------------------------------------------------------|
G:-----7--7----5~------------------------------------------------------------|
D:------------------7--5-----------------------------------------------------|
A:--0----------------------7--5----------------------------------------------|
E:-------------------------------8--5----------------------------------------|


Bridge1:
e:---------------------------------------------------------------------------|
B:---------------------------------------------------------------------------|
G:-5--5--5--5--5----5--5--5--5-----------------------------------------------|
D:-4--4--4--4--4----4--4--4--4-----------------------------------------------|
A:-5--5--5--5--5----5--5--5--5-----------------------------------------------|
E:---------------------------------------------------------------------------|

                                                                
Bridge2:
e:--------------------------------------------------------------|
B:--------------------------------------------------------------|
G:--7--7--7--7--7----7--7--7--7------5--5--5--5--5----5--5--5--5|
D:--6--6--6--6--6----6--6--6--6------4--4--4--4--4----4--4--4--4|
A:--7--7--7--7--7----7--7--7--7------5--5--5--5--5----5--5--5--5|
E:--------------------------------------------------------------|


Alternate version:


Main Riff:
e:---------------------------------------------------------------------------|
B:-----8--7----5~------------------------------------------------------------|
G:-----9--7----5~------------------------------------------------------------|
D:------------------7--5-----------------------------------------------------|
A:--0----------------------7--6--5-------------------------------------------|
E:----------------------------------5----------------------------------------|

Wake Me Up Tabs – Peer Günt

 notation legend:      

~   vibrato
b   bend       


Intro/chorus:

E|---------------|---------------|----------------|-----------------|
B|---------------|---------------|----------------|-----------------|
G|---------------|---------------|----------------|-----------------|
D|---------------|---------------|-5--7-7-5-7--5--|----2-2-----2-2--|
A|-------5--7~~--|-------5--7~~--|-3--5-5-3-5--3--|----0-0-----0-0--|
E|-0--0----------|-0--0----------|----------------|-3b------3b------|


Verse:

E|------------------|------------------|
B|------------------|------------------|
G|-----2---5-2---4--|------------------|
D|-----2---5-2---4--|------------------|
A|-0-0---0-----0----|--3-0----3-0---3--|
E|------------------|------3------3----|


E|-------------------|
B|-------------------|
G|-------------------|
D|-------------------|
A|-2--2-4--2-5--2-4--|
E|-0--0-0--0-0--0-0--|


Bridge:

E|------|------|------|------|-----------------|
B|------|------|------|------|-----------------|
G|--2---|--7---|--2---|--7---|-----------------|
D|--2---|--7---|--2---|--7---|--5--7-7-5-7--5--|
A|--0---|--5---|--0---|--5---|--3--5-5-3-5--3--|
E|------|------|------|------|-----------------|


Solo intro:

4x
E|---------------|
B|---------------|
G|---------------|
D|---------------|
A|-------5--7~~--|
E|-0--0----------|


Solo outro: 

E|---------------------|
B|---------------------|
G|-7--5----------------|
D|-----7-6-5-----------|
A|-----------7-6-5-----|
E|-----------------0---|

Troubled Child Tabs – Peer Günt

 Tip: Use capo on the third fret 

Main Riff/Verse:
e:---------------------------------------------------------------------------|
B:---------------------------------------------------------------------------|
G:---------------------------------------------------------------------------|
D:-----8--5-----8-------------------8--5-----8-------------------------------|
A:-----5--5-----5-------------------5--5-----5-------------------------------|
E:--3--------3-----3--3--6--8----3--------3-----3--3--6--8-------------------|


Bridge1:
  ... and I say!
e:---------------------------------------------------------------------------|
B:---------------------------------------------------------------------------|
G:---------------------------------------------------------------------------|
D:----------------------------------8--5-----8-------------------8--5-----8--|
A:--10--10--9--8~-------------------5--5-----5-------------------5--5-----5--|
E:----------------8--8--7--6~----3--------3-----3--3--6--8----3--------3-----|



e:---------------------------------------------------------------------------|
B:---------------------------------------------------------------------------|
G:---------------------------------------------------------------------------|
D:-----------------------------------------------8--5-----8------------------|
A:---------------10--10--9--8~-------------------5--5-----5------------------|
E:3--3--6--8-------------------8--8--7--6~----3--------3-----3--3--6--8------|


Bridge2:
  ...gonna ride downtown
e:---------------------------------------------------------------------------|
B:---------------------------------------------------------------------------|
G:---------------------------------------------------------------------------|
D:---------------------------------------------------------------------------|
A:----12------10------12------10-----------------------12------10------12----|
E:----10------8-------10------8------------------------10------8-------10----|

                                                                      
Chorus:
  ...don't you mess with the troubled child
e:---------------------------------------------------------------------------|
B:---------------------------------------------------------------------------|
G:---------------------------------------------------------------------------|
D:-----------------------------------------------8--5-----8------------------|
A:-----------------------------------------------5--5-----5------------------|
E:-(6)----------------------------------------3--------3-----3--3--6--8--3---|

Street 69 Tabs – Peer Günt

 notation legend:      

/   - slide up
\   - slide down
~   - vibrato
b   - bend 1/4      
ho  - hammer on
po  - pull off

Intro/verse:

E ||--------------------------------||
B ||--------------------------------||
G#||.------------------------------.||
E ||.-0--0--3po0-5po3po0-3po0---0--.||
B ||--------------------------3-----||
E ||--------------------------------||


Bridge:

E |-----------------------------------------|
B |-3/5---3/5-5-----3/5-5-----3/5-5---------|
G#|-3/5---3/5-------3/5-------3/5-------5\--|
E |-------------5---------5---------5---5\--|
B |-----------------------------------------|
E |-----------------------------------------|


Chorus:
                        slow slide
E |-----------------------------------|
B |-/7---/7-7---------\/3   /   5-----|
G#|-/7---/7----7------\/3   /   5--5\-|
E |-/7---/7-------7---\/3   /   5--5\-|
B |-----------------------------------|
E |-----------------------------------|


Alternative verse:

E |------------------------------|------------------------------------|
B |------------------------------|------------------------------------|
G#|------------------------------|------------------------------------|
E |-0--0--3po0-5po3po0-3po0---0--|-0--0--3po0-5po3po0-3po0------------|
B |-------------------------3----|-------------------------3po0-------|
E |------------------------------|------------------------------3b~---|

She Was Here For A Rocknroll Tabs – Peer Günt

 notation legend:      

/   - slide up
\   - slide down
b   - bend
po  - pull off

Intro:
                                       8x
E |---||--------------------------------||
B |---||--------------------------------||
G#|---||.------------------------------.||
E |---||.-0----0-----0-------------3---.||
B |-5\||-------------------0--2/3-------||
E |-5\||-----3---0-3---0-3--------------||


Verse1:
                                   7X
E ||--------------------------------||-----------------|
B ||--------------------------------||-----------------|
G#||.------------------------------.||-----------------|
E ||.-0----0-----0-------------3---.||-0-----0-----0---|
B ||-------------------0--2/3-------||-----------------|
E ||-----3---0-3---0-3--------------||-----3---0-3-----|


Bridge1:

E |-------------------||--------------------------------||
B |---------5---------||--------------------------------||
G#|-/5---/5---5-------||.------------------------------.||
E |-/5--------5-------||.-0----0-----0-------------3---.||
B |-------------------||-------------------0--2/3-------||
E |-------------------||-----3---0-3---0-3--------------||

E |-------------------||--------------------------------||
B |---------5---------||--------------------------------||
G#|-/5---/5---5-------||.------------------------------.||
E |-/5--------5-------||.-0----0-----0-------------3---.||
B |-------------------||-------------------0--2/3-------||
E |-------------------||-----3---0-3---0-3--------------||

E |-------------|-----------------|------|-------------|
B |-/7-----7----|--/10------10----|--3---|--5-5---7-7--|
G#|-/7--/7------|--/10--/10-------|--3---|--5-5---7-7--|
E |-/7----------|--/10------------|--3---|--5-5---7-7--|
B |-------------|-----------------|------|-------------|
E |-------------|-----------------|------|-------------|


Break:

E |----------------------|
B |----------------------|
G#|----------------------|
E |-3-2-0----------------|
B |-------2--0-----------|
E |-------------3-2-0----|


Verse2: same as verse1

Bridge2: same as bridge2


Chorus1:

E ||--------------------|---------------||
B ||--/10-------10------|-/5------5-----||
G#||.-/10---/10---------|-/5---/5------.||
E ||.-/10----------10---|-/5--------5--.||
B ||--------------------|---------------||
E ||--------------------|---------------||

E |-----------------|------------|-------|
B |-/12---12--------|-10----8----|--5----|
G#|-/12-------12----|-10----8----|--5----|
E |-/12-------------|-10----8----|--5----|
B |-----------------|------------|-------|
E |-----------------|------------|-------|


Solo:

E ||------------------------|-----------------------|
B ||------------------------|-----------------------|
G#||.-----------------------|-----------------------|
E ||.----------------3b--0--|--------------------0--|
B ||------------------------|----------------3b-----|
E ||--0--0-0--3--0-0--------|-0--0-0--3--0-0--------|

E |-----------------------|-----------------------||
B |-----------------------|-----------------------||
G#|-----------------------|----------------------.||
E |----------------3b--0--|-5b--0--3b--0------0--.||
B |-----------------------|---------------3b------||
E |-0--0-0--3--0-0--------|-----------------------||

not sure about this
E ||----------------------------------------------|-------------------------------------------|
B ||----------------------------------------------|-------------------------------------------|
G#||.---------------------------------------------|-------------------------------------------|
E ||.-0--9po7po0-9po7po0-9po7po0--9po7po0-9po7po0-|-0-9po7po0-9po7po0-9po7po0-9po7po0-9po7po0-|
B ||----------------------------------------------|-------------------------------------------|
E ||----------------------------------------------|-------------------------------------------|

E |---------------------------------------|----------------------------------------||
B |---------------------------------------|-----------------

Losin My Mind Tabs – Peer Günt V2

 Verse:

distortion guitar
E-----------------|----------|----------|--------|
B-----------------|----------|----------|--------|
G-----------------|----------|----------|--------|
D-----------------|----------|-----7----|--------|
A-0--2--3-----2---|-----5----|-----5----|--------|
E----------3--0---|-0-0-3----|-0-0------|--------|


acoustic guitar
E-0------0---0--0---|-3------3---3--3---|-2------2---2--2---|-3--2--2--0---0--3--2---|
B-0------0---0--0---|-0------0---0--0---|-3------3---3--3---|-3--3--3--3---3--3--3---|
G-4------4---4--4---|-0------0---0--0---|-2------2---2--2---|-2--2--2--2---2--2--2---|
D-2------2---2--2---|-0------0---0--0---|-0------0---0--0---|-0--0--0--0---0--0--0---|
A-2------2---2--2---|-2------2---2--2---|-0------0---0--0---|-0--0--0--0---0--0--0---|
E-0------0---0--0---|-3------3---3--3---|-------------------|------------------------|




Chorus:

distortion guitar
E------------------|--------------------|
B------------------|--------------------|
G------------------|--------------------|
D-----5-------7----|-----5------7-------|
A-7---3---5---5----|-7---3----5-5-------|
E-5-------3--------|-5--------3---------|

Liquere And Drugs Tabs – Peer Günt

 notation legend:      
~   vibrato
                

Intro:

16x
E|------------------|
B|------------------|
G|---------2--------|
D|-------------4----|
A|-0--0--4----------|
E|------------------|


Verse:

6x
E|-------------------|
B|-------------------|
G|---------2---------|
D|-------------4-----|
A|-0--0--4-----------|
E|-------------------|


E|-------------------|--------------------|
B|-------------------|--------------------|
G|-------------------|--------------------|
D|---------2---------|---------2----------|
A|-------------4-----|-------------4------|
E|-0--0--4-----------|-0--0--4------------|


E|-------------------|--------------------|---------------------|
B|-------------------|--------------------|---------------------|
G|---------2---------|---------2----------|-2-------------------|
D|-------------4-----|-------------4------|--------3------------|
A|-0--0--4-----------|-0--0--4------------|--------3------------|
E|-------------------|--------------------|--------1------------|


E|-------------------|--------------------|
B|-------------------|--------------------|
G|---------2---------|--------------------|
D|-------------4-----|---------2----------|
A|-0--0--4-----------|-------------4------|
E|-------------------|-0--0--4------------|


E|-------------------|--------------------|
B|-------------------|--------------------|
G|---------2---------|---------2----------|
D|-------------4-----|-------------4------|
A|-0--0--4-----------|-0--0--4------------|
E|-------------------|--------------------|


Solo1:

E|-------------|----------------------|
B|-------------|----------------------|
G|-------------|-4b--4--2-----2-2-2---|
D|----2--------|-----------4----------|
A|-4-----------|----------------------|
E|-------------|----------------------|


E|---------------------|--------------------|
B|---------------------|--------------------|
G|-4b--4b--4b-4--2-----|-2--2--2--2--2--4~--|
D|------------------4--|--------------------|
A|---------------------|--------------------|
E|---------------------|--------------------|


E|-------------|------------|
B|-5b--5--2----|------------|
G|----------4--|-4b---------|
D|-------------|------2-----|
A|-------------|------------|
E|-------------|------------|


E|---------------|---------|
B|---------------|---------|
G|---------------|---------|
D|-4b--4po2------|---------|
A|------------2--|-2b------|
E|---------------|---------|


E|-----------------------|---------------|
B|-----------------------|---------------|
G|-4b--4b--4b--4--4b--4--|-2-------------|
D|-----------------------|-2-------------|
A|-----------------------|-0-------------|
E|-----------------------|---------------|

Let Her In Tabs – Peer Günt

 Intro:
e:---------------------------------------------------------------------------|
B:---------------------------------------------------------------------------|
G:--2-----------------------------2--2--2-----------------------------2--2---|
D:--2--------4p-2-----------------2--2--2--------4p-0-----------------2--2---|
A:--0--3p-0--------3p-0--3p-0-----0--0--0--3p-0--------3p-0--3p-0-----0--0---|
E:-----------------------------3-----------------------------------3---------|


       
e:---------------------------------------------------------------------------|
B:---------------------------------------------------------------------------|
G:---------------------------------------------------------------------------|
D:--2------------------------------------------------------------------------|
A:--2------------------------------------------------------------------------|
E:--0------------------------------------------------------------------------|


Verse1(With partial drums):                           
e:---------------------------------------------------------------------------|
B:---------------------------------------------------------------------------|
G:--2-----------------------------2--2---------------------------------------|
D:--2--------4p-2-----------------2--2---------------------------------------|
A:--0--3p-0--------3p-0--3p-0-----0--0---------------------------------------|
E:-----------------------------3---------------------------------------------|


Bridge:
e:---------------------------------------------------------------------------|
B:---------------------------------------------------------------------------|
G:---------------------------------------------------------5-----------------|
D:---------2------------2------------2-------------2-------5--5--7-----------|
A:---------2------------2------------2-------------2-------3--5--7-----------|
E:---3--3~-0------3--3~-0------3--3~-0-------3--3~-0----------3--5-----------|



Verse2(With full drums):
e:---------------------------------------------------------------------------|
B:---------------------------------------------------------------------------|
G:----2-----------------------------2--2-------------------------------------|
D:----2--------4p-2-----------------2--2-------------------------------------|
A:----0--3p-0--------3p-0--3p-0-----0--0-------------------------------------|
E:-------------------------------3-------------------------------------------|


Bridge:
e:---------------------------------------------------------------------------|
B:---------------------------------------------------------------------------|
G:---------------------------------------------------------5-----------------|
D:---------2------------2------------2-------------2-------5--5--7-----------|
A:---------2------------2------------2-------------2-------3--5--7-----------|
E:---3--3~-0------3--3~-0------3--3~-0-------3--3~-0----------3--5-----------|


Chorus:
e:---------------------------------------------------------------------------|
B:---------------------------------------------------------------------------|
G:-----2--5--7--------5--5----7--7------2-----------------------------2--2--2|
D:-----2--5--7--------5--5----7--7------2--------4p-2-----------------2--2--2|
A:-----0--3--5--------5--5----5--5------0--3p-0--------3p-0--3p-0-----0--0--0|
E:-----------------------------------------------------------------3---------|



e:---------------------------------------------------------------------------|
B:---------------------------------------------------------------------------|
G:-----------------------------2--5--7-------5--5-----7--7-----9--9----------|
D:--------4p-2-----------------2--5--7-------5--5-----7--7-----9--9----9--10-|
A:--3p-0--------3p-0--3p-0-----0--3--5-------5--5-----5--5-----7--7----7--8--|
E:--------------------------3------------------------------------------------|



e:------------------------------------------------------------

I Take Your Money And Honey Tabs – Peer Günt

 notation legend:      

/   - slide up
\   - slide down
~   - vibrato


Intro:
E |---------------------------|----------------------------------|
B |---------------------------|----------------------------------|
G#|---------------------------|----------------------------------|
E |---------------------------|----------------------------------|
B |----/5--3--5---5-5-5--/8---|--------------6 / 11\---/3-/3-0---|
E |-0-------------------------|-7--5--3--0-----------------------|


E |---------------------------|---------------------12~------------|
B |---------------------------|---------------------12~------------|
G#|---------------------------|--------------11/12--12~------------|
E |---------------------------|------------------------------------|
B |----/5--3--5---5-5-5--/8---|--------------------------/3-/3-0---|
E |-0-------------------------|-7--5--3--0-------------------------|


E |---------------------|-----------------------|
B |---------------------|-----------------------|
G#|--/5----3--0---/12---|--/5----3--0---/12  \--|
E |--/5----3--0---/12---|--/5----3--0---/12  \--|
B |---------------------|-----------------------|
E |---------------------|-----------------------|


Verse:
E |------------------------------|------------------------------|
B |------------------------------|------------------------------|
G#|------------------------------|------------------------------|
E |---0-0-0-0--0----0-3--0----0--|------------------------------|
B |-3------------3---------3-----|-------------------3--0----0--|
E |------------------------------|-3-0-0-0-0--0-3--0------3-----|


Chorus:
E |-----------|-------------------------|
B |-3----5----|----5--7----11-11-11-11--|
G#|-3----5----|-/5----7----11-11-11-11--|
E |-3----5----|-------7----11-11-11-11--|
B |-----------|-------------------------|
E |-----------|-------------------------|


Verse2:
E |------------------------------|------------------------------|
B |------------------------------|------------------------------|
G#|------------------------------|------------------------------|
E |---0-0-0-0--0----0-3--0----0--|------------------------------|
B |-3------------3---------3-----|-------------------3--0----0--|
E |------------------------------|-3-0-0-0-0--0-3--0------3-----|

Hole In The Door Tabs – Peer Günt

 notation legend:      

/   - slide up
\   - slide down


Intro:

E |-----------|-----------|-----------|-------------------|-------------12-----|
B |-----------|-----------|-----------|------------------___--------/12----12\-|
G#|-3-3-0--5--|-3-3-0--5--|-3-3-0--5--|----5-5-0-3-3-3-0'___'0-----------------|
E |-3-3-0--5--|-3-3-0--5--|-3-3-0--5--|----5-5-0-3-3-3-0'-|-'0-----------------|
B |-----------|-----------|-----------|-------------------|--------------------|
E |-----------|-----------|-----------|-------------------|--------------------|


Verse:

E |-------|--------------|--------------|--------------|-----------|
B |-------|--------------|--------------|--------------|-----------|
G#|-------|--------------|--------------|--------------|-----------|
E |-------|------------0-|------------0-|------------0-|-----------|
B |-------|-0-2--3-2-0---|-0-2--3-2-0---|-0-2--3-2-0---|-0-2-------|
E |-0-0-0-|--------------|--------------|--------------|-----------|


           Cold walls....  
E |-------|--------------|--------------|--------------|--------------|
B |-------|--------------|--------------|--------------|--------------|
G#|-------|--------------|--------------|--------------|--------------|
E |-------|------------0-|------------0-|------------0-|------------0-|
B |-------|-0-2--3-2-0---|-0-2--3-2-0---|-0-2--3-2-0---|-0-2--3-2-0---|
E |-0-0-0-|--------------|--------------|--------------|--------------|


   I'm lying here...
E |--------------|--------------|--------------|--------------|
B |--------------|--------------|--------------|--------------|
G#|--------------|--------------|--------------|--------------|
E |------------0-|------------0-|------------0-|------------0-|
B |-0-2--3-2-0---|-0-2--3-2-0---|-0-2--3-2-0---|-0-2--3-2-0---|
E |--------------|--------------|--------------|--------------|



                      A little light...   
E |------------------|--------------|------------------|
B |------------------|--------------|------------------|
G#|-3-3-0--5-5-5--0--|--------------|-3-3-0--5-5-5--0--|
E |-3-3-0--5-5-5--0--|------------0-|-3-3-0--5-5-5--0--|
B |------------------|-0-2--3-2-0---|------------------|
E |------------------|--------------|------------------|


   I have smoked...
E |--------------|--------------|--------------|--------------|
B |--------------|--------------|--------------|--------------|
G#|--------------|--------------|--------------|--------------|
E |------------0-|------------0-|------------0-|------------0-|
B |-0-2--3-2-0---|-0-2--3-2-0---|-0-2--3-2-0---|-0-2--3-2-0---|
E |--------------|--------------|--------------|--------------|


   I'm so worry...
E |--------------|--------------|--------------|--------------|
B |--------------|--------------|--------------|--------------|
G#|--------------|--------------|--------------|--------------|
E |------------0-|------------0-|------------0-|------------0-|
B |-0-2--3-2-0---|-0-2--3-2-0---|-0-2--3-2-0---|-0-2--3-2-0---|
E |--------------|--------------|--------------|--------------|


                      Only thing I can see.   
E |------------------|--------------|
B |------------------|--------------|
G#|-3-3-0--5-5-5--0--|--------------|
E |-3-3-0--5-5-5--0--|------------0-|
B |------------------|-0-2--3-2-0---|
E |------------------|--------------|


                      A blinking eye...   
E |------------------|--------------|
B |------------------|--------------|
G#|-3-3-0--5-5-5--0--|--------------|
E |-3-3-0--5-5-5--0--|------------0-|
B |------------------|-0-2--3-2-0---|
E |------------------|--------------|


                      A little light in the dark.   
E |------------------|--------------|
B |------------------|--------------|
G#|-3-3-0--5-5-5--0--|--------------|
E |-3-3-0--5-5-5--0--|------------0-|
B |------------------|-0-2--3-2-0---|
E |------------------|--------------|


                                There's a, there's a,                 
E |------------------|--------------|-----

Behind The Line Tabs – Peer Günt

 notation legend:      

/   - slide up
\   - slide down
~   - vibrato
b   - bend 1/4      
ho  - hammer on
po  - pull off        

Intro:

play 4x
E ||----------------------------------------|-----------------------------------||
B ||------------12------------------5-------|----------7------------------------||
G#||.-------/12----12\-----------/5---5\----|-------/7---7\----/3--/3--0-------.||
E ||.---------------------------------------|------------------/3--/3--0---5\--.||
B ||----------------------------------------|-0--0-------------------------5\---||
E ||-0--0-----------------0--0--------------|-----------------------------------||


E |----------------------------------------|
B |----------------------------------------|
G#|----------------------------------------|
E |----------------------------------------|
B |-0--0-2--0-3--0-2--0-3--0-2--0----------|
E |--------------------------------3/------|


E |-----------------------------------------------|
B |----------------------/12-----12------12\------|
G#|--------------------------12------12-----------|
E |-----------------------------------------------|
B |-0--0-2--0-3--0-2--0---------------------------|
E |-----------------------------------------------|


Verse:

E |-----------------------------------------|----------------------------------------------|
B |-----------------------------------------|----------------------------------------------|
G#|-----------------------------------------|----------------------------------------------|
E |-----------------------------------------|--------------------------------0--0----------|
B |-0--0-2--0-3--0-2--0-0--0-2--0-3--0-2--0-|-0--0-2--0-3--0-2--0-0--0-2--3-------3-2-0----|
E |-----------------------------------------|----------------------------------------------|


E |-----------------------------------------|-----------------------------------------|
B |-----------------------------------------|-----------------------------------------|
G#|-----------------------------------------|-----------------------------------------|
E |-0---------------------------------------|-----------------------------------------|
B |----0-2--0-3--0-2--0-0--0-2--0-3--0-2--0-|-0--0-2--0-3--0-2--0-0--0-2--0-3--0-2--0-|
E |-----------------------------------------|-----------------------------------------|


E ||------------------------|------------------------------------------||
B ||------------------------|------------------------------------------||
G#||.--/5----/5-\3--0-------|-----------------------------------------.||
E ||.--/5----/5-\3--0--/3---|-----------------------------------------.||
B ||-------------------/3---|-0--0-2--0-3--0-2--0-0--0-2--0-3--0-2--0--||
E ||------------------------|------------------------------------------||


Chorus:

E |--------------------|-----------------------|
B |--------------------|-----------------------|
G#|--------------------|-----------1/3---/5----|
E |-1--/3-----3--/5----|--5--/7----1/3---/5----|
B |-1--/3-----3--/5----|--5--/7----------------|
E |--------------------|-----------------------|

Bad Girls Tabs – Peer Günt

 Intro:
                              x3
E||-----------------------------||--------------------|
B||-----------------------------||--------------------|
G||.---------------------------.||--------------------|
D||.------2-----2-----2--------.||-------2-----2------|
A||-----------------------------||--------------------|
E||-0--3-----3-----3-----3-2----||-0--3-----3---------|


Verse:

E||-----------------------------||
B||-----------------------------||
G||.---------------------------.||
D||.------2-----2-----2--------.||
A||-----------------------------||
E||-0--3-----3-----3-----3-2----||


Chorus:

E|------|------||-----------------------------||
B|--3---|------||-----------------------------||
G|--2---|--2---||.---------------------------.||
D|--0---|--2---||.------2-----2-----2--------.||
A|------|--0---||-----------------------------||
E|------|------||-0--3-----3-----3-----3-2----||


Bridge:

E||------|-----|-----|------||
B||------|-----|-----|------||
G||.--4--|-----|--5--|--7--.||
D||.--4--|--5--|--5--|--7--.||
A||---2--|--5--|--3--|--5---||
E||------|--3--|-----|------||