Tag: People

Wait For The People Acoustic Tabs – James Chatburn

 ------------------------
Wait for the People - James Chatburn
------------------------
: Nosnip
Tuning: Normal EADGBe
--This isn't exactly what James Chatburn plays but I think it's close

    1   2   3   4
e|--x---x---x---x---|
B|--2---6---4---2---|
G|--1---5---3---1---|
D|--2---6---4---2---|
A|--x---4---2---0---|
E|--2---x---x---x---|

INTRO
e|---------------------------------------------------------------------------------------------|
B|------------2-------------------------2-----------------------2-----------------------2------|
G|------------1-------------------------1-----------------------1-----------------------1------|
D|----2----------------2-------2----------------2-------2----------------2-------2------------2|
A|---------------------------------------------------------------------------------------------|
E|-2-----2---------2-------2-------2--------2-------2-------2--------2-------2-------2-----2---|

e|---------------------------------------------------------------------------------------------|
B|------------6-------------------------6-----------------------6------------------------6-----|
G|------------5-------------------------5-----------------------5------------------------5-----|
D|----6----------------6-------6----------------6-------6----------------6-------6-------------|
A|-4-----4---------4-------4-------4--------4-------4-------4--------4-------4-------4---------|
E|---------------------------------------------------------------------------------------------|

e|---------------------------------------------------------------------------------------------|
B|------------2-------------------------2-----------------------2-----------------------2------|
G|------------1-------------------------1-----------------------1-----------------------1------|
D|----2----------------2-------2----------------2-------2----------------2-------2------------2|
A|-----------------------------------------------------------------------------------------------|
B|------------4-------------------------4-----------------------2------------------------2-----|
G|------------3-------------------------3-----------------------1------------------------1-----|
D|----4----------------4-------4----------------4-------2----------------2-------2-------------|
A|-2-----2---------2-------2-------2--------2-------0-------0--------0-------0-------0---------|
E|---------------------------------------------------------------------------------------------|

e|----------------------------------------------------|
B|------------------------2----------------------2----|
G|------------------------1----------------------1----|
D|--------2-------2---------------2-------2-----------|
A|---0-------0--------0-------0-------0-------0-------|
E|----------------------------------------------------|

VERSE X2(Exactly the same as the intro)
e|---------------------------------------------------------------------------------------------|
B|------------2-------------------------2-----------------------2-----------------------2------|
G|------------1-------------------------1-----------------------1-----------------------1------|
D|----2----------------2-------2----------------2-------2----------------2-------2------------2|
A|---------------------------------------------------------------------------------------------|
E|-2-----2---------2-------2-------2--------2-------2-------2--------2-------2-------2-----2---|

e|---------------------------------------------------------------------------------------------|
B|------------6-------------------------6-----------------------6------------------------6-----|
G|------------5-------------------------5-----------------------5------------------------5-----|
D|----6----------------6-------6----------------6-----

People Forget Tabs – ANTEMASQUE

 Antemasque-People Forget

After this one, I'm gonna make Providence and
maybe some other Antem. tab, and soon after an ATDI tab.



Intro:
 
With delay.

  
e|------------------------------------------------------------------------------------------|
B|------------------------------------------------------------------------------------------|
G|---------------------------------------12-12-12-12/19~------------------12-12-12-12/19~---|
D|--8-8-8-8-10-10------8-8-8-8-10-10---------------------8-8-8-8-10-10----------------------|
A|----------------10-----------------10--------------------------------10-------------------|
E|------------------------------------------------------------------------------------------|


Verse:

You can play without the open G string, it'll still sound ok.
 
|-------------------------------------------------------------|
|-------------------------------------------------------------|
|-0--0------0--0------0--0--0--0-0-0-0-0-0-0-0-0-0--0-0--0-0--|x2
|-17/12~----17/11~----10-10-10-108-8-7-7-5-5-5-8-5--5-5--5-5--|
|-------------------------------------------------------------|
|-------------------------------------------------------------|


Pre-chorus:

You can play the chords without the notes on the 5th and the 6th string, 
but I added them because it sounds more melodic.

|-10-10-10-10--10-10-10-10-10-10---------------------------------------|
|-10-10-10-10--8--8--8--8--8--8----------------------------------------|
|-10-10-10-10--9--9--9--9--9--9---12-12-12-12--12-12-12-12-12-12-12-12-|
|-10-10-10-10--10-10-10-10-10-10--10-10-10-8---10-10-10-10-10-8--8--8--|
|-8--8--8--8---x--x--x--x--x--x---10-10-10-10--10-10-10-10-10-10-10-10-|
|--------------8--8--8--8--8--8----------------------------------------|


|-10-10-10-10--10-10-10-10-10-10---------------------|
|-10-10-10-10--8--8--8--8--8--8---7-7-7-7-7-7-7-7-7~-|
|-10-10-10-10--9--9--9--9--9--9---7-7-7-7-7-7-7-7-7~-|
|-10-10-10-10--10-10-10-10-10-10--7-7-7-7-7-7-7-7-7~-|
|-8--8--8--8---x--x--x--x--x--x---5-5-5-5-5-5-5-5-5~-|
|--------------8--8--8--8--8--8----------------------|


Chorus: 

With delay.

|--------------------------------------------------|
|--------------------------------------------------|
|------------------7--7-7--------------------------|
|-8--8-8------------------8-8-10--8--8-8-----------|
|--------10--10-10-----------------------10--10-10-|
|--------------------------------------------------|

|-------------------------------------------------------|
|-------------------------------------------------------|
|-7--7-7-----------7--7-7-7--------12--12-12--9--9-9-7~-|
|--------8--8-8-------------8--8-8----------------------|
|-------------------------------------------------------|
|-------------------------------------------------------|


This part is usually played by another guitar while the first lets the 7th note on the G string ring,
but it's much more simple to just play this on one guitar.

|-------------------------------------------------|
|---------11----------11----------11----------11--|
|-10--12------10--12------10--12------10--12------|
|-------------------------------------------------|
|-------------------------------------------------|
|-------------------------------------------------|


Solo:

|-------------------------------------------13-15-15b--------|
|----------------------11-------13p11-13-15-----------15-13~-|
|-------10----------------12-10------------------------------|
|-10h12----10-8h10/------------------------------------------|
|------------------------------------------------------------|
|------------------------------------------------------------|


Back to verse:

|-------------------------------------------------------------|
|-------------------------------------------------------------|
|-0--0------0--0------0--0--0--0-0-0-0-0-0-0-0-0-0--0-0--0-0--|x2
|-17/12~----17/11~----10-10-10-108-8-7-7-5-5-5-8-5--5-5--5-5--|
|-------------------------------------------------------------|
|------

These People intro Tabs – Sheppard

 -------------------------------------------------------------------------------
                             THESE PEOPLE - Sheppard
-------------------------------------------------------------------------------
: BP97

Tuning:Standard

e|------------------------------------------------------------------------------|
B|--x--x--x---------------------------------------------------------------------|
G|--x--x--x--------3-----3--5--3--7--5---3--3-3--/8--7--5--3------------3-------|
D|--x--x--x--3--5-----5----------------------------------------3----3--5-----3--|
A|--x--x--x---------------------------------------------------------------------|
E|------------------------------------------------------------------------------|

e|---------------------------------------------------------------------------|
B|---------------------------------------------------------------------------|
G|-----3--5--3--7--5---5-5-/10--7--5--3-3------------------------------------|
D|--5------------------------------------------------------------------------|
A|---------------------------------------------------------------------------|
E|---------------------------------------------------------------------------|


************************************

| /   slide up
| \   slide down
| h   hammer-on
| p   pull-off
| ~   vibrato
| +   harmonic
| x   Mute note
| b   Bend
| pb  Pre-bend
| br  Bend release
| pbr Pre-bend release
| brb Bend release bend

************************************

Games People Play chords – Joe South V3

 SONG:   GAMES PEOPLE PLAY
ARTIST: JOE SOUTH
TAB BY: DON CZARSKI
EMAIL:  GUITARZAN7@HOTMAIL.COM


                     GAMES PEOPLE PLAY
                         JOE SOUTH


CAPO: 2nd FRET - (In videos Joe South has a capo on the 2nd fret)
                  
INTRO:

DANELECTRO ELECTRIC SITAR (FEEL FREE TO IMPROVISE)
   
    G D C D7 G 
E --------------|-----------------|------------|-----------|
B -----3--------|------3----------|-------3-5--|-----------|
G -2/4---0-0-0--|--2/4---4-2-2-2--|--2/4-------|--2/4-2-0--|
D --------------|-----------------|------------|-----------|
A --------------|-----------------|------------|-----------|
E --------------|-----------------|------------|-----------|

    G D 
E ------------------|-------------------|
B ------------------|-------------------|
G -2/4-4-2-0-0-0-0--|--2/4-4-2-0-2-2-2--|
D ------------------|-------------------|
A ------------------|-------------------|
E ------------------|-------------------|

             C D7 G 
E -----------------|------------------|
B --------3-5-5-5--|--5-5\3-----------|
G --2-2/4----------|--------4-2-0-0-0-|
D -----------------|------------------|
A -----------------|------------------|
E -----------------|------------------|


VERSE:
 G 
La da da da da da da 
             D 
La da da da da da de
          C         
La-da da da da da 
 D7 G 
 La da da da 


VERSE:
 G                        
Oh, the games people play now,
                        D 
Every night and every day now
                          C        
Never meaning what they say now,
 D7 G 
 Never saying what they mean


VERSE:
   G 
While they wile away the hours,
                 D 
In their ivory towers
                               C        
'Til they're covered up with flowers,
         D7 G 
In the back of a black limousine, woah-ah


CHORUS:
 G 
La da da da da da da 
             D 
La da da da da da de
                C           
Talking 'bout you and me,
 D7 G 
  And the games people play now


VERSE:
 G 
Oh, we make one another cry,
                        D 
Break a heart then we say goodbye
                          C    
Cross our hearts and we hope to die,
 D7 G 
 That the other was to blame, woah-ah


VERSE:
  G 
Neither one will ever give in,
                    D 
So we gaze at our eight by ten
                                 C               
Thinking 'bout the things that might have been,
 D7 G 
 And it's a dirty rotten shame, woah-ah


CHORUS:
 G 
La da da da da da da 
             D 
La da da da da da de
                C           
Talking 'bout you and me,
 D7 G 
  And the games people play, now


INSTRUMENTAL:

      G D C                  
Oh yeah, alright, oh yeah
      D7 G 
Come on, come on, come on, come on, come on

    G D 
E ------------------|-------------------|
B ------------------|-------------------|
G -2/4-4-2-0-0-0-0--|--2/4-4-2-0-2-2-2--|
D ------------------|-------------------|
A ------------------|-------------------|
E ------------------|-------------------|

             C D7 G 
E -----------------|------------------|
B --------3-5-5-5--|--5-5\3-----------|
G --2-2/4----------|--------4-2-0-0-0-|
D -----------------|------------------|
A -----------------|------------------|
E -----------------|------------------|

Let me hear i

Good People chords – Little Big Town

 NO CAPO 

 G D G D G Em G 
They say you are who you hang with
 G Em G 
It's no coincidence I wanna hang with you
 G C G 
Rise and fall together, travel is better in twos


 G 
Sometimes it feels like a magnet
 G Bm 
The way that crazy always sticks with its own kind
 G C 
 Don't believe in ESP
 C G              
But you can read my mind


[Chorus]
 G D 
Good people know
 D C 
Good people know
 C G D Bm 
Good people


 Bm D 
Good people know
 D C 
Good people know
 C G      
Good people

SOLO:  D G D C G D G G 
A good friend would bail you out of jail
 G C 
But a better one would be handcuffed to you
 C G 
Everyone's a winner when all the winners loose


[Chorus]
 G D 
Good people know
 D C 
Good people know
 C G D Bm 
Good people


 Bm D 
Good people know
 D C 
Good people know
 C G      
Good people


[Bridge]
 G Em C 
They can always spot another one when they're nearby
    Em C 
No matter where you land you're gonna find

[Chorus]
 Em D 
Good people know
 D C 
Good people know
 C G D G 
Good people

 D C G D G Bm 
We're guilty by association
 Bm G D 
Keeping company with ornery company
 D C 
Running round with rogues and rounders
              G 
Cause we believe

[Chorus]+[Bridge]
 C D 
Good people know
 D C 
Good people know
 C G Bm 
Good people

 Bm D 
Good people know
 D C 
Good people know
 C G Bm 
Good people

 Bm Em C 
They can always spot another one when they're nearby
    Em G C 
No matter where you land you're gonna find

[Chorus](x2)
 C D 
Good people know
 D C 
Good people know
 C G D G 
Good people


 G D  
Good people know
 D C 
Good people know
 C G D G 
Good people


 G D  
Good people know
 D C 
Good people know
 C G D G 
Good people

[outro]
 D Bm C G D G

Sovereign Light Café chords – Keane V5

 G 
I'm going back to a time when we owned this town
      C5 
Down Powder Mill Lane, in the battlegrounds
         G Em Dsus4 D 
We were friends and lovers and clueless clowns

                      G 
I didn't know I was finding out now I'd be torn from you
         C5 
When we talked about things we were gonna do
         G Em Dsus4 D 
We were wide eyed dreamers and wiser too

Refrão:
                C G 
We go down to the rides on East Parade,
        Em D 
By the lights of the Palace Arcade
                    C G Dsus4 D 
Watch night coming down on the Sovereign Light Café

                          G 
I'm begging you for some sign, but you've still got nothing to say
        C5 
Don't turn your back on me, don't walk away
       G Em Dsus4 D 
I'm a better man now than I was that day

Refrão:
                C G 
Let's go down to the rides on East Parade,
        Em D 
By the lights of the Palace Arcade
                    C G Dsus4 D 
Watch night coming down on the Sovereign Light Café
                C G 
Let's go down to the bandstand on the pier
           E D 
Watch the drunks and the lovers appear
                     C G Dsus4 D 
Take time, just the stars at the Sovereign Light Café

Ponte:
   C Dsus4 G D 
I wheel my bike off the train,

Up the North Trade Road,
 C Dsus4 G D 
Look for you on Marley Lane
                                     Em 
In every building, every streetlight
                    C Dsus4 D 
Oh why did we ever go so far from home?

                        G 
You got nothing to hide, you can't change who you really are
         C5 
You can get a big house and a faster car
         G Em Dsus4 D 
You can run away boy, but you won't go far

Refrão:
                      C G 
Let's go down to the rides on East Parade,
        Em D 
by the lights of the Palace Arcade
                   C G Dsus4 D 
Watch night coming down on the Sovereign Light Café
                    C G 
Let's go down to the bandstand on the pier
           Em D 
Watch the drunks and the lovers appear
                     C G Dsus4 D 
Take time, just the stars at the Sovereign Light Café

       C G Em 
Sha la la la la la yeh, yeah
     D C G Dsus4 D 
I'm going where the people know my name

(  C G D  ) (2x)

Island Universe chords – Feeding People

 Intro:  G ,  Em ,  C ,  D G 
Island universe, babe you'd never get hurt 
 Em 
Something I could weave
 Em C D 
Where we could leave, forever, forever,
 G 
I can read your mind, the secret's not hard to find
 Em 
Like the stars appear, perfectly aligned
 C D 
Forever, forever,
CG
Young and naïve,
 A Em 
Can we just make believe?
 C Em 
Die in our sleep,
 A Em 
Can we just make believe?

Island universe, baby you'll never get hurt
Something I could with
Where we could live, forever, forever,
I can read your mind, the secret's not hard to find
Like the stars appear, perfectly aligned
Forever, forever,
Young and naïve,
Can we just make believe?
Die in our sleep,
Can we just make believe?

Island universe, baby you'll never get hurt
Something I could with
Where we could live, forever, forever,
I can read your mind, the secret's not hard to find
Like the stars appear, perfectly aligned
Forever, forever,
Forever, forever,
Forever, forever.

Tell The World chords – Eric Hutchinson

 Capo 4

 C F C 
Let's tell the world all the things we've done
 C G C 
Falling in love and the setting sun
 C F C 
I've got a song and a smile so bright
 C G C 
I'll make you wish you were here tonight

 C F C C G C C F C 
All of the places we ever go
 C G C 
Feel familiar I'm never alone
 C F C 
All of the people that I don't know
                                 G C               
Will be looking me up when they all get home

 C F C 
Let's tell the world all the things we've done
 C G C 
Falling in love and the setting sun
 C F C 
I've got a song and a smile so bright
 C G C 
I'll make you wish you were here tonight

            F C 
And if you tell the world your secrets
           Am F 
You never know what's set in stone
              G 
And what can grow woah woah

SOLO:
 C F C C G C 
X2

 C F C 
Tell the world, tell the world
           G 
I'm gonna tell the world
 C F C 
Tell the world, tell the world
                            G 
That I got somethin' on my mind

 C F C 
Let's tell the world all the things we've done
 C G C 
Falling in love and the setting sun
 C F C 
I've got a song and a smile so bright
 C G C 
I'll make you wish you were here tonight

 C F C 
Let's tell the world all the things we've done
 C G C 
Falling in love and the setting sun
 C F C 
I've got a song and a smile so bright
 C G C 
I'll make you wish you were here tonight

 C F C 
Na na na na na na na na na 
 C G C 
Na na na na na na na na na
 C F C 
Na na na na na na na na na 
 C G C 
Na na na na na na na na na

The Way We Live chords – Johnny Rivers

 G Am 
You ask me why I don't smile
          Em Am 
Is there something troublin' me
 C G Em 
Just open your eyes and look around
 Am G 
And tell me what do you see

Can you understand the things people do
And the way they treat each other
And tell me how far has man really come
When today he's still killing his brother

 Am Em 
It makes no difference where you do it
 Am D 
Or what name you use
 Bb F Dm 
I know if things keep going this way
 Bb F 
Everyone's gonna lose
 Bb F D 
Everybody's gonna lose

We're doing alright with material things
You can tell by the way we live
But with all these things man has learned how to do
Still hasn't learned how to give

If you don't have the answers right now
I'll see you after a while
But if next time I still look this way
You'll know why I don't smile...

Notes:
- Intro and outro same as verses.
- These are just the root chords.  There are probably added 7ths, 6ths, and other things.
- I'm not certain about the Am at the end of each verse... keep going back and forth on 
how it sounds.
- If there are errors, suggestions, or improvements, PM me or comment.

Seasons Waiting On You chords – The Future Islands

 Capo on 3

Intro
 C 

[Verse]

 C D                 
Seasons change, 

 D G  
and I tried hard just to soften you

 C D  
The seasons change

 D G 
but I've grown tired of tryin' to change for you

[Bridge]

 G C D 
Because I've been waiting on you

 D G 
I've been waiting on you

 G C D 
Because I've been waiting on you

 D G 
I've been waiting on you



[Chorus]
 C Em Am 
    As it breaks, the summer awaits

 Am G Am C        
But the winter washed whats left of the taste

 C Em Am 
    As it breaks, the summer awaits

 Am G Am 
But the winter craved whats lost

 G Am Em 
Crave whats all...Gone Away

[Verse 2]
 C D                     
People change

 D G 
even though some people never do

 C          
You know when people change

 D G 
They gain a piece but they lose one too


 G C D 
Because I've been waiting on you

 D G 
I've been waiting on you


 G C D 
Because I've been waiting on you

 D G 
I've been waiting on you

[Chorus]
 C Em Am 
    As it breaks, the summer awaits

 Am G Am C        
But the winter washed whats left of the taste

 C Em Am 
    As it breaks, the summer awaits

 Am G Am 
But the winter craved whats lost

 G Am Em 
Crave whats all...Gone Away

Over chords – Lindsay Lohan V6

 TITLE: OVER
ARTIST: LINDSAY LOHAN
NOTES: So, I did most of this by ear, but I usually tend to 
sing that same pitch as she does. A lot of people want the capo 
to low, but if you want to sing it like Lindsay I recommend to 
use the Capo on 4. It's less confusing, but I'm not 100% about 
this tab. This is just how I sing it, and I had to edit several 
tabs to figure out the correct thing.

[CAPO:] 4th Fret

[INTRO:]   Am  -  Em  (2x)

[VERSE 1:]
 Am Em 
I watched the walls around me crumble
 Am Em 
But its not like I won't build them up again
 Am Em 
So here your last chance for redemption
 Am Em 
So take it while it lasts 'cause it will end
 Dm Am 
And my tears are turning into time 
                            Dm 
I've wasted trying to find a reason for 
 G 
goodbye

[CHORUS:]
 C 
I cant live without you
                           G               
Can't breathe without you I dream about you honestly
 Am G 
Tell me that it's over
 Am                                  
Because if the world is spinning and I'm still living
 G Am                
It wont be right if were not in it together
 G Am 
Tell me that it's over
 G Am 
And ill be the first to go
 G Am 
Don't want to be the last to know

[VERSE 2:]
 Am Em 
Don't want to be the one to chase you
 Am Em 
But at the same time your the hart that I call home
 Am Em 
I'm always stuck with these emotions
 Am Em 
And the more I try to feel the less I'm whole
 Dm Am        
My tears are turning into time
                           Dm               
I've wasted trying to find a reason for
 G 
Goodbye

[CHORUS:]
 C 
I cant live without you
                           G               
Can't breathe without you I dream about you honestly
 Am G 
Tell me that it's over
 Am                                  
Because if the world is spinning and I'm still living
 G Am                
It wont be right if were not in it together
 G Am 
Tell me that it's over
 G Am 
And ill be the first to go
 G Am 
Yeah, I'll be the first to go
 G Am 
Don't want to be the last to know.
 G ,     G G 
Over, Over, Over.

[VERSE 3:]
          Dm Am 
And My tears are turning into time
                            Dm                                             
I've wasted trying to find a reason for 
 G 
Goodbye

[CHORUS:]
 C 
I cant live without you
                           G               
Can't breathe without you I dream about you honestly
 Am G 
Tell me that it's over
 Am                                  
Because if the world is spinning and I'm still living
 G Am                
It wont be right if were not in it together
 G Am 
Tell me that it's over
 G Em 
Honestly, tell me.
 G Em 
Honestly, tell me.
 Am Em 
Don't tell me that it's over.
 Am Em 
Don't tell me that it's over.

Last Night I Had The Strangest Dream chords – The Weavers

 Chords:
 B : x24442
 E : 022100
 C# / F#7 : x44320

There might be a plain F# major chord on the second beat of the last line of the 
stanza.  Try it out.

      B 
Last night I had the strangest dream
     E B 
I'd never dreamed before
   C# / F#7 B  
I dreamed the world had all agreed
    C# / F#7 B 
To put an end to war

I dreamed I saw a mighty room
And the room was filled with men
And the paper they were signing said
They'd never fight again

And when the paper was all signed
And a million copies made
They all joined hands and bowed their heads
And grateful prayers were prayed

And the people in the streets below
Were dancing 'round and 'round
And swords and guns and uniforms
Were scattered on the ground

Last night I had the strangest dream
I'd never dreamed before
I dreamed the world had all agreed
To put an end to war.

Exploding People Tabs by Cloud Cult

 Cloud Cult - Exploding People
Tuning: Standard

: Maria :)

Intro:

e|-----------0----------------------------------0---------------------------|
B|------------------0--0--0--1----------------------0--0--0--h1p1-----------|
G|-------------------------------2-0-----------------------------------2-0--|
D|------------------------------------2---2-2-------------------------------|
A|---3---3------------------------------------------------------------------|
E|--------------------------------------------------------------------------|

e|-----------0----------------------------------0---------------------------|
B|------------------0--0--0--1----------------------0--0--0--h1p1-----------|
G|-------------------------------2-0-----------------------------------2-0--|
D|---2----2--------------------------2---2-2--------------------------------|
A|--------------------------------------------------------------------------|
E|--------------------------------------------------------------------------|

e|-----------------------------------------------------------------|
B|-----------------------------------------------------------------|
G|-----------------------------------------------------------------|
D|---3--3--3--2--2--2--0--0--0-2-----------------------------------|
A|-----------------------------------------------------------------|
E|-----------------------------------------------------------------|

Verse1:
C                        Am
Building up a belly full of bumble bees.
C                       Am
Pushing down the pain like it's a quarantine.
G                                C
Baby, sing in choir 'til your tongue falls out,
                 Am           C
cuz if you hold it all in it'll all fall out.
G                      Dm          Am
And one by one, the people, they explode.


(Instrumental)

e|-----------0----------------------------------0---------------------------------|
B|------------------0--0--0--1----------------------0--0--0--h1p1-----------------|
G|-------------------------------2-0-----------------------------------2-0--------|
D|---2--------------------------------2---2-2---------------------------------3x--|
A|--------------------------------------------------------------------------------|
E|--------------------------------------------------------------------------------|

e|-------12--17---12---17--12--------12--17---12---17--12----------------|
B|--10-----------------------------10------------------------------------|
G|-----------------------------------------------------------------------|
D|-----------------------------------------------------------------------|
A|-----------------------------------------------------------------------|
E|-----------------------------------------------------------------------|

e|-------12--17---12---17--12--------12--17---12---17--12----------------|
B|--10-----------------------------10------------------------------------|
G|-----------------------------------------------------------------------|
D|-----------------------------------------------------------------------|
A|-----------------------------------------------------------------------|
E|-----------------------------------------------------------------------|

C                        Am
The past aint ever gonna re-come.
C                       Am
So do what you do, cuz what's done is done.
G                                F
Beat out the pain with a kick drum.
                 Am           C
Can't escape from yourself unless you don't run.
G                      Dm          Am
And one by one, the people, they explode.


[Drums]
C
You are your own poison
Am
You are your own drugger
C
You are your own savior
Am
You are your own cure
[Drums]

(Instrumental)


G                      Dm          Am
One by one, the people, they explode


C                        Am
You never see the present, cuz you're al

Friends chords – Will And The People

 I think I figured the chords out realy close but some chords I had to guess so if u
notice some flaws feel free to let me know. Also I only figured out the chords, but I
couldn't always find when wich chords has to be played so I hope you can figure that out 
yourself! goodluck!

-----------------------------------------------
Almost only Barré's except the E in the line CBE.

I’d rather have a water fight
Then go to war to fight
 C B Am 
Stone cold soul

 Am G G# Am  3x
 C B Fm C B E G G# Am 
I did used to have one
It wasn’t very good
Ages ago

                 F C 
I lost my keys in a glass of wine
                 E Am 
Had to much pudding and a cocaine line
                 F C 
You have too many it makes you tired
                 E Am 
You become unfaithful not to be desired


Fuck it I’ll click upload and be worldwide woven inside your heads
Dots swim inside my mind happy, free and blind misters and misses

         F C 
Friends, friends can attach me
         Em Dm 
To computers with keyboards

         F C 
Friends, friends a cyberlution
         Em Dm 
But there’s two ends on this sword

 Am G G# Am  3x
 C B Fm C B E G G# Am 

Can you picture loads of doors
Down into corridors
Filled with gamblers, and thieves and then whores

Yeah everybody’s famous (everybody everybody)
Everybody everybody everybody everybody’s famous

I lost my keys in a glass of wine
Had to much pudding and a cocaine line
You have too many it makes you tired
You become unfaithful not to be admired

Fuck it I’ll click upload and be worldwide woven inside your heads
Dots swim inside my mind happy, free and blind misters and misses

Friends, friends can attach me
To computers with keyboards

Friends, friends a cyberlution
But there’s two ends on this sword

Especially when the lights go out
Especially when the lights go out
Especially (especially) when the lights (when the lights) go out (go out)
Especially (especially) when the lights (when the lights) go out (go out)

Friends, friends can attach me
To computers with keyboards

Friends, friends a cyberlution
But there’s two ends on this sword

Especially (especially) when the lights (when the lights) go out (go out)
Especially (especially) when the lights (when the lights) go out (go out)

Some People Ride The Wave chords – Devendra Banhart

 Intro:
          
 E A B   x2

      E A 
Some people ride the wave of generosity

      B E 
Some people ride the wave of mediocrity

 E A 
Me I ride the wave of never gonna drown

 B E 
Oh just fooling around


     E 
Now I gots the balloons

     A 
And you you gots the mud

     B 
And me I gots the snail

     E 
And you you gots the stuff

      E A 
Well you got so much more than I figure was in store

    B E 
Oh I ain't foolin no more


          E A 
Now some people ride the cat when asleep or when awake

      B E 
Some people ride a cat for riding a cat's sake

 E A 
Me I ride this cat cause its claws have got my eyes

      B E 
I'll get 'em back in a few more tries

         B E 
Oh I'll get 'em back in a few more tries


      E A 
Some people write the books that tenderize their names

      B E 
Some people write the books that bastardize our claims

 E A 
Me I ride the book that's sifting in the sand

 B E 
Aw, some day I'll understand

 B E 
Aw, some day I'll understand

     
      E A 
Some people write the songs that stay inside our souls

      B E 
Some people write the songs that really ain't songs at all

 E A 
Me I ride the song that ends right when it starts

         B E 
They'll split before they part

            B E 
Oh they'll split before they part

Coming Of Age chords – Foster The People V3

 Capo 3 (much easier to play)

Intro:  G C D G 
Where she's standing there, like a rabid duck

               C 
And you got those crying eyes

 D Em C 
Makes me wanna surrender and wrap you in my arms

You know I try to live without regrets
I'm always moving forward and not looking back
But I tend to leave a trail of death while I'm moving ahead
So I'm stepping away

 Am Bm 
Ahh                   'Cause I got nothing to say

 D G 
Feels like, feels like it's comin'
 C D 
Feels like, feels like-It's like a coming of age
              G 
Feels like, feels like it's comin'
 C 
Feels like, feels like a coming of age

[Guitar Solo]

              D G 
And when my fear pulls me out to see
                                 C 
And the stars are hidden by my pride and my enemies
 D Em C 
I seem to hurt the people that I care the most

Just like an animal I protect my pride
When I'm too bruised to fight
And even when I'm wrong I tend to think I'm right
Well, I'm bored of the game
And too tired to rage

 Am Bm 
Ahh                    'Cause I got nothing to say

 D G 
Feels like, feels like it's comin'
 C D 
Feels like, feels like-It's like a coming of age
                  G 
Feels like, feels like it's comin'
 C 
Feels like, feels like I’m burning a page

Feels like, feels like it's comin'
Feels like, feels like-It's like a coming of age
Feels like, feels like it's comin'
Feels like, feels like a coming of age
Feels like-Yeah! It's like a coming of age
Feels like, feels like it's comin'
Feels like, feels like-And I'm coming of age
Feels like, feels like it's comin'
Feels like, feels like a coming of age
Feels like, feels like a coming of age

Coming Of Age chords – Foster The People V2

 Foster The People: Coming of Age 

Capo: 3rd Fret.


Verse:

 D Em 
Well, I see you standing there like a rabid dog
          C 
And you got those crying eyes
 D Em C 
Makes me wanna surrender and wrap you in my arms

You know I try to live without regrets
I'm always moving forward and not looking back
But I tend to leave a trail of death while I'm moving ahead
So I'm stepping away



Pre chorus:

 Am Em Bm 
Ahhhh....
'Cause I got nothing to say



Chorus:

 D Em 
Feels like, feels like it's coming
      C 
It feels like, feels like I'm of coming of age
 D Em 
Feels like, feels like it's coming
      C 
It feels like, feels like I'm of coming of age


instrumental  D Em C  x2


Verse:

 D Em 
And when my fear pulls me out to sea
                     C 
And the stars are hidden by my pride and my enemies
 D Em C 
I seem to hurt the people that I care the most

Just like an animal I protect my pride
When I'm too bruised to fight
And even when I'm wrong I tend to think I'm right
Well I'm bored at the game



Pre Chorus:

 Am Em Bm 
Ahhhh....
And too tired to rage



Chorus:

 D Em 
Feels like, feels like it's coming
      C 
It feels like, feels like I'm of coming of age
 D Em 
Feels like, feels like it's coming
      C 
It feels like, feels like I'm of coming of age

 D Em 
Feels like, feels like it's coming
      C D Em C 
It feels like, feels like I'm of coming of age
     
It feels like, feels like I'm of coming of age



instrumental repeat  D Em C  


outro: 

 C D 
Feels like, feels like I'm of coming of age
              Em 
Feels like, feels like it's coming

It feels like, feels like I'm of coming of age
Feels like, feels like it's coming

 C D Em C 
It feels like, feels like I'm of coming of age
It feels like, feels like I'm of coming of age

  
repeat x4
                  D 
oh oh oh oh oh oh oh oh oh
 Em C 
oh oh oh oh oh oh 
  

Reindeers Are Better Than People Theme Tabs by Misc Soundtrack

 This is finger picked, so I'm not sure how to bring it across 100% in tab form - but if
you listen to the song you'll get what I mean. The lyrics match up to the notes he's
playing as he sings. Also, you're welcome to play the full chords (as listed). The 
soundtrack version uses mostly bar chords with the second note omitted - I find this easier to
play, but it's up to you!

, any comments/corrections are appreciated!

Reindeers Are Better Than People (from the Disney Animation Studios production, Frozen),
sung by Jonathan Groff.

-------------------------------------------------------------------------------
                             Reindeers Are Better Than People - Misc Soundtrack
-------------------------------------------------------------------------------
: cuddlycombine
 systematicapostasy

Tuning: standard
Intro guitar: (0:00 - 0:03)

e|---------------------------------------------------------------------------|
B|---------------------------------------------------------------------------|
G|---------------------------------------------------------------------------|
D|---------------------------------------------------------------------------|
A|---------------------------------------------------------------------------|
E|---------------------------------------------------------------------------|

e|--------------------------------------5----------------------------------------------------|
B|-------------------------------------------------------------------------------------------|
G|------4--5-4------------------6------------------------------------------------------------|
D|-------------------------------------------------------------------------------------------|
A|-----5---7-5----------7--------------------------------------------------------------------|
E|----3--------------------------------------------------------------------------------------|

Kristoff (0:04 - 0:11)

    "Reindeers are better than people,    Sven don't you think that's true?
e|---5-----------------------------------------------------------------5---------------------|
B|---7-------------------------------------------------------------------------7-------------|
G|---7-------------6-----------7------5---4--------------6-----------------6---5-------------|
D|-----------------7-----------7----------5--------------7-------------4-------0-------------|
A|---5-------------------------5-------------------------------------------------------------|
E|-----------------5----------------------3--------------5-----------------------------------|
     D             A           D          G              A             D       D7

Sven: (0:12 - 0:17)

"Yeah people will beat you and curse you and cheat you, every one of them's bad - except you!
e|-------------------------------------------------------------------------------------------|
B|----8-------------------------------------------------------8------------------------------|
G|----9-----------6------------7-------------8----------------9-------------6------------7---|
D|----------------7------------7-------------7------------------------------7------------7---|
A|----7------------------------5-------------9----------------7--------------------------5---|
E|----------------5---------------------------------------------------------5----------------|
      Em          A            D             B7               Em            A            D

Kristoff: (0:17-0:19)

"Oh, thanks buddy."
e|----------------------5--------------------------------------------------------------------|
B|-------------------------------------------------------------------------------------------|
G|-------------------6-----------------------------------------------------------------------|
D|------------------7------------------------------------------------------------------------|
A|-----------------0---

Cherry People – And Suddenly chords

 And Suddenly:Cherry People.
#45 on BB Hot 100 on HERITAGE
Records in 1968.


INTRO:
 E F# E F# B 
And sudden..ly my world is filled with sunshine.
 F# E F# B Abm A 
And suddenly my life is going, so fine.

#1.
 B Ebm Eb E F# B Ebm 
I, I, I used to be such a lonely guy..I cried 
           E Eb Ab 
until you came into my life.
     Dbm F# Dbm B 
And suddenly my days are filled with laughter.
     Dbm F# B Bm B 
And suddenly I've got the girl I'm after.

#2.
 B Ebm E F# 
I (I) I (I) finally found what I'm looking for.
 B Ebm E 
Love (love) sweet love (love) came around knocking 
       Eb Ab  
on my door.
     Dbm B E B 
And suddenly my world is filled with sunshine.
 Dbm Abm B 
Suddenly my life is going so fine.


INTERLUDE:  Dbm B Bm B A 

#3.
 B Ebm Eb E F# B Ebm 
I, I, I used to be such a lonely guy..I cried 
           E Eb Ab 
until you came into my life.
     Dbm F# Dbm B 
And suddenly my days are filled with laughter.
     Dbm F# B Bm B 
And suddenly I've got the girl I'm after.

OUTRO:
     Dbm E F# B 
And suddenly my life is going, so fine.
     Dbm B Dbm B 
And suddenly my world is filled with sunshine..(Fade.)


A sixties smash from Kraziekhat.

People Who Dont Climb Ladders Tabs by Easyworld

 People Who Don’t Climb Ladders
(aren’t particularly likely to fall off ladders now, are they?)

Picking Riff

-----0-----------|
-------2-----0---|
---------------3-|
---4-------------|
-2---------4-----|
---------2-------|


Intro

Repeat picking riff


Verse 1

picking riff repeated

now youll never be a freak my dear
now youll never be a freak
a stupid haircut and yr halfway there
but youll never be a freak


Chorus

G       A               picking riff
rung by fucked up rung


Verse 2

Picking riff repeated

sickest jokes are on the unprepaired
so work this one out Hercule
no youll never be a freak my dear
(something) no thanks to you


Repeat Chorus

Solo (loosely played)

-----------\0------------------------------------------------------------------|
-----------\0--5b6r5/------------------------------------9b10r9----------------|
-9b11(ish)-\0--5b6r5/--5b7(slow with feedback)-7b9r7-----9b10r9----------------|
-----------\0----------------------------------------6b7-----------------------|
-----------\0------------------------------------------------------------------|
-----------\0---------------------------------------------------5(whammy drop)-|


Verse 3

Picking riff repeated

sickest jokes are on the unprepaired
so work this one out Hercule
no youll never be a freak my dear
no youll never be Hercule


Repeat Chorus

end mix picking riff with very random note bends and guitar thrashing