Tag: perfect

Perfect chords by Ed Sheeran V3

     E-A-D-G-B-e
G    3-x-0-0-3(3)
Em   0-2-2-0-3(3) (= Em7)
C    x-3-2-0-3(3) (= Cadd9)

[Intro]
G

[Verse]
          G        Em
I found a love for me
             C                            D
Darling just dive right in, and follow my lead
               G           Em
Well I found a girl beautiful and sweet
         C                                    D
I never knew you were the someone waiting for me

[Pre-Chorus]
                                 G
Cause we were just kids when we fell in love
             Em                     C                G  D
Not knowing what it was, I will not give you up this ti-ime
                   G                         Em
But darling just kiss me slow, your heart is all I own
            C                   D
And in your eyes you're holding mine

[Chorus]
      Em   C             G          D              Em
Baby, I'm dancing in the dark, with you between my arms
C                G     D                Em
Barefoot on the grass, listening to our favorite song
          C                G                 D              Em
When you said you looked a mess, I whispered underneath my breath
         C                G        D             G
But you heard it, darling you look perfect tonight

| G D/F# Em D | C  D  |

[Verse]
               G                    Em
Well I found a woman, stronger than anyone I know
                C                                        D
She shares my dreams, I hope that someday I'll share her home
           G             Em
I found a love, to carry more than just my secrets
         C                              D
To carry love, to carry children of our own

[Pre-Chorus]
                              G                     Em
We are still kids, but we're so in love, fighting against all odds
                  C               G  D
I know that we'll be alright this ti-ime
               G                            Em
Darling just hold my hand, be my girl, I'll be your man
          C              D
I see my future in your eyes

[Chorus]
      Em   C              G         D              Em
Baby, I'm dancing in the dark, with you between my arms
C                G     D                Em
Barefoot on the grass, listening to our favorite song
        C                G                D
When I saw you in that dress, looking so beautiful
  Em       C                  G        D          [ G ]
I don't deserve this, darling you look perfect tonight

[Interlude]
| G  | % | Em | % |
| C  | % | D  | % |

[Chorus]
      Em   C              G         D              Em
Baby, I'm dancing in the dark, with you between my arms
C                G     D                Em
Barefoot on the grass, listening to our favorite song
        C              G               D             Em
I have faith in what I see, now I know I have met an angel
    C          G         D
In person, and she looks perfect

[Outro]
  G/B     C           Dadd4    D        [ G ]
I don't deserve this, you look perfect tonight

| G D/F# Em D | C  D  | G

Perfect Piano Chords by Ed Sheeran

[Verse 1]
          G         Em7
I found a love for me
             Cadd9                        D
Darling just dive right in, and follow my lead
               G          Em7
Well I found a girl beautiful and sweet
             Cadd9                                 D 
Well I never knew you were the someone waiting for me


[Pre-Chorus 1]
N.C.                                
Cause we were just kids when we 
G                         Em7
Fell in love, not knowing what it was
           Cadd9            G D
I will not give you up this time
                 G                           Em7
But darling just kiss me slow, your heart is all I own
            Cadd9                 D 
And in your eyes you’re holding mine


[Chorus 1]
     Em7 Cadd9          G          D              Em7
Baby I’m dancing in the dark, with you between my arms
Cadd9           G      D                Em7
Barefoot on the grass, listening to our favorite song
         Cadd9             G                 D             Em7
When you said you looked a mess, I whispered underneath my breath
        Cadd9             G        D              G  D/F#  Em7  D  Cadd9  D      
But you heard it, darling you look perfect tonight


[Verse 2]
               G                    Em7
Well I found a woman, stronger than anyone I know
              Cadd9                                      D
She shares my dreams, I hope that someday I’ll share her home
          G              Em7
I found a love, to carry more than just my secrets
         Cadd9                          D
To carry love, to carry children of our own


[Pre-Chorus 2]
                             G                     Em7
We are still kids, but we’re so in love, fighting against all odds
       Cadd9                 D 
I know we’ll be alright this time
             G                              Em7 
Darling just hold my hand, be my girl, I’ll be your man
         Cadd9            D 
I see my future in your eyes


[Chorus 2]
     Em7 Cadd9          G          D              Em7
Baby I’m dancing in the dark, with you between my arms
Cadd9           G      D                Em7
Barefoot on the grass, listening to our favorite song
       Cadd9           G                 D      
When I saw you in that dress, looking so beautiful
  Em7     Cadd9               G        D        (G)    
I don't deserve this, darling you look perfect tonight


[Interlude]

Rhythm:
G  Em7  Cadd9  D

Perfect Ukulele by Ed Sheeran

Capo 1st fret

[Verse]
          G        Em
I found a love for me
             C                            D
Darling just dive right in, and follow my lead
               G           Em
Well I found a girl beautiful and sweet
        C                                     D
I never knew you were the someone waiting for me

[Pre-Chorus]
                                G
Cause we were just kids when we fell in love
            Em                      C                G  D
Not knowing what it was, I will not give you up this time
                 G                           Em
But darling just kiss me slow, your heart is all I own
            C                   D
And in your eyes you’re holding mine

[Chorus]
    Em   C              G          D              Em
Baby I’m dancing in the dark, with you between my arms
C                G     D                Em
Barefoot on the grass, listening to our favorite song
          C                G                 D              Em
When you said you looked a mess, I whispered underneath my breath
         C                G        D             G  D  Em  D  C  D
But you heard it, darling you look perfect tonight

[Verse]
               G                    Em
Well I found a woman, stronger than anyone I know
               C                                         D
She shares my dreams, I hope that someday I’ll share her home..
          G              Em
I found a love, to carry more than just my secrets
         C                              D
To carry love, to carry children of our own..

[Pre-Chorus]
                              G                     Em 
We are still kids, but we’re so in love, fighting against all odds
             C               G  D
I know we’ll be alright this time
               G                            Em 
Darling just hold my hand, be my girl, I’ll be your man
          C              D
I see my future in your eyes

[Chorus]
     Em   C              G         D              Em
Baby I’m dancing in the dark, with you between my arms
C                G     D                Em
Barefoot on the grass, listening to our favorite song
       C                G                D      
When I saw you in that dress, looking so beautiful
  Em       C                  G        D           G    Em     C  D    
I don't deserve this, darling you look perfect tonight     No no nah

[Chorus]
     Em   C              G         D              Em
Baby I’m dancing in the dark, with you between my arms
C                G     D                Em
Barefoot on the grass, listening to our favorite song
        C              G               D             Em
I have faith in what I see, now I know I have met an angel
    C          G         D             
In person, and she looks perfect,
     C                  D                    G    D  Em  D  C  D  G
no I don't deserve this, you look perfect tonight
Suggest correction

Perfect chords by Ed Sheeran

[INTRO]

G

[VERSE]

          G        Em

I found a love for me

             C                            D

Darling just dive right in, and follow my lead

               G           Em

Well I found a girl beautiful and sweet

         C                                    D

I never knew you were the someone waiting for me

[PRE-CHORUS]

                                 G

Cause we were just kids when we fell in love

             Em                     C                G  D

Not knowing what it was, I will not give you up this ti-ime

                   G                         Em

But darling just kiss me slow, your heart is all I own

            C                   D

And in your eyes you’re holding mine

[CHORUS]

      Em   C             G          D              Em

Baby, I’m dancing in the dark, with you between my arms

C                G     D                Em

Barefoot on the grass, listening to our favorite song

          C                G                 D              Em

When you said you looked a mess, I whispered underneath my breath

         C                G        D             

But you heard it, darling you look perfect tonight

G  D/F#  Em  D  C    D  - 

[VERSE]

               G                    Em

Well I found a woman, stronger than anyone I know

                C                                        D

She shares my dreams, I hope that someday I’ll share her home

           G             Em

I found a love, to carry more than just my secrets

         C                              D

To carry love, to carry children of our own

[PRE-CHORUS]

                              G                     Em

We are still kids, but we’re so in love, fighting against all odds

                  C               G  D

I know that we’ll be alright this ti-ime

               G                            Em

Darling just hold my hand, be my girl, I’ll be your man

          C              D

I see my future in your eyes

[CHORUS]

      Em   C              G         D              Em

Baby, I’m dancing in the dark, with you between my arms

C                G     D                Em

Barefoot on the grass, listening to our favorite song

        C                G                D      

When I saw you in that dress, looking so beautiful

  Em       C                  G        D             

I don’t deserve this, darling you look perfect tonight

[BRIDGE]

G  Em  C  D    

[CHORUS]

      Em   C              G         D              Em

Baby, I’m dancing in the dark, with you between my arms

C                G     D                Em

Barefoot on the grass, listening to our favorite song

        C              G               D             Em

I have faith in what I see, now I know I have met an angel

    C          G         D             

In person, and she looks perfect

      C                D

No I don’t deserve this, you look perfect tonight

G  D/F#  Em  D  C    D    | G

3 Libras Tabs – A Perfect Circle Vsion 8

 OK so this is my first tab to please give me some slack on my writing abilities.

I've seen a lot of weird tuneings that people use to play this song but im lazy and do 
not like to tune.
 SO here is how you play 3 libras in standard. Listen to the song for how to put it together.

[Intro]

e ---------------------|
B -0--0-0--0-0--0-4--4-|
G ---------------------|
D --2----2----2----6---|
A -0-0--0-0--0-0--4-4--|
E ---------------------|

e ---------------------|
B -0--0-0--0-7--7-4--4-|
G ---------------------|
D --2----2----9----6---|
A -0-0--0-0--7-7--4-4--|
E ---------------------|

Play those two lines twice and then play this.

e -----
B -5--5
G -----
D --7--
A -5-5-
E -----  x4 and hold out the last one.

[Verse]

e ---------------------|
B -0--0-0--0-2--2-3--3-|
G ---------------------|
D --2----2----4----5---|
A -0-0--0-0--2-2--3-3--|
E ---------------------| x4

On the last one add

e ------|
B -4--4-|
G ------|
D --6---|
A -4-4--|
E ------|

Now after this it'll hit a little bit and maynard will be like, "here i am expecting
just a little bit...." this part is kinda weird

e -----------------------|
B -0--0-0--0-0--0-7--7---|
G -----------------------|
D --2----2----2----9-----|
A -0-0--0-0--0-0--7-7----|
E -----------------------|

e -------------------------|
B -4--4-4--4-5--5-5--5-----|
G -------------------------|
D --6----6----7----7-------|
A -4-4--4-4--5-5--5-5------|
E -------------------------|

Play through that twice and after the last one add

e ---
B -5-
G ---
D ---
A -5-
E ---

And hold it

Then start back at the first part of the verse and play all of this again. Then go to 
the chorus

[Chorus]

This one is kinda hard to explain. So your pretty much gonna play the same chords from
the first part of the verse. If you can hit the b string while struming these like a bar
chord almost it sorta works. But really the a and d string are all that matter here.

The sruming pattern i use is 1-2&3 or if your not great at counting music its
down-down-up-down then i rest on beat for. You know the pattarn you use for the verse 
and intro?
Its that pattern of play but instead of picking you strum if that makes sense.

e -------------------------------------|
B -0-0-0-0--0-0-0-0--2-2-2-2--3-3-3-3--|
G -------------------------------------|
D -2-2-2-2--2-2-2-2--4-4-4-4--5-5-5-5--|
A -0-0-0-0--0-0-0-0--2-2-2-2--3-3-3-3--|
E -------------------------------------| x4

[Bridge?]

This is the part where he is like "oh well" you literally play the intro all the way through.

e ---------------------|
B -0--0-0--0-0--0-4--4-|
G ---------------------|
D --2----2----2----6---|
A -0-0--0-0--0-0--4-4--|
E ---------------------|

e ---------------------|
B -0--0-0--0-7--7-4--4-|
G ---------------------|
D --2----2----9----6---|
A -0-0--0-0--7-7--4-4--|
E ---------------------|

Play those two lines twice and then play this.

e -----
B -5--5
G -----
D --7--
A -5-5-
E -----  x4 and hold out the last one.

[Outro]

Warning, i know for a fact this is different from the song but this is how i play it to sing.

Now the outro is played with the same strumming pattern as the chorus and i wrote it out
almost the same way. Instead of the chords from the verse tho, you use the intros chords.

e ----------------------------------|
B -0-0-0-0-0-0-0-0-0-0-0-0-4-4-4-4--|
G ----------------------------------|
D -2-2-2-2-2-2-2-2-2-2-2-2-6-6-6-6--|
A -0-0-0-0-0-0-0-0-0-0-0-0-4-4-4-4--|
E ----------------------------------| x8

Perfect Days chords – Toni Koo

 The Song has been written in 3/4 beat!!

Befor the BRIDGE you could play the melody with the chords (A/B/C#7)
At the end of the CCHORUS comes the Off-BRIDGE melody with the chords (C#7/B/A)
And at the very end are the melody with a little blues staff, like blue-notes the chords are 
(C#7/B/A/Em/E7/G/G7/Em)

VERS (1)

 Em F A Em 
I know I've written many songs about you
       Em F A Em 
cause every of these just fits perfect, like an old shoe

 Em G7 Em F A Em 
If you have someone who is mad about you
       Em F A Em 
cause then I will promise it will go away soon
 Em F A Em 
If you have someone who is mad about you
       Em F A Em  
cause then I will promise it will go away soon


BRIDGE
          B 
There is something I
       F#7 
wanna say to you
 Em A    
all the nights and days we stay
 C#7 B 
together, all the time
     Em A 
and I just wanna say


CHORUS
                     Em 
I love this perfect days
      F A 
with you right on my side
     Em B 
and I just wanna say
 C#7 B 
Your are my life and I
      A Em 
will love you all the time


VERS (2)

 Em F A Em 
Your smile in the morning is the best thing I've seen
     Em F A Em 
and I want to save it every time I have been

 Em G7 Em B           
In my life I will promise
 Em A Em 
you are in my heart forever

BRIGE
(same as the first)

CHORUS
(as well - same as the first chorus)


VERS (3)
 Em F A Em 
I will ever love you all the same way
 Em F#7 C#7 
If you are fat old or wrinkled 
 B A B C#7          
I will promise, I will save you right in here

 B  /  A Em F#7 
I will ever love you
 Em C#7 B A 
I might stay 
      Em    
ever near 

Perfect Time Of Day chords – Howie Day V3

 HOWİE DAY – PERFECT TIME OF DAY

Hello everyone.

I'm  not quite sure about chords names. Howie, however, played like this at some live performance of his. 
I found two even three different lyrics for this particular song. That one is the best i could.
I hope you like it. If you have any question please ask. And if you think the song could be better with 
different chords please comment

Chords

 Am      : x075x0 
 Gadd9  : xx5435
 Fmaj7  : xx3210 ( while you playing hammer/pull off your index finger)
 Fadd9  :xx3213
Gadd11: 320013 (also in the beginning -if i recall correctly- he played w/o b string)

[Intro]

 Am ,  Gadd9 , Fadd9 
               OOooooOO..ooOOOOO!
 Am ,  Gadd9 , Fadd9 

[Verse 1:]

 Am Gadd9 Fmaj7 
It's the perfect time of day 
 Am Gadd9 Fmaj7 
It's the last day of your life 
 Am Gadd9              
Don't let it drift away 
 Fadd9 
While your heart is still racing 
 Am Gadd9                Fadd9*
It's the perfect time of day 

[PRE-CHORUS]

     G  add11               Fmaj7 
And you, won't, feel a thing.

    Gadd11           Fmaj7 Fadd9  (Let ring)
(And) you, won't, recall  anything at all 

[Verse 2]

 Am Gadd9 Fmaj7 
Close your eyes and take your last breath 
 Am Gadd9 Fmaj7 
Rest your head   aside,
                       Am Gadd9           
When the end is the beginning 
 Fmaj7 
And Everyone between 
 Am Gadd9 Fadd9 *
is some are lost,wwooOO some are  lost. 

[CHORUS]

     G  add11               Fadd9 
And you wont feel a thing 
    Gadd11               Fadd9 Fadd9  (let ring)
And you wont recall anything at all 

[BRIDGE]

Cmaj      Gadd11      Fmaj7             ( or use barre chords)
OOOO  Let your colors, collide.

                         Cmaj 
All this time is so fleeting.

            Gadd11               Fmaj7 
And I'll quit running, behind.
                        Cmaj              Gadd11       Fmaj7 
Oh, I know your meaning well.You….. look to for
                                          Cmaj 
 what you want to saaaaayyyyyy..
       Gadd11           Fmaj7 
(And) you….. look for
    Gadd11
The perfect time of day 

 Am Gadd9 Fadd9 *

Andd oooo aaaa Yeahh yeaahh (w delay pedal)


[CHORUS]
  
   G  add11          Fmaj7 
And you wont feel a thing
     G  add11           Fmaj7 Fadd9 
And you wont recall…anything at all


[Outro:]
 Cmaj       Gadd11      Fmaj7 
                           Wooooo it's the perfect time of day 
 Cmaj       Gadd11      Fmaj7 
                           Wooooo it's the perfect time of day 
Come on now..  come on now, come on

 Cmaj       Gadd11      Fmaj7 
 It's the perfect time of day 
Come on now..come on now
it’s the eennd for us

it's the perfect time with you
it's the perfect time with you

She Looks So Perfect chords – 5 Seconds Of Summer V4

 CAPO: 4

 C 
hey hey
 Em 
hey hey
 Am 
hey hey
 F 
hey hey



         C Em 
Simmer down, simmer down
               Am F C  
they say were too young now to amount to anything else
           Em Am F 
but look around we work too damn hard for this just to give it up now
 C 
if you don't swim you'll drown but don't move honey


       C Em 
She looks so perfect just standing there
        Am F 
in my American Apparel underwear
     C Em Am F 
And i know now that I'm so down
      C Em 
your lipstick stain is a work of art
                Am F 
I've got your name tattooed in an arrow heart
     C Em Am F 
And i know now that I'm so down


 C 
hey hey
 Em 
hey hey
 Am 
hey hey
 F 
hey hey


          C Em 
lets get out lets get out 
             Am F C 
cause this deadbeats town's only here just to keep us down
              Em Am F 
while i was out I found myself alone just thinking 
    C Em 
if i showed up with a plane ticket
        Am F 
and a shiny diamond ring with your name on it
         C Em 
would you wanna run away too?
         Am F 
cause all i really want is you


      C Em 
she looks so perfect standing there
         Am F 
in my American apparel underwear
     C Em Am F 
and i know now that I'm so down
          C Em  
i made a mixtape straight out of 94
                 Am F 
ive got your ripped skinny jeans lying on the floor
     
       C Em Am F 
and i know now that I'm so down


 C 
hey hey
 Em 
hey hey
 Am 
hey hey
 F 
hey hey


       C Em 
She looks so perfect just standing there
        Am F 
in my American Apparel underwear
     C Em Am F 
And i know now that I'm so down
      C Em 
your lipstick stain is a work of art
                Am F 
I've got your name tattooed in an arrow heart
     C Em Am F 
And i know now that I'm so down


 C 
hey hey
 Em 
hey hey
 Am 
hey hey
 F 
hey hey


       C Em 
She looks so perfect just standing there
        Am F 
in my American Apparel underwear
     C Em Am F 
And i know now that I'm so down
      C Em 
your lipstick stain is a work of art
                Am F 
I've got your name tattooed in an arrow heart
     C Em Am F 
And i know now that I'm so down


She Looks So Perfect chords – 5 Seconds Of Summer V3

 5 Seconds of Summer - She Looks So Perfect
😍😍😍😍

 E B C#m A 
Hey Hey Hey Hey  2x

Verse 1:
        E B 
Simmer down, simmer down
                C#m A 
They say we're too young now to amount to anything else
 E B 
  But look around
         C#m A 
We work too damn hard for this just to give it up now
 E B C#m 
  If you don't swim you'll drown
            A 
But don't move, honey

Chorus:
      E B 
You look so perfect standing there 
        C#m A 
in my American apparel underwear
     E B C#m A 
And I know now that I'm so down
       E B 
Your lipstick stain is a work of art
               C#m A 
I've got your name tattooed in an arrow heart
     E B C#m A 
And I know now that I'm so down

Hey
 E B C#m A 
Hey Hey Hey Hey 

Verse 2:
           E B 
Let's get out, let's get out
            C#m A 
cause this deadbeat town only here to keep us down
 E B 
  While I was out, 
           C#m A        
I felt myself alone just thinking about
                       B 
if I showed up with a plane ticket
        C#m A 
and a shiny diamond ring with your name on it
       E B 
Would you wanna run away too?
       C#m A 
Cause all I really want is you

Chorus:
      E B 
You look so perfect standing there 
        C#m A 
in my American apparel underwear
     E B C#m A 
And I know now that I'm so down
          E B 
I made a mix tape straight out of ninety four'
                C#m A 
I've got your ripped skinny jeans lying on the floor
     E B C#m A 
And I know now that I'm so down

Hey
 E B C#m A 
Hey Hey Hey Hey 

      E B 
You look so perfect standing there 
        C#m A 
in my American apparel underwear
     E B C#m A 
And I know now that I'm so down
       E B 
Your lipstick stain is a work of art
               C#m A 
I've got your name tattooed in an arrow heart
     E B C#m A 
And I know now that I'm so down

Hey
 E B C#m A 
Hey Hey Hey Hey 

      E B 
You look so perfect standing there 
        C#m A 
in my American apparel underwear
     E B C#m A 
And I know now that I'm so down
       E B 
Your lipstick stain is a work of art
               C#m A 
I've got your name tattooed in an arrow heart
     E B C#m A 
And I know now that I'm so down

She Looks So Perfect chords – 5 Seconds Of Summer V2

 E G#m C#m A 
  Hey Hey Hey Hey Hey Hey Hey Hey.

                E G#m 
Simmer down, Simmer down,
                          C#m A E 
They say we're too young now to amount to anything else.
                  G#m C#m A 
But look around We work too damn hard for this just to give it up now

 E G#m C#m A 
  If you don't swim  You'll drown But don't move Honey

          E G#m 
She looks so perfect standing there.
             C#m A 
In my American Apparel underwear.
       E G#m C#m A 
And I know now, that I'm so down.
          E G#m 
Your lipstick stain is a work of art.
                      C#m A 
I've got your name tattooed in an arrow heart.
       E G#m C#m A 
And I know now, that I'm so down.

 E G#m C#m A 
  Hey Hey Hey Hey Hey Hey Hey Hey.

                E G#m 
Let's get out Let's get out.
               C#m A E 
Cuz It's deadbeat towns only here just to keep us down.
                   G#m C#m A 
While I was out, I found myself alone just thinking about.
    E G#m 
If I showed up with a plane ticket.
                  C#m A 
And your shiny diamond ring with your name on it.
                E G#m C#m A 
Would you wanna run away too? Cuz' all I really want is you.

          E G#m 
She looks so perfect standing there.
             C#m A 
In my American Apparel underwear.
       E G#m C#m A 
And I know now, that I'm so down.
          E G#m 
Your lipstick stain is a work of art.
                      C#m A 
I've got your name tattooed in an arrow heart.
       E G#m C#m A 
And I know now, that I'm so down.

 E G#m C#m A 
  Hey Hey Hey Hey Hey Hey Hey Hey.

          E G#m 
She looks so perfect standing there.
             C#m A 
In my American Apparel underwear.
       E G#m C#m A 
And I know now, that I'm so down.
          E G#m 
Your lipstick stain is a work of art.
                      C#m A 
I've got your name tattooed in an arrow heart.
       E G#m C#m A 
And I know now, that I'm so down.

 E G#m C#m A 
  Hey Hey Hey Hey Hey Hey Hey Hey.

          E G#m 
She looks so perfect standing there.
             C#m A 
In my American Apparel underwear.
       E G#m C#m A 
And I know now, that I'm so down.
          E G#m 
Your lipstick stain is a work of art.
                      C#m A 
I've got your name tattooed in an arrow heart.
       E G#m C#m A 
And I know now, that I'm so down.

She Looks So Perfect chords – 5 Seconds Of Summer

 This song was just released and it's asome!
Please rate  <3 capo="" chords:="" eadgbe="" no="" /> E : 022100
    G#m : 466444 (bar the fourth fret)
    C#m : x46654 (bar the fourth fret)
      A : x02220

CAPO 4
Chords: EADGBe
      C : 032010
     Em : 022000
     Am : x02210
      F : x03210 or 133211 (bar the first fret)

------------------------------------------------

 E G#m C#m A 
Hey Hey Hey Hey Hey Hey Hey Hey.
 E G#m C#m A 
Hey Hey Hey Hey Hey Hey Hey Hey.

  E G#m 
Simmer down, simmer down,
 C#m A 
They say we're too young now to amount to anything else.
 E G#m C#m A 
But look around, We work too damn hard for this just to give it up now

 E G#m C#m A 
If you don't swim,  you'll drown. But don't move, Honey.

       E 
She looks so perfect standing there.
      G#m 
In my American Apparel underwear.
   C#m A 
And I know now, that I'm so down.
       E 
Your lipstick stain is a work of art.
          G#m 
I've got your name tattooed in an arrow heart.
    C#m A 
And I know now, that I'm so down.

 E G#m C#m A 
Hey Hey Hey Hey Hey Hey Hey Hey.

    E G#m 
Let's get out, let's get out.
      C#m A 
Cuz it's deadbeat towns only here just to keep us down.
   E G#m C#m A 
While I was out, I found myself alone just thinking about.
    E G#m 
If I showed up with a plane ticket.
     C#m A 
And your shiny diamond ring with your name on it.
  E B C#m A 
Would you wanna run away too? Cuz' all I really want is you.

       E 
She looks so perfect standing there.
      G#m 
In my American Apparel underwear.
   C#m A 
And I know now, that I'm so down.
       E 
I made a mixtape straight out of ninety four'
    G#m 
I've got your ripped skinny jeans lying on the floor
     C#m A 
And I know now, that I'm so down.

 E G#m C#m A 
Hey Hey Hey Hey Hey Hey Hey Hey.

       E 
She looks so perfect standing there.
      G#m 
In my American Apparel underwear.
   C#m A 
And I know now, that I'm so down.
       E 
Your lipstick stain is a work of art.
          G#m 
I've got your name tattooed in an arrow heart.
    C#m A 
And I know now, that I'm so down.

 E G#m C#m A 
Hey Hey Hey Hey Hey Hey Hey Hey.

       E 
She looks so perfect standing there.
      G#m 
In my American Apparel underwear.
   C#m A 
And I know now, that I'm so down.
       E 
Your lipstick stain is a work of art.
          G#m 
I've got your name tattooed in an arrow heart.
    C#m A 
And I know now, that I'm so down.

A Perfect World intro Tabs by Broken Bells

 This is the part which is played by synthesizer

e|-17-16-14----12--14-12---------------12----------------------9--|
B|----------14-----------14--12--14----12--14--12--14--10--12-----|
G|----------------------------------------------------------------|
D|----------------------------------------------------------------|
A|----------------------------------------------------------------|
E|----------------------------------------------------------------|

His Strength Is Perfect chords – Praise And Worship

 Intro:   G ,  Am7 ,  D2 ,  D/F# ,  G/B ,  C ,  Am7 ,  D7 G Am7 D 
I can do all things
                 G/B Am/C G 
Through Christ who gives me strength
            C G/B Am D  
But sometimes I wonder what He can do through me
        G Am D 
No great success to show
       G/B Em7 
No glory on my own
                    C G/B A7 Am7 
Yet in my weakness He is there to let me know


CHORUS


 G Am7/G G   Am2             D/F# G            C/ G G 
His strength is perfect when our strength is gone
      Em7  Am2  Am7/G D/F# Dm/F 
He'll carry us when we can't carry on
 E7                 Am2          D/F# B/D# Em 
Raised in his power the weak become strong
 C#m7               Am2   Am7/G 
His strength is perfect
 D/F# C/G G Em7   Am2    Am7/G F2 F D/F# 
His strength is perfect



We can only know
The power that He holds
When we truly see how deep our weakness goes
His strength is us begins
When our comes to an end
He hears our humble cry
And proves again


CHORUS

A Perfect Ocean Tabs by Washya

 -------------------------------------------------------------------------------
                           A Perfect Ocean - Washya
-------------------------------------------------------------------------------
Tuning: (EBGDAD)
Intro
E|-------------------------------------------|
B|-------------------------------------------|
G|-------------------------------------------|
D|-------------------------------------------|
A|-2-22-22-2-222-4-44-44-4-444-0-00-00-0-000-|
D|-2-22-22-2-222-4-44-44-4-444-0-00-00-0-000-|x3
PM * ** ** * *** * ** ** * *** * ** ** * *** 

Verses
E|-------------------------------------------------|
B|-------------------------------------------------|
G|-------------------------------------------------|
D|-------------------------------------------------|
A|-2-22-22-22-2222-4-24-24-22-2222-0-00-00-00-1111-|
D|-2-22-22-22-2222-4-24-24-22-2222-0-00-00-00-1111-|
PM * ** ** ** **** * ** ** ** **** * ** ** ** **** 

Chorus
E|----------------------------------------------------------------------|
B|----------------------------------------------------------------------|
G|----------------------------------------------------------------------|
D|----------------------------66666666/88888888-------------------------|
A|-22222222/44444444-00000000-44444444/66666666-66666666\333/444-00-000-|
D|-22222222/44444444-00000000-------------------66666666\333/444-00-000-|

E|-----------------------------------------------|
B|-----------------------------------------------|
G|-----------------------------------------------|
D|----------55555555\33333333--------------------|
A|-55555555-33333333\11111111-33333333-33-33h5\\-|
D|-55555555-------------------33333333-33-33h5\\-|

Lead
E|--------------------------------------------------------------10-------|
B|---------8------------8-----------7h8h10p8p7---7h10-------7h8----8p7h8-|
G|-----7-9---9-7----7-9---9-8-7---8------------8------9p8p7--------------|
D|--8b-----------8b-------------9----------------------------------------|
A|-----------------------------------------------------------------------|
D|-----------------------------------------------------------------------|

E|-----10-------10---10h13p10h12p10---10h13p10h12p10---8b-/10b/12b~-|
B|-7h8----8p7h8----8----------------8----------------8-10b/12b/14b~-|
G|------------------------------------------------------------------|
D|------------------------------------------------------------------|
A|------------------------------------------------------------------|
D|------------------------------------------------------------------|

Perfect Situation chords – Weezer V4

 The Belly Of Your Bedroom
The Smith Street Band

Hey guys,

Here is another one off my favorite album at the moment.  I put up the Self Control tab 
also but it was before I had an account.  I saw a comment asking for more tabs so here 
it goes!

This one is pretty easy once you figure out the rhythm, just a few hammer ons you should 
note:  Almost every time it says D, theres a hammer on the high G (third fret on the 
tiniest string)

I really hope the formatting doesnt get butchered here.

INTRO  (strum this intro, the notes I tabbed out are the ones that sound the loudest, 
Wil strums the chords at the bottom of the tab [strum up AND down, especially around the D below])

e|--3---3---3---3---3---2h3--3---3---3---3--3---3-2-2-0-0-0--0--0--3----|
B|--3---3---3---3---3---3----3---3---3---3--3---3---3---3-1--1--0--3----|
G|--0---0---0---0---2---2----2---0---0---0--0---2---2---2----2-----0----|
D|--0---0-------0---0---0----0---2-------2--2---0---0---0----------0----|
A|--2---2------------------------3---------------------------------2----|
E|--3---3----------------------------------------------------------3----|

       G D Cadd9 D 

VERSE 1

 G D Cadd9 D 
Our hero sits unsteadily on a highway rocking chair

 G D Cadd9 D 
Bottle of white wine, the wind it ruffles his well-cut hair

 G D Cadd9 D 
And her eyes they focus backwards to the people that he needs

 G D Cadd9 D 
They hold my instruments and my backup, and shirts with cut off sleeves


 G D Cadd9 D 
She told me that she kissed you and then she told me more

 G D Cadd9 D 
Our hero knows I'm angry and he knows that I'm a bore

 G D Cadd9 D 
I'm sad when it is raining, when the sun comes I'm a freak

 G D Cadd9 D *
Our hero lives in mild temperatures and gets eight hours sleep


CHORUS
 G 
And I know that Im a liar

 D 
And I know I cant fill your desires

 Em7 Cadd9  (walk down  C ,  B ,  A ,  Gmaj )
With a body that's always gonna let the both of us down

 G 
And half smiles in the belly of your bedroom

 D 
And half lies that I never should have told you

 Em7 Cadd9 
My demise is only gonna let one of us down

 D G D Cadd9 D 
And darling I'm going


VERSE 2

 G D Cadd9 D 
My back it aches for transport, I can hardly feel my feet
My stitches are slowly but surely falling out of me
I know I'm not exciting but I never claimed to be
And I'll live for this morning, and I will live and let you leave

  G D Em7 
And I don't understand why we have to be on standby while you're overseas

 Cadd9 D 
Can't you be free and still know me?

         G D 
And our hero keeps his secrets locked up somewhere in his teeth

Em7                                         D*                          Maybe I'll break 
one or two just to hear him speak


CHORUS 2

BRIDGE

   Em7 G Cadd9 
To find somewhere for us to sleep

                           Em7 G Cadd9 
And darling I'm going to work on every single inch of me

                Em7 G Cadd9 
And d

Perfect Timing intro Tabs by David Lee Roth

 -------------------------------------------------------------------------------
                             Perfect Timing - David Lee Roth
-------------------------------------------------------------------------------
: cjog210
 cjog210

Tuning: Standard

Riff 1
Repeat 2x

e|---------------------------------------------------------------------------|
B|---------------------------------------------------------------------------|
G|----9----7----------9----7-----------7------5------------------------------|
D|----9----7----------9----7-----------7------5------------------------------|
A|----7----5----------7----5-----------5------3------------------------------|
E|----0---(0)---------0---(0)----------0-----(0)-----------------------------|

Riff 2
Repeat 2x (This riff also gets played during the chorus)

e|---------------------------------------------------------------------------|
B|---------------------------------------------------------------------------|
G|----9----7----------9----7----------9---7-----7------5---------------------|
D|----9----7----------9----7----------9---7-----7------5---------------------|
A|----7----5----------7----5----------7---5-----5------3---------------------|
E|---------------------------------------------------------------------------|

Play this after the 1st repeat

e|---------------------------------------------------------------------------|
B|---------------------------------------------------------------------------|
G|-----7pb9--7pb9b7p5----7pb9--7pb9b7p5--------------------------------------|
D|---------------------------------------------------------------------------|
A|---------------------------------------------------------------------------|
E|---------------------------------------------------------------------------|

Play this after the 2nd repeat (It's triplets)

e|-----10p7------------------------------------------------------------------|
B|----------10p7-------------------------------------------------------------|
G|---------------9p7---------------------------------------------------------|
D|-------------------9~~-----------------------------------------------------|
A|---------------------------------------------------------------------------|
E|---------------------------------------------------------------------------|


************************************

| /   slide up
| \   slide down
| h   hammer-on
| p   pull-off
| ~   vibrato
| +   harmonic
| x   Mute note
| b   Bend
| pb  Pre-bend
| br  Bend release
| pbr Pre-bend release
| brb Bend release bend

************************************

Perfect Love Marys Song chords – Hillsong

 F C Dm Bb F C Dm Bb 
My beautiful boy Holiness I see

 F C Dm Bb 
Perfect so pure Your eyes they trust in me

 Gm Dm Eb F C  
All creation bows to You The skies sing Your arriving
             F 
My precious Jesus

 C D G D/F# Em C 
And You will walk this land My precious gift from God

 G D/F# Em C 
Showing all mankind The only way to life


 Am Em F C D 
All creation sings Your praise The angels will proclaim

                 G 
My precious Jesus

 D/F# Em Esus4 E Am D G C Am  
All of heaven's gaze is on You The glory of God shines for all to see

            D E 
The Son of God, the Son of Man

 Am D G C Am  
You are perfection promised Giver of life for all eternity

            D G C Am 
My little One, perfect love

           D G E Am  
My little One, perfect Love

            D G Am D Dsus4 D Dsus2 D G 
My little One, perfect Love



The chords should be right, but they may be slightly out of position. Feel free to comment.

Perfect Lines Tabs by Promise Ring

 -----------------------------------------------------------------------------
                             PERFECT LINES - The Promise Ring
-----------------------------------------------------------------------------
Tuning: Standard


Intro/Chorus:                                                  x4
e|---------------------------------------------------------------|---------|
B|-------5--3------------------------8---8-----------------------|---------|
G|-------x--x--5----4---------x---x--x---x---x--10----9-----9----|-5-------|
D|--5--5-5--5--5--5-5--5-5-5--9---9--9---9---9--9--9--9--9--9----|-5-------|
A|--3--3-3--3--3--3-3--3-3-3-10--10-10--10--10--10-10-10-10-10---|-3-------|
E|---------------------------------------------------------------|---------|
(Sorry about timing, you really need to listen to the song and figure it out)

2nd Guitar comes in with this ("I traced all of the letters")
e|--------------------------------------------------------------|---------|
B|--------------------------------------------------------------|---------|
G|-5-5-5-5-5-5-5-5-5-5-5-5-5-5----------------------------------|-5-------|
D|-5-5-5-5-5-5-5-5-5-5-5-5-5-5-5-5-5-5-5-5-5-5-5-5-5-5-5-5-5-5--|-5-------|
A|-3-3-3-3-3-3-3-3-3-3-3-3-3-3-5-5-5-5-5-5-5-5-5-5-5-5-5-5-5-5--|-3-------|
E|-----------------------------3-3-3-3-3-3-3-3-3-3-3-3-3-3-3-3--|---------|


Verse:
e|-----------------------------------------------------------------|
B|-1-1-1-1-1-1-1-1-3-3-3-3-0-0-1-1-5-5-5-5-5-5-1-1-3-3-3-3-0-0-1-1-|
G|--0-0-0-0-0-0-0-0-0-0-0-0-0---0-0-0-0-0-0-0-0-0-0-0-0-0-0-0-0-0--|
D|-----------------------------------------------------------------|
A|-----------------------------------------------------------------|
E|-----------------------------------------------------------------|
 |
e|-----------------------------------------------------------------|
B|-1----------------3---------------5---------------3----------3-3-|
G|---------0----------------0---------------0--------------0---0-0-|
D|-----------------------------------------------------------------|
A|-----------------------------------------------------------------|
E|-----------------------------------------------------------------|


Repeat all of the above twice then:

Extended Verse: ("Lets talk about the sound...")
e|------------------------------------------------------------------|
B|------------------------------------------------------------------|
G|------------------------------------------------------------------|
D|------------------------------------------------------------------|
A|-3333333333333333555555555555555577777777777777775555555555555555-|
E|------------------------------------------------------------------|
 | pm.............................................................. |
 |                                                                  |
e|------------------------------------------------------------------|
B|---p----p---p---p--p----p---p---p--p----p---p---p--p----p---p---p-|
G|---20--20--20--20--20--20--20--20--20--20--20--20--20--20--20--20-|
D|-00--00--00--00--00--00--00--00--00--00--00--00--00--00--00--00---|
A|------------------------------------------------------------------|
E|------------------------------------------------------------------|
   pm  ..  ..  ..  ..  ..  ..  ..  ..  ..  ..  ..  ..  ..  ..  ..

e|------------------------------------------------------------------|
B|------------------------------------------------------------------|
G|-5555555555555555----------------5555555555555555-----------------|
D|-5555555555555555555555555555555555555555555555555555555555555555-|
A|-3333333333333333555555555555555533333333333333335555555555555555-|
E|-----------------3333333333333333----------------3333333333333333-|
 |                                                                  |
e|------------------------------------------------------------------|
B|---p----p---p---p--p----p-

Perfect Lines Tabs by Promise Ring V2

 Title: Perfect Lines
 Nothing Feels Good
: Kris Johansen - krisjohansen@guitarsrule.com


Main Part

"I traced all of the letters.."
 
e----------------------------------------------------------------------|
B-------5-3------------------------------------------------------------|
G--5-5--5-5---4-5-5--5-5-5-/-12--12-12--12--10--10--10--10--9--9--9----|
D--5-5--5-5---5-5-5--5-5-5-/-12--12-12--12--10--10--10--10--10-10-10---|
A--3-3--3-3---3-3-3--3-3-3-/-10--10-10--10--8---8---8---8---8--8--8----|
E--3-3--3-3---3-3-3--3-3-3-/-10--10-10--10--8---8---8---8---8--8--8----|

~= let ring.
/=slide.

break before verse

e------|---------------------------------------------------------------|
B------|-13------------------------------------------------------------|
G--5~/-|-----/12~--12-/-10-------5~------------------------------------|
D------|-10------------------------------------------------------------|
A--3~/-|-----/10~--10-/-8--------3~------------------------------------|
E------|---------------------------------------------------------------|

verse - Guitar 1 

e----------------------------------------------------------------------|
B----------------------------------------------------------------------|
G------0----0----0----0-------0--0--0--0-----0----0----0----0----------|
D---10---10---10---10---10--9--9--9--9----12---12---12---12------------|
A----------------------------------------------------------------------|
E----------------------------------------------------------------------|

e----------------------------------------------------------------------|
B----------------------------------------------------------------------|
G------0---0---0---0-------0----0----0----0------0----0----0----0------|
D---9---9---9---9-------14---14---14---14-----10---10---10---10--------|
A----------------------------------------------------------------------|
E----------------------------------------------------------------------|

e----------------------------------------------------------------------|
B----------------------------------------------------------------------|
G-----0----0----0----0----0---0---0----0-------------------------------|
D--12---12---12---12----9---9---9---10---------------------------------| 
A----------------------------------------------------------------------|
E----------------------------------------------------------------------|

verse - Guitar 2

e---------------|
B---------------|
G--5~--4~--7~-4~| repeat x4
D---------------|
A---------------|
E---------------|


Bridge (well...kind of)

"lets talk about the sound of the phone outside of texaco..."
* = play 16x

    *  *  *  *  palm mute first time then rawk out :)
e-------------------|
B-------------------|
G---------5---------|
D---5--5--5--5------|
A---3--5--7--5------|
E------------3------|

Order:

main
break
verse
main
break
verse
bridge
main

By And Down Tabs by A Perfect Circle V2

 "By and Down"
by: A Perfect Circle
 "Three Sixty"

Intro:

Guitar 2:

E|---------------------|--------------------|-------12-----------|----------------------|
B|-----13-15--------13-|----13-15--------13-|----13-----------13-|----13-15------12-----|
G|--14-----------14----|-14-----------14----|-14-----------14----|-14---------12----14--|
D|---------------------|--------------------|--------------------|----------------------|
A|---------------------|--------------------|--------------------|----------------------|
D|---------------------|--------------------|--------------------|----------------------|

Guitar 1:

E|--12-----13-12-10----|-12-----13-12-10----|-12-----13-12-10----|-15-------------------|
B|------------------13-|-----------------13-|-----------------13-|----------12----------|
G|---------------------|--------------------|--------------------|----------------------|
D|---------------------|--------------------|--------------------|----------------------|
A|---------------------|--------------------|--------------------|----------------------|
D|---------------------|--------------------|--------------------|----------------------|

Verse:

(Just in case: here, I'm playing the piano part with the 5th string,
but, it's actually with the 6th or 7th on Drop A, but to make it easy,
you can also play it on the 5th and you will have the same sound)

E|----------|---------|---------|----------|
B|----------|---------|---------|----------|
G|--2-------|-10------|-2-------|-10----9--|
D|--2-------|-10------|-2-------|-10----9--|
A|--0-------|-8-------|-0-------|-8-----7--|
D|----------|---------|---------|----------|

Moving in and out of the shadows
Its no easier mission
Holding on to how I picture you

Guitar 1:

E|---------------------------------|---------------------------------|
B|---------------------------------|----------------------------8\---|
G|--9--9-9-9--9-9--10p9-9-10p9-9-7-|-9--9-9-9--9-9--10p9-9-10p9------|
D|---------------------------------|---------------------------------|
A|---------------------------------|---------------------------------|
D|---------------------------------|---------------------------------|

E|---------------------------------|---------------------------------|
B|---------------------------------|---------------------------------|
G|--9--9-9-9--9-9--10p9-9-10p9-9-7-|-9--(9)--(9)--(9)----------------|
D|---------------------------------|------------------9--(9)--10-7---|
A|---------------------------------|---------------------------------|
D|---------------------------------|---------------------------------|

Guitar 2:

E|---------------------|--------------------|-------12-----------|----------------------|
B|-----13-15--------13-|----13-15--------13-|----13-----------13-|----13-15------12-----|
G|--14-----------14----|-14-----------14----|-14-----------14----|-14---------12----14--|
D|---------------------|--------------------|--------------------|----------------------|
A|---------------------|--------------------|--------------------|----------------------|
D|---------------------|--------------------|--------------------|----------------------|

Showing only bits and pieces
Till the tide betrays you
And your empty allocution

Guitar 1:

E|---------------------------------|---------------------------------|
B|---------------------------------|----------------------------8\---|
G|--9--9-9-9--9-9--10p9-9-10p9-9-7-|-9--9-9-9--9-9--10p9-9-10p9------|
D|---------------------------------|---------------------------------|
A|---------------------------------|---------------------------------|
D|---------------------------------|---------------------------------|

E|---------------------------------|---------------------------------|
B|---------------------------------|---------------------------------|
G|--9--9-9-9--9-9--10p9-9-10p9-9-7-|-9--(9)--(9)--(9)----------------|
D|---------------