Tag: peter

Besoin De Rien Envie De Toi chords – Peter Et Sloane

 Intro :  G7 C Am  
Regarde, le jour se lève
            F G  
Dans la tendresse sur la ville
            Dm  
Tu me fais vivre
               Dm7  
Comme dans un rêve
             G7  
Tout ce que j'aime

Refrain:

                                  C  
Besoin de rien, envie de toi
                          Am  
Comme jamais envie de personne
    F G7  
Tu vois le jour c'est à l'amour qu'il ressemble
                          C  
Besoin de rien, envie de toi
                         Am  
Comme le rouge aime l'automne
    F C  
Tu sais l'amour, c'est à Vérone qu'il ressemble
   F G7  
Besoin de rien, envie de toi,  envie de toi

 C Am  
J'aime, quand tu m'enlaces
              F  
Quand tu m'embrasses
         G7  
Je suis si bien


 C Am  
Premier, matin caresse
          F  
Matin tendresse
          G  
Tu es si belle
            Dm  
Le jour se lève
         G7  
Nous on s'aime  

(Refrain 2x)

Spirit Of Ketih Moon Tabs – Peter And The Test Tube Babies

 hi Folks,  today this is my cover from Peter and the test 
tube babies - Spirit of Keith Moon!

more informations? need that i edit a other cover?: machine_sk8@hotmail.fr

don't forget to rate me please!and comments!

enjoy !

*=palm mute
/= slide
~= bend

Intro:

e|-------------------------------------|
b|-------------------------------------|
g|----2-------2------2---3-3-2-2-------|
d|0-0---0-0-0---0-3-3--3---------3-----|
a|-------------------------------------|
e|-------------------------------------|

e|-------------------------------------------------------------------------------------------------|
b|-------------------------------------------------------------------------------------------------|
g|-------------------------------------------------------------------------------------------------|
d|14-14-14-14-14-14-14-14-14-14-14-14-14-14-14-12-12-12-12-12-12-12-12-12-12-12-12-12-12-12--------|
a|-------------------------------------------------------------------------------------------------|
e|-------------------------------------------------------------------------------------------------|

Verses:

e|------------------------------------------|
b|------------------------------------------|
g|------------------------------------------|
d|14------------------14--------15-14-12----|repeatX3
a|----*12*12*12*12*12----*12*12-------------|
e|------------------------------------------|

e|-----------------------------------------------------|
b|-----------------------------------------------------|
g|-----------------------------------------------------|
d|14------------------14--------14-12-14-15-14-12------|
a|----*12*12*12*12*12*---*12*12*-----------------------|
e|-----------------------------------------------------|

e|-------------------------------------------------------------------------------------------------|
b|-------------------------------------------------------------------------------------------------|
g|-------------------------------------------------------------------------------------------------|
d|14-14-14-14-14-14-14-14-14-14-14-14-14-14-14-12-12-12-12-12-12-12-12-12-12-12-12-12-12-12--------|
a|-------------------------------------------------------------------------------------------------|
e|-------------------------------------------------------------------------------------------------|

Verses:

e|------------------------------------------|
b|------------------------------------------|
g|------------------------------------------|
d|14------------------14--------15-14-12----|repeatX3
a|----*12*12*12*12*12----*12*12-------------|
e|------------------------------------------|

e|-----------------------------------------------------|
b|-----------------------------------------------------|
g|-----------------------------------------------------|
d|14------------------14--------14-12-14-15-14-12------|
a|----*12*12*12*12*12*---*12*12*-----------------------|
e|-----------------------------------------------------|

Outro:

e|-------------------------------------------------------------------------------------------------|
b|-------------------------------------------------------------------------------------------------|
g|-------------------------------------------------------------------------------------------------|
d|14-14-14-14-14-14-14-14-14-14-14-14-14-14-14-12-12-12-12-12-12-12-12-12-12-12-12-12-12-12--------|
a|-------------------------------------------------------------------------------------------------|
e|-------------------------------------------------------------------------------------------------|

e|-------------------------------------|
b|-------------------------------------|
g|---9---9---10---10-------------------|
d|-7---7---7----7----------------------|
a|-------------------------------------|
e|-------------------------------------|

chorus:

e|-------------------------------------|
b|-------------------------------------|
g|7---10-10-10-10--5-5-5---------------

Shit Stirrer Tabs – Peter And The Test Tube Babies

 hi Folks,  today this is my cover from Peter and the test 
tube babies - shit stirrer!

more informations? need that i edit a other cover?: machine_sk8@hotmail.fr

don't forget to rate me please!and comments!

enjoy !

*=palm mute
/= slide
~= bend

Intro:

e|-------------------------------------|
b|-------------------------------------|
g|--8-9~-8-9-8-------------------------|
d|5------------9~----------------------|
a|-------------------------------------|
e|-------------------------------------|

e|-------------------------------------|
b|-------------------------------------|
g|--8-9~-8-9-8-9-8--12~----------------|
d|5------------------------------------|
a|-------------------------------------|
e|-------------------------------------|

e|----------------------6-6--------------|
b|----------------------7-6--------------|
g|----------------------8-7--------------|
d|----------------------8-8--------------|repeat X4
a|----------------------6-8--------------|
e|3*3*3*3*3*3*3*3*4*4*4-6-6--------------|

Verses:

e|----------------------6-6--------------|
b|----------------------7-6--------------|
g|----------------------8-7--------------|
d|----------------------8-8--------------|repeat X4
a|----------------------6-8--------------|
e|3*3*3*3*3*3*3*3*4*4*4-6-6--------------|

e|1-1-1-1-1-5-5-5-5-5----------------------------|
b|1-1-1-1-1-6-6-6-6-6----------------------------|
g|2-2-2-2-2-7-7-7-7-7----------------------------|
d|3-3-3-3-3-7-7-7-7-7----------------------------|
a|3-3-3-3-3-5-5-5-5-5----------------------------|
e|1-1-1-1-1-5-5-5-5-5----------------------------|

Chorus:

e|5*****5*****10-10-10-9--7--------------------------------|
b|5*****5*****10-10-10-9--7--------------------------------|
g|6*****6*****11-11-11-10-8--------------------------------|
d|7*****7*****12-12-12-11-9--------------------------------|Repeat X3
a|7*****7*****12-12-12-11-9--------------------------------|
e|5*****5*****10-10-10-9--7--------------------------------|

Outro:
e|-------------------------------------|
b|-------------------------------------|
g|-------------------------------------|
d|---3---------------------------------|
a|5~---5~------------------------------|
e|-------------------------------------|

e|----------------------6-6--------------|
b|----------------------7-6--------------|
g|----------------------8-7--------------|
d|----------------------8-8--------------|repeat X4
a|----------------------6-8--------------|
e|3*3*3*3*3*3*3*3*4*4*4-6-6--------------|

Verses:

e|----------------------6-6--------------|
b|----------------------7-6--------------|
g|----------------------8-7--------------|
d|----------------------8-8--------------|repeat X4
a|----------------------6-8--------------|
e|3*3*3*3*3*3*3*3*4*4*4-6-6--------------|

e|1-1-1-1-1-5-5-5-5-5----------------------------|
b|1-1-1-1-1-6-6-6-6-6----------------------------|
g|2-2-2-2-2-7-7-7-7-7----------------------------|
d|3-3-3-3-3-7-7-7-7-7----------------------------|
a|3-3-3-3-3-5-5-5-5-5----------------------------|
e|1-1-1-1-1-5-5-5-5-5----------------------------|

Chorus:

e|5*****5*****10-10-10-9--7--------------------------------|
b|5*****5*****10-10-10-9--7--------------------------------|
g|6*****6*****11-11-11-10-8--------------------------------|
d|7*****7*****12-12-12-11-9--------------------------------|Repeat X3
a|7*****7*****12-12-12-11-9--------------------------------|
e|5*****5*****10-10-10-9--7--------------------------------|


Solo:

e|---------------------------------------------------9-9-9-9-9-10-10-10-10-10----|
b|---------------------------------------------------9-9-9-9-9-10-10-10-10-10----|
g|------------------------------7-5-7-5-7-5-7-5-7-5--9-9-9-9-9-10-10-10-10-10----|
d|---------------5-6-5-6-5-6-5-6-------------------------------------------------|
a|5-6-5-6-5-6-5-6----------------------------------------------------------------|
e|-------------------------------------------------------------------------------|

e|----

Wer Schenkt Uns Ein Wunder chords – Peter Maffay

 F Gm7  
Keine Lüge, Menschen mit Verstand,
    F/A Bb C 
nie wieder Kriege, Erde unverbrannt,
       A7 Dm  
keine Wunden, kein Leid
          C/E F 
und kein Hunger, kein Streit,
     Gm7 F/A Csus4  
für ewig und bis in alle Zeit.


     F Gm7  
Ein Wort, dass das Schweigen bricht
         F/A Bb C 
und ein Ort, voller Zuversicht,
      A7 Dm 
eine Hand die man reicht
         C/E F 
und ein Blick der versöhnt,
    Gm7 F/A Csus4 
ein Lächeln das jeden Tag verschönt.


                         F 
Wer schenkt uns ein Wunder,
                   C 
wer zeigt uns das Paradies,
                     Bb  
wer schenkt uns ein Wunder,
                       Csus4  
das wirklich und kein Wunder ist?
     C F 
Und wer lässt uns glauben,
                 C 
dass man wieder glauben kann?
        Bb  
Wer vollendet diesen Plan
    Csus4 C Fmaj7  
und wer hält die Welt mal an?


       F Gm7  
Seelenfrieden, wird meine Freiheit sein
        F/A Bb C 
und die Liebe, soll deine Festung sein.
       A7 Dm C/E F 
Jeder Tag ein Beginn, voller Hoffnung und Sinn,
 Gm7 F/A Csus4  
auf eine klare Zukunft hin.


                         F 
Wer schenkt uns ein Wunder,
                   C 
wer zeigt uns das Paradies,
                     Bb  
wer schenkt uns ein Wunder,
                       Csus4  
das wirklich und kein Wunder ist?
     C F 
Und wer lässt uns glauben,
                 C 
dass man wieder glauben kann?
        Bb  
Wer vollendet diesen Plan
    Csus4 C Fmaj7  
und wer hält die Welt mal an?

         C F 
Schenkst du uns ein Wunder,
                   C 
zeigst du uns das Paradies,
                         Bb 
schenkst du uns ein Wunder,
                      Csus4  
das wirklich und kein Wunder ist?
     C F 
Und lässt du uns glauben,
                 C  
dass man wieder glauben kann?
     Bb  
Vollende diesen Plan
    Csus4 C 
und halte die Welt mal an.


Gitarren-Solo:

 F C Bb Csus4 C F F C Bb Csus4 C Fmaj7/A F/A Gm7 Bb Csus4  
Halte die Welt mal an.


                           Fmaj7  
Schenkst du uns ein Wunder?



Ich hoff' mal das sind die richtigen Akkorde ;)
Viel Spaß beim spielen !
Obi-Wan 1996

Scheiss Drauf chords – Peter Wackel

 Capo im  1. Bund

Aber Scheiss Drauf
Aber Scheiss Drauf
 C 
Der Kopf tut weh die Beine auch
 Am 
Ich hab heute so ein komisches grummeln im Bauch
 F 
wen wunderts das mir schlecht ist Mallorca ist hart.
 G  
Ich sollte vielleicht heute nicht an den Start

 C 
Jeden Tag Pommes Bratwurst und Bier
 Am 
Man ist kein Mensch mehr lebt wie ein Tier
 F 
An diesen Tagen ist gar nichts normal
 G 
Die Dauerparty wird zu Höllenqual


      
      C 
Aber Scheiß Drauf
                         Am 
Malle ist nur einmal im Jahr
       F G 
Ole Ole und Schalalalalaa
      C 
Aber Scheiß Drauf
                         Am 
Malle ist nur einmal im Jahr
       F G 
Ole Ole und Schalalalalaa
      C 
Aber Scheiß Drauf
                         Am 
Malle ist nur einmal im Jahr
       F G 
Ole Ole und Schalalalalaa
      C 
Aber Scheiß Drauf
                         Am 
Malle ist nur einmal im Jahr
       F G 
Ole Ole und Schalalalalaa



 C  
Letztes mal aus dem Zimmer raus
 Am 
Heute halte ichs noch einmal aus
 F 
Gerade noch im Bett jetzt mittendrin
 G 
bei der Happy Hour bin ich der King

 C 
Nach ein paar Litern tanz ich zur Musik
 Am 
weil ich da oft was zum knutschen krieg
 F 
Alle sind locker und gröhlen rum
 G 
Kaum ein Lied ist uns dazu zu dumm
 
 

      C 
Aber Scheiß Drauf
                         Am 
Malle ist nur einmal im Jahr
       F G 
Ole Ole und Schalalalalaa
      C 
Aber Scheiß Drauf
                         Am 
Malle ist nur einmal im Jahr
       F G 
Ole Ole und Schalalalalaa
      C 
Aber Scheiß Drauf
                         Am 
Malle ist nur einmal im Jahr
       F G 
Ole Ole und Schalalalalaa
      C 
Aber Scheiß Drauf
                         Am 
Malle ist nur einmal im Jahr
       F G 
Ole Ole und Schalalalalaa



 C 
Jetzt gefällts mir die Beschwerden sind weg
 Am 
Verweigerung hat hier keinen Zweck
 F 
es rockt fast jeder in Stadt und Land
 G 
Bier gibts genug es fehlt der Verstand
 
 
      C 
Aber Scheiß Drauf
                         Am 
Malle ist nur einmal im Jahr
       F G 
Ole Ole und Schalalalalaa
      C 
Aber Scheiß Drauf
                         Am 
Malle ist nur einmal im Jahr
       F G 
Ole Ole und Schalalalalaa
      C 
Aber Scheiß Drauf
                         Am 
Malle ist nur einmal im Jahr
       F G 
Ole Ole und Schalalalalaa
      C 
Aber Scheiß Drauf
                         Am 
Malle ist nur einmal im Jahr
       F G 
Ole Ole und Schalalalalaa

I Still Call Australia Home chords – Peter Allen V2

 I Still Call Australia Home  (Peter Allen)

Intro: | F      | A7     | Dm     | C      |

 F A7 Dm F   
I've been to cities that never close down
      Bb Dm7 G7 C 
From New York to Rio to old London town
        F A7/E Dm G7  
But no matter how far or how wide I roam
 F Gm7/C C7 F 
I still call Australia home

Turnaround:  | Bb     | Am     | C7     |

 F A7 Dm F  
I'm always trav'lin' I love being free 
     Bb Dm7 G7 C 
And so I keep leaving the sun and the sea 
        F A7/E Dm G7  
But my heart lies waiting - over the foam 
 F Gm7/C C7 F      
I still call Australia home 

Turnaround: | E      |

 Am Am7/G# Am7/G D/F# 
All the sons and daughters spinning 'round the world 
 Dm G7 C E 
Away from their family and friends 
 Am Am7/G# Am7/G D/F# 
But as the world gets older and colder 
              Dm Dm/G C7 
It's good to know where your, journey ends 

 F A7 Dm F  
But someday we'll all be together once more 
      Bb Dm7 G7 C 
When all of the ships come back to the shore 
   F A7/E Dm G7 
I realise something I've always known 
 F Gm7/C C7 F Gm7/C C7  
I still call Australia, I still call Australia
 F Gm7/C C7 F 
I still call Australia Home  

Instrumental:
|      | A7     | Dm       | F         |
| Bb     | Dm7    | G7       | C         |
| F      | A7/E   | Dm       | G7        |
| F      | C7     | F        | C7        | 
| F      | C7     | F        |

Charted by Simon Gaz - sggaz11

Ein Bild Kann Nicht Lachen chords – Peter Maffay

 Ein Bild kann nicht lachen                       P.Maffay   (by alice59)

      A E 
Eine Festung ist dein Haus
          D E 
Und ich klopf an deine Tür: Mach auf
         D A 
Alle Fenster sind ohne Leben
           E A 
Und ich fühl es, Du wohnst nicht mehr hier.

     A E 
In Gedanken geh ich heim
           D E 
Und ich spür bei jedem Schritt Einsamkeit
         D A 
Deine Bilder in meinem Zimmer
            E A 
Sind wie Träume einer schönen Zeit



Refr.:
 A E D A 
Doch ein Bild kann nicht lachen so wie du
            E D A 
Ja und ein Bild kann nicht weinen so wie Du
               E D 
Und nein ein Bild (es ) kann nicht zärtlich sein
     A D 
Es kann mich nicht verstehn
          A E A 
Und ich muss meinen Weg alleine geh´n


 A E 
Tausend Straßen, tausend mal,
           D E 
Wenn man liebt, was bedeutet dann eine Zahl?
                D A 
Ich muss dich suchen, solang ich lebe
           E A 
Und dein Bild trag ich bei mir überall

                    E D A 
Refr:  Doch eine Bild kann nicht lachen so wie du
            E 
ja und ein Bild.....

Der Kreis chords – Peter Maffay

 Em Bm 
Wir gehn an Deck, stehn am Bug,
 C G 
und schaun hinaus aufs Meer!
            Em Bm C 
Da ist das Ziel, und ich spürs immer mehr!
               G D 
Der Nebel verfliegt, ich kann sehn!
 Am C 
Unser Traum wird siegen!
          G Am B 
Ich weiß hier und heut wirds geschehn!


             Em Bm 
Der Weg ist frei, nicht mehr weit,
 C G 
wir kommen endlich an!
              Em Bm C  
Hier ist das Ziel, und ich fühl es wird wahr!
               G D 
Denn wir sind hier, endlich eins,
 Am C  
nach eine langen Reise!
         G Am B 
Es tut gut da zu sein!


 C G D 
Wenn ich Dir gegenüber stehn, dir in die Augen sehn
                Am C 
machst Du mich leicht weil Du mich befreist!
                           G 
Durch die Hand die Du mir reichst
                   D B 
schließt sich für uns der Kreis!


              Em Bm   
Wir sind uns nah, sind ein Blut,
 C G 
unsre Seelen sind verwandt!
           Em Bm C  
Und jedes Jahr verstärkt sich unser Band!
                 G D 
Wir sind uns im Wort, unser Ring
 Am C G Am B  
verbindet uns auf ewig, auch wenn wir mal nicht zusammen sind!


 C G D 
Wenn ich Dir gegenüber stehn, dir in die Augen sehn
                Am C 
machst Du mich leicht weil Du mich befreist!
                           G 
Durch die Hand die Du mir reichst
                   D B 
schließt sich für uns der Kreis!
 C G D 
Wenn ich Dir gegenüber stehn, dir in die Augen sehn
                Am C 
machst Du mich leicht weil Du mich befreist!
                           G 
Durch die Hand die Du mir reichst
                   D B 
schließt sich für uns der Kreis!


 C G D 
Weil wir das Selbe fühlen, sich unsre Kraft vereint,
                    Am C 
und nichts auf der Welt uns auseinander trennt!
                            G 
Durch die Hand die Ihr uns reicht
                   D B 
schließt sich für uns der Kreis!


 C G D 
Wenn ich Dir gegenüber stehn, dir in die Augen sehn
                Am C 
machst Du mich leicht weil Du mich befreist!
                           G 
Durch die Hand die Du mir reichst
                   D B 
schließt sich für uns der Kreis!

Gelobtes Land chords – Peter Maffay

 Dm B F  
Am Horizont da brennt ein Licht, 
 Dm B F  
die Welt da draussen wartet nur auf mich.
 Dm B F  
100 Pferde stürmen mit mir durch das Morgengrau, 
 Dm B F  
auf dem Weg dorthin hören meine Sorgen auf.
 C Gm 
Im freien Fall durch das gelobte Land
 B F   
Kein Plan B und auch kein Notausgang
 C Gm 
Nichts hält mich auf, auf meinem Thron aus Flammen,
 B F 
im freien Fall durch das gelobte Land


Solo  Dm B F Dm B F Dm B F 
Zwei Zylinder voll Adrenalin,
 Dm B F 
Gewitter, die durch die Straßen ziehn.
 Dm B F 
Ich fahre los, schau nicht zurück,
 Dm B F 
das Leder umarmt mich wie das pure Glück.
 C Gm 
Im freien Fall durch das gelobte Land
 B F   
Kein Plan B und auch kein Notausgang


 Dm B F  
Zeit zerreißt und die Weite bricht,
 Dm B F  
die Ferne naht und ich bremse nicht.
 Dm B F  
Der Teufel nimmt meine Fährte auf.
 Dm B F 
Doch mein Höllenstuhl brennt seine Kerzen aus.
 C Gm 
Im freien Fall durch das gelobte Land
 B F   
Kein Plan B und auch kein Notausgang.
 C Gm 
Nichts hält mich auf, auf meinem Thron aus Flammen,
 B F 
im freien Fall durch das gelobte Land.


 Dm B F  
Am Horizont da brennt ein Licht, 
 Dm B F  
die Welt da draussen wartet nur auf mich.
 Dm B F  
100 Pferde stürmen mit mir durch das Morgengrau, 
 Dm B F  
auf dem Weg dorthin hören meine Sorgen auf.
 C Gm 
Im freien Fall durch das gelobte Land
 B F   
Kein Plan B und auch kein Notausgang
 C Gm 
Nichts hält mich auf,auf meinem Thron aus Flammen,
 B F 
im freien Fall durch das gelobte Land


 Dm B F  
Alte Schatten wollen das ich nie mehr geh.
 Dm B F  
Der Sonne ist das egal wie hoch sie steht.
 Dm B F  
Und am Horizont da brennt ein Licht, 
 Dm B F  
die Welt da draussen wartet nur auf mich.
 Dm B F  
100 Pferde stürmen mit mir durch das Morgengrau, 
 Dm B F  
auf dem Weg dorthin hören meine Sorgen auf.
 C Gm 
Im freien Fall durch das gelobte Land
 B F   
Kein Plan B und auch kein Notausgang
 C Gm 
Nichts hält mich auf, auf meinem Thron aus Flammen,
 B F 
im freien Fall durch das gelobte Land


Solo  Dm B F Dm B F  2x

Right Field chords – Peter Paul And Mary

 This is very basic chord-wise, but super fun lyrics so have fun with it.
 
Verse 1:

 G Em 
Saturday summers when I was a kid,
       C Am 
We'd run to the school yard and here's what we did,
      C D7 C D7 
We'd pick out the captains and we'd choose up the teams,
        G Em 
It was always a measure of my self esteem.
           C Am 
Cause the fastest, the strongest played shortstop and first,
     Am D7 
The last ones they picked were the worst.
 F 
I never needed to ask it was sealed 
        Dm D7 
I just took up my place in right field.

Chorus:
         G Em 
Playing right field, its easy you know,
 C D7 C D7 
You can be awkward, you can be slow,
            C Am 
That's why I'm here in right field,
      Am D7 G 
Just watching the dandelions grow.


Verse 2:

         G Em 
Playing right field can be lonely and dull,
 C Am 
Little leagues never have lefties that pull,
   C D7 C D7 
I dream of the day, when they hit one my way,
 G Em 
They never did, but still I would pray,
          C Am C Am 
That I'd make a fantastic catch on the run,
     C Am D7 
And not lose the ball in the sun.
     C Am C Am 
And then I'd awake from this long reverie,
     C Am C Am 
And pray that the ball never came out to me.

Chorus:

         G Em 
Here in right field, its easy you know,
 C D7 C D7 
You can be awkward, you can be slow,
            C Am 
That's why I'm here in right field,
      Am D7 G 
Just watching the dandelions grow.

[solo break]

Verse 3:

 G Em 
Off in the distance, the game's dragging on,
         C Am 
There's strikes on the batter, some runners are on,
   C D7 C D7 
I don't know the inning, I've forgotten the score.
     G Em 
The whole team is yelling, and I don't know what for.
 C Am C Am 
Suddenly everyone's looking at me,
    C Am C D7 
My mind has been wandering, what could it be?
      C Am C Am 
They point to the sky and I look up above,
         C Am D7 
And the baseball falls into my glove!


         G C Am 
Here in right field, Its important you know,
           C Am C D7 
You gotta know how to catch, you gotta know how to throw,
            C Am 
That's why I'm here in right field,
      Am D7 G G C Am D7 G 
Just watching the dandelions grow.



! 

Peter chords – Rekevin

 Rekevin:
* http://www.rekevinmusic.com/about/
* http://www.last.fm/music/Rekevin
* http://ru.wikipedia.org/wiki/Rekevin

-----------------------------------------------

Notes:
* E on A-string (7th fret)
* F#m on A-string during the verse, but
* F# on E-string during the chorus

-----------------------------------------------

Intro:  C#m G#m E F#m  (2x)

 C#m G#m E 
The city is sleeping, yeah 
                    F#m 
It's too early for walks 
 C#m G#m E 
Soon the sun will touch 
                    F#m 
My smiling face 


 D A 
Do you have memories? 
 G#m F# 
Guessed your mystery year ago 
 D A 
I said take your time and think 
 G#m F# 
Kissed you and flew away 


 C#m G#m E 
Big bright balloon 
                      F#m 
Filled with sunshine 
 C#m G#m E 
Why is my heart 
                   F#m 
Laughing so loud, so proud? 


 D A 
Do you have memories? 
 G#m F# 
I guessed your mystery year ago 
 D A 
I said take your time and think 
 G#m F# 
Kissed you and flew away 

[solo]

 C#m G#m E 
I can swim in the air 
                F#m 
It's too early for walks, yeah 
 C#m G#m E 
I don't care what they say 
                 F#m 
It's too early, too early 


 D A 
Do you have memories? 
 G#m F# 
Guessed your mystery year ago 
 D A 
I said take your time and think 
 G#m F# 
Kissed you and flew away 
 G#m F# 
Kissed and flew away 
 G#m F# 
(Kissed and flew away)

The Precious Blood Tabs by Peter Gagnon

 -------------------------------------------------------------------------------
                        THE PRECIOUS BLOOD - PETER GAGNON
-------------------------------------------------------------------------------
:christiantabber
   fw5treehouse@hotmail.com

Tuning:   STANDARD


INTRO:

E|-3-----0-------0-------0-------5-|-3-----0-------0-------0-------0-|---|
B|-----3-------3-------3-------3---|-----3-------3-------3-------3---|---|
G|---0-------0-------0-------0-----|---2-------2-------2-------2-----|---|
D|---------------------------------|-3-------3-------3-------3-------|---|
A|-3-------3-------3-------3-------|---------------------------------|---|
E|---------------------------------|---------------------------------|---|


E|-3-----0-------0-------0-------5-|-3-----0-------0-------0-------0--|
B|-----3-------3-------3-----------|-----3-------3-------3-------3----|
G|---0-------0-------0-------0h5---|---2-------2-------2-------2------|
D|---------------------------------|-3-------3-------3-------3--------|
A|-3-------3-------3-------3-------|----------------------------------|
E|---------------------------------|----------------------------------|

VERSE:
E|-------0-------0-------0-------0-|-------0-------0-------0-------0--|
B|-----3-------3-------3-------3---|-----3-------3-------3-------3----|
G|-----------5---------------5-----|---2-------5-------2-------5------|
D|---5-----5---------5-----5-------|-3-------7-------3-------7--------|
A|-3---------------3---------------|----------------------------------|
E|---------------------------------|----------------------------------|


E|-------0-------0-------0-------0-|-------0-------0-------0-------0--|
B|-----3-------3-------3-------3---|-----3-------3-------3-------3----|
G|-----------5---------------5-----|---2-------5-------2-------5------|
D|---5-----5---------5-----5-------|-3-------7-------3-------7--------|
A|-3---------------3---------------|----------------------------------|
E|---------------------------------|----------------------------------|


E|-------0-------0-------0-------0-|-------0-------0------------------|
B|---0-------0---------1-----0-----|-----1-------1---------3-------3--|
G|-----5-------5-----2---------5---|---0-------0---------4-------5----|
D|-7-------7-------3-------7-------|-------------------5-------5------|
A|---------------------------------|-3-------3---------------5--------|
E|---------------------------------|-----------------3----------------|


E|-------------------------------0-|-------0-------0-|----------------------|
B|-----1h3-----1h3-----------0-----|-----1-------1---|-----------------0===-|
G|---2-------2---------5h7-----5---|---2-------2-----|-----5h7-----5h7-0===-|
D|-3-------3-------5h7-----7-------|-3-------3-------|-5h7-------7----------|
A|---------------------------------|-----------------|---------5------------|
E|---------------------------------|-----------------|-----------------3===-|

CHORUS
E|-------1-------1-------0-------0-|-------0-------0------------------|
B|-----1-------1-------1-------1---|-----1-------1---------3-------3--|
G|---2-------2-------0-------0-----|---2-------2---------4-------4----|
D|---------3-----------------------|-------------------5-------5------|
A|-----------------3-------3-------|-0-------0------------------------|
E|-1-------------------------------|-----------------3-------3--------|

E|-------1-------1-------0-------0-|-------0-------0------------------|
B|-----1-------1-------1-------1---|-----1-------1---------3-------3--|
G|---2-------2-------0-------0-----|---2-------2---------4-------4----|
D|---------3-----------------------|-------------------5-------5------|
A|-----------------3-------3-------|-0-------0------------------------|
E|-1-------------------------------|-----------------3-------3--------|


E|-------1-------1-------0-------0-|---------------7-|-8-----7-----5--|

The Green Fields Of Summer chords – Peter Wolf

 Couldn't find the chords for this awesome song anywhere on the web, so here it is... Enjoy!

The Green Fields of Summer - Peter Wolf
Capo III
Intro:  D - A - Bm - G - D Bm G D 
Now is the time while the soft wind is blowing
            Bm G D 
Now is the time with the trees full of song
            Bm G D 
Now is the time while the wild world is turning
               A Bm 
To lie down together in the green fields of summer
        G D 
Hoping winter never comes
 
               Bm G D 
Hold me right now, feel the life all around us
               Bm G D 
Hold me right now, in the heat of the day
               Bm G D 
Hold me right now, this is our time together
                         A Bm 
And the green fields of summer will be ours forever
        G D 
Hoping winter never comes
 
 A G D 
Please hold me close beside you
 A G D 
Your eyes hold all the sky
 A G D 
Oh, sweet creation
 A G D A 
This day will never die, it'll never die

Solo (Verse Chords)
 
             Bm G D             
This is the time I will always remember
             Bm G D 
This is the time I will feel till I go
             Bm G D 
This is the time I will carry down with me
                      A Bm 
When I'm lost and forgotten in the cold fields of winter
           G D 
Where the summer never comes
 
                      A Bm 
When I'm lost and forgotten in the cold fields of winter
           G D 
Where the summer never comes

The Knuckleball Suite Tabs by Peter Mulvey

 Artist: Peter Mulvey
Song: The Knuckleball Suite
 Notes From Elsewhere

Tuning:  AFCFAC then Capo IV (strings 1-5 only)

Figure I:  The ring finger sweeps over the 16th fret and creates the octave harmonic on 
strings 3-5.
The index finger frets the 14th fret.  The right hand picking pattern is focused on a
couple slightly different
alternating patterns between the 4th strings two notes; the 3rd and 5th strings are only
played for harmony/texture.
Generally throughout this figure the right hand percussively picks with significant palm
muting:  Listen to the track to get the feel.

X----X------X-----X------|
X----X------X-----X------|
16h--16h---16h---16h-----|
16h--14----16h -- 14-----|
16h--16h---16h -- 16h----|
X----X------X-----X------|

Chords (frets relative to capo):  The A chord is an actual triadic chord.  D and D(2)
are D chords that each contain the second
scale tone of E, but each with a different inversion.  Although not indicated in the
chord chart directly below, as the song enters the
third verse, play the low E string (tuned down to A) to create additional texture.

A   D   D(2)

0---0---0--|
0---1---5--|
0---0---0--|
0---2---0--|
0---0---5--|
X---X---X--|

Figure I

It's a warm summer evening, I can just hear the Knuckleball Suite

Figure I

It's a warm summer evening, I can just hear the Knuckleball Suite


The c[D]lover hums along, the little r[D(2)]ain clouds finding their f[A]eet

[A]Oh this town is a talisman, [D hammer on]it is a vanishing breed[A]
Oh this [D]town is a talisman, it is a vanishing breed[A]
And its s[D]ong is a first chair v[D(2)]iola lost in the w[A]eeds

Billy C. is drinking Sandeman Port down at the old cafe
Billy C. is drinking Sandeman Port down at the old cafe
And the river goes by slowly, the river likes it that way

Sally's barefoot in the backyard calling out to that star above the pines
Sally's barefoot in the backyard calling out to that star above the pines
And for once that star answers, it says, "Sal, you are the wine, you are the wine"

That Franklin is the ace, the third twin, he's a wily sport
That Franklin is the ace, the third twin, he's a wily sport
Going to the old cafe to sit with Bill and drink that Sandeman Port

Fills:  Throughout the song, when there is not any singing, fills are played while
simultaneously playing the open strings that are
not being fretted at that second.  Below, in no particular order, are the fretted notes
for the fills.  Play around with these notes against the
 open strings and you will soon get the idea.

-----------------------|
-1--3---5--------------|
---2--4----------------|
---2--4----------------|
---2--4----------------|
-----------------------|

All I Want To Be chords – Peter Frampton V2

 (I actually play this up 5 steps for singing, but leaving in original key for chord 
forms here.  Ask if you want to know how to easily play in key of G)

    D11 D9 Ddim 

e---3----2---4-|
B---5----5---7-|
G---5----5---7-|
D---0----0---0-|
A--------------|
E--------------|

( D11  ~  C /D)

Intro:  (D11- D9 D11 - D9 Bb - C C - G -D) x2


 D11 D9 C C        -       G G  -  / F#   -   D 
Do what you do, don't bring me down, I went to the doctor, he's just another clown
 D11 D9 C C           -          G G      
-/ F#    -   D 
Don't stand alone, you might turn to stone,I'm sure there was a pill for that, you're on 
your own

 D11 D9 Bb C Bb C C  -  G   -  D 
Can't you see, what it's doin' to me?  all I wanna be is by your side
 D11 D9 Bb C Bb C C  -  G   -   D 
I don't care, if they, cut my hair, all I wanna be is by your side
 Bb C C  -  G  -   D D -Dim- D Am C - G G -/F#- D 
All I wanna be is by your side, yeah,       by your side

Solo:   D - Ddim - D Am C - G G -/F#- D D11 D9 C C           -            G G  -  / F#   -   D 
Shake me down, you wanna put on the ground, there's money in my pocket, I won't make a sound
              NC                       C C         -        G 
Well, you can run me over, or pick a four leave clover, now they cut the lights down
       G     -   / F# D 
This record's going slower


 D11 D9 Bb C Bb C C  -  G   -  D 
Can't you see, what it's doin' to me?  all I wanna be is by your side
 D11 D9 Bb C Bb C C  -  G   -   D 
I don't care, if they, cut my hair, all I wanna be is by your side
 Bb C C  -  G  -   D Bb C C  -  G  -   D Bb C C G D 
All I wanna be is by your side, all I wanna be is by your side, all I wanna be - is by 
your side

The Great Mandala chords – Peter Paul And Mary

 F#m A A D , C A B A C G 
SO I TOLD HIM THAT HE'D BETTER SHUT HIS MOUTH AND DO HIS JOB LIKE A MAN
 E A A ,  D ,  E A A D ,  E 
AND HE ANSWERED, "LISTEN FATHER, I WILL NEVER KILL ANOTHER."
 A  D7s- D7 G 
HE THINKS HE'S BETTER THAN HIS BROTHER THAT DIED
 F# G E 
WHAT THE HELL DOES HE THINK HE IS DOING TO HIS FATHER
 A 
THAT BROUGHT HIM UP RIGHT
 Em Am7 
TAKE YOUR PLACE ON THE GREAT MANDALA
Am11  Am9 Em 
AS IT MOVES THROUGH THE BRIEF MOMENT OF TIME
 C Em 
WIN OR LOSE NOW YOU MUST CHOOSE NOW
Am11  Am9 Am6 +9
IF YOU LOSE, YOU'RE ONLY LOSING YOUR LIFE (repeat three times)
 F#m/A A D ,  E A D A C G 
TELL THE JAILER NOT TO BOTHER WITH HIS MEAL OF BREAD AND WATER TODAY
 E A 
HE IS FASTING 'TIL THE KILLING'S OVER
 A ,  D ,  E A A D ,  E 
HE'S A MARTYR, HE THINKS HE'S A PROPHET
 A  D7s- D7 G 
BUT HE'S A COWARD, HE'S JUST PLAYING A GAME
 F# G C 
HE CAN'T DO IT, HE CAN'T CHANGE THINGS
 C A 
IT'S BEEN GOING ON FOR TEN THOUSAND YEARS.
 F#m/A A ,  D ,  E D A C 
TELL THE PEOPLE THEY ARE SAFE NOW. HUNGER STOPPED HIM,
 G G E A 
HE LIES STILL IN HIS CELL. DEATH HAS GAGGED HIS ACCUSATIONS
 A ,  D ,  E A D ,  E 
WE ARE FREE NOW, WE CAN KILL NOW, WE CAN HATE NOW
 A  D7s -  D7 F# G 
NOW WE CAN END THE WORLD. WE'RE NOT GUILTY, HE WAS CRAZY
 C A 
IT'S BEEN GOING ON FOR TEN THOUSAND YEARS.

Recruiting Soldiers chords – Peter Tosh

 


           RECRUITING SOLDIERS:PETER TOSH





                G    
I'm recruiting soldiers
 C G C 
For Jah army
            G D 
Recruiting soldiers
 G C 
Jah time is now
       G 
Satan forces
 C G C 
They all rise up to fight 
           G D G C 
They all rise up to fight Jah and the saints
                G D G D  
I SAY ONLY TO FIGHT JAH AND HIS SAINTS
           G 
See them fighting
 D Em C 
Against Jah children
           G D Em C 
See them slaughter them light slaves'
  G D Em C 
Hear them come say Jah is dead
          G D Em   
But they didn't show me his grave
 D 
No, no
                G C G C 
I'm recruiting soldiers for Jah army
            G D G C      
recruiting soldiers  Jah time is now
              G C 
Anti-Christ forces
           G C     
They all rise up
   G D G           
To fight against Jah and his saints
 C 
I can tell you
         G D G D 
ONLY TO FIGHT AGAINST JAH AND THE SAINTS
 G D 
But there is confusion
  Em C 
In high places
 G D Em C   
About the lamb that was slain
  G D Em               
And all these years I hear them say
  C                
TheY'RE building a nation
      G D G D 
But all these tricks were just a game
                    G C G C        
SO I'M RECRUITING  SOLDIERS FOR JAH ARMY
           G D 
Lightning soldiers
             G   
Jah time is now
  C G    
Lucifer forces
 C G C 
They all they all rise up
     G D G C 
To fight against Jah and his saints

But that won't work
   G D G D 
TO FIGHT AGAINST JAH AND HIS SAINTS
 G D Em C 
Hear them praising old Marcus Garvey
 G D Em C 
Hear them exalting his name
   G D Em C                
But all these times they be doing that I say
 G D Em D      
If he was here right now he'd go to jail the same

Chorus

African chords – Peter Tosh V2

 


               AFRICAN BY PETER TOSH.    MUSIC STYLE:REGGAE




                       C 
 Don't care where you come from
     F C  
As long as you're a black man
           G 
You're an African...
(CHORUS)
                    C 
No mind your nationality
 F C G      
You have got the identity of an African
                         F        
'Cause if you come from Clarendon
      G F 
And if you come from Portland
     G F 
And if you come from Westmoreland
           G 
You're an African...


CHORUS  
               C 
No mind your nationality  
 F C G 
You've got the identity  of an African
                    F 
'Cause if you come Trinidad'

 G F 
And you if you come from nassau
      G F 
And if you come from Cuba
           G 
You're an African...

CHORUS
              C 
No mind your complexion   
   F C 
There is no rejection
           G 
You're an African...
                         F 
'Cause if your plexion  high,high
High
 G F    
If your complexion low, low, low
   G F 
And if your plexion in between
 G 
You're an African

CHORUS 
          C 
No mind denomination
 F C 
That is only segregation
           G 
You're an African   
                         F 
'Cause if you go to the Catholic
 G F 
And if you go to the Methodist
 G F   
And if you go to the Church of Gods
           G 
You're an African

CHORUS
              C 
No mind your nationality
 F C G 
You have got the identity of an African
                         F 
'Cause if you come from Brixton
 G F 
And if you come from Wingstead
 G F G 
And if you come from France
    F G 
...Brooklyn
    F G 
...Queens
    F G 
...Manhattan
    F G 
...Canada
    F G 
...Miami
     F G 
...Switzerland
    F G 
...Germany
    F G 
...Russia
    F G 
...Taiwan

The Next Time I Fall chords – Peter Cetera

 The Next Time I fall – Peter Cetera
 Christian Estoesta
christianestoesta
British School Manila

Verse 1
   G C D G 
Love Like a road that never ends
             C/E D/F# Em 
How It Leads Me back again
      D/C C A/C# D/F# 
To  Heartache I`ll never understand
            G C D G 
Darlin I put my heart upon the shelf
               C/E D/F# G G/B - C - D7sus  pause
Till the moment was right and I tell my self

Chorus: 
                     Am  , Am7 D/F# ,  D 
Next Time I fall    in love
      C D Em 
I`ll Know better what to do
                     Am , Am7 D/F# ,  D 
Next  time I fall     In Love
 C/E D/F#    - G 
Oohh Ohh Oohh
                            C/E D/E 
The Next time I fall In love
     Eb/G F/G 
The next time I fall in love
                          C - D - Em - C9 - D 
It will be with you
 
 

Verse 2
        G C D G 
Oh Love as Iook into your eyes
            C/E D/F# Em 
Well I wonder If It`s wise
      D/C C A/C# D/F# 
To hold you like I`ve wanted to before
      Ab Db Ab 
Tonight, oohh I was thinking that you might
            Db/F Eb/G Ab Ab/C Db - Eb7 -sus pause
Be the one who bretahes life In his heart of mine
(Repeat Chorus except last words)

Bridge
 Db Eb Fm 
Next time I`m gonna follow through
 Db Eb 
And If It Drives me crazy
 Db/F Eb/G 
I`ll Know better why
                          Db/Ab  pause
The next time I try
(Repeat Chorus except last words
-1 fret higher  key of Db)

 Db9  –  Db/Eb 
You