Tag: petty

Petty Problems chords – Bodyjar

 Bodyjar
Petty Problems
Role Model
2013
Submitted by: jeremyunderground41

Key: G#, Eb, A

Tuning: Standard EADGBe

Chords used:
 G#  -   466544
 Eb  -   x68886
 Fm  -   133111
 C#  -   x46664
 C#m  -  x46654
 Bbm  -  x13321
 G#/C  - x365xx
 Cm  -   x35543
 Eb/G  - 365xxx
 Bb  -   x13331
 A  -    x02220
 E  -    022100
 F#m  -  244222
 D  -    xx0232
 Bm  -   x24432
 A/C#  - x476xx


Intro:
G#-G#/C-C#-- x3
G#-G#/C-Eb--


Verse 1:
 G# G#/C 
  What's the worst
               C# 
thing you can think
of? The keys that
        G# 
you forgot? When
      G#/C 
your phone is out
    C# 
of charge now Does
your world come to
    Bbm G#/C 
a stop? With senses
       G# Eb 
gone away and life is
          Bbm 
a crisis now I don't
 G#/C Eb 
see  how this first
world mess can be


Chorus 1:
 G# 
  Cry complain life
    Eb 
is never the same
    Fm 
We dwell upon what
 C# 
we don't have in
 G# Eb 
vain The worst side
              C# G# G#/C C# G# Eb  Eb(hold)
of you takes over


Verse 2:
 G# G#/C 
  Now The world has
          C# 
lost its patience
We're so bent out of
 G# G#/C 
shape Until we take
          C# 
this for granted where
we sleep tonight is
 Bbm G#/C 
safe But everything
      G# Eb 
is alright I know
             Bbm 
you will survive
      G#/C Eb 
They say  maybe it is
catching up with you


Chorus 2:
 G# 
  Cry complain life
    Eb 
is never the same
    Fm 
We dwell upon what
 C# 
we don't have in
 G# Eb 
vain The worst side
              C# 
of you takes over
 G# 
  What we got so
 Eb 
quick to forget
      Fm 
The slightest
         C# 
problem gets you
      G# 
so upset Blue
    Eb 
suburban skies
       C# C#m 
we're under under so


Bridge:
 Cm Eb/G 
   Do you know 
             G# 
what you're saying
every time you're
         Cm Eb/G 
feeling low? but
you're so used
       G# 
to complaining
Every time your
          Cm 
ready to go
    Eb/G 
Do you know 
             G# 
what you're saying
every time you're
         Cm Eb/G 
feeling low? but
you're so used
       Bb 
to complaining


Chorus 3: Modulate from G# to A
 A 
  Cry complain life
    E 
is never the same
    F#m 
We dwell upon what
 D 
we don't have in
 A E 
vain The worst side
              D 
of you takes over
 A 
  What we got so
 E 
quick to forget
      F#m 
The slightest
         D 
problem gets you
      A 
so upset Blue
    E 
suburban skies
       D 
we're under


Outro:
            A 
Now you're alright
       A/C# 
I can hear you
 D 
breathing Must
    A 
be alright I
     A/C# 
can hear you
 D 
breathing
            A 
Now you're alright
       A/C# 
I can hear you
 D   
breathing
         A

Only A Broken Heart solo Tabs – Tom Petty

 ---------------------------------------------------------------------------------------------------------------
                                          Artist - Tom Petty
                                         ********************
                                      Song - Only A Broken Heart
                                     ****************************
                                      Album - Wildflowers (1994) 
                                     ****************************
                                          - Ayreon77
                                        **********************
---------------------------------------------------------------------------------------------------------------
Tuning = Standard
                                    Played on A 12 string Acoustic.

                                                                                            s
e|-------------|----------|-------------------h-----|----h---8--8-|-8-8-10-10--10-10-8-10-10\12-|
B|----------h--|----------|----------s--8--8-8-10-8-|-8-8-10------|-----------------------------|
G|----h--5-5-7-|-5---5--7-|--s----5-5\7-------------|-------------|-----------------------------|
D|-5-5-7-------|---7------|-3\5-7-------------------|-------------|-----------------------------|
A|-------------|----------|-------------------------|-------------|-----------------------------|
E|-------------|----------|-------------------------|-------------|-----------------------------|

                                                     s      s 
e|------h-----|----h------|----8-10-10--10-10-8-10-10\12--10\8-------12-10-8-|--------------------------|
B|-8-8-8-10-8-|-8-8-10-10-|-10----------------------------------10-8---------|-----------s--8-8---------|
G|------------|-----------|--------------------------------------------------|--s----5--7\9-----9-7-7-5-|
D|------------|-----------|--------------------------------------------------|-5\7-7--------------------|
A|------------|-----------|--------------------------------------------------|--------------------------|
E|------------|-----------|--------------------------------------------------|--------------------------|


e|-----------------8-|-----------s---8-|
B|----s--8-8-10-8----|----s--8--8\10---|
G|-5-7\9-------------|-5-7\9-----------|
D|-------------------|-----------------|
A|-------------------|-----------------|
E|-------------------|-----------------|



ENJOY.........

Something Big chords – Tom Petty And The Heartbreakers

 SOMETHING BIG   -       tom petty


The tuning and chords enable you to play the main bassline.


Tuning:     DADGBe


Intro:
  v                                   v  
e|----/------------------------------/----/
B|3---/------------------------3-----/3---/
G|2---/----0-----0-----0-----0---2---/2---/
D|0---/--0-----0-----0-----0-------0-/0---/
A|0---/------------------3-----------/0---/
E|0---/5-----3-----5-----------------/0---/

 D5  -  A  -  C  -  F  -  D  - 
 D5  -  A  -  C  -         
 D5  -  A  -  C  -  F  -  D  - 
 D5  -  A  -  C  -   

         D5                                            
Well it    didn't feel like Sunday
 D5                                                    
   Didn't feel like June
         D5/G                                            
When he       met his silent partner
         D5/G D5                              
In that       lonely corner     room


      F5 D5                                
That     overlooked the     marquee
        F5 D5                               
Of the     plaza all-a -     dult
        A7/E                                             
And he       was not lookin' for romance
      Gadd9 G9/F D5 D5                       
Just        someone       he could     trust 
        F5 D5                            
And it     wasn't no way to     carry on
    F5 D5                                
It     wasn't no way to     live
               A7/E                                       
But he could        put up with it for a little while
         Gadd9 Gadd9/F D5                     
He was        workin' on some -          thing     big 


 D5  -  A  -  C  -  F  -  D  - 
 D5  -  A  -  C  -   


 D5                                                    
   Speedball rang the night clerk
         D5                                             
Said, "    Send me up a drink"
          D5/G                                            
Now the       night clerk said, "It's Sunday man
 D5/G D5                              
      Wait a minute, let me     think"


            F5 D5                       
"There' a     little place out -     side of town
 F5 D5                               
   Might still have some     wine"
 A7/E                                                    
     Speedball said, "Forget it 
       Gadd9 Gadd9/F D5                             
Can I        have an           outside     line?"
         F5 D5                            
And it     wasn't no way to     carry on
    F5 D5                                
It     wasn't no way to     live
               A7/E                                       
But he could        put up with it for a little while
        Gadd9 Gadd9/F D5                     
He was        workin' on some -          thing     big 



Break:
 D5  -  A  -  C  -  F  -  D  - 
 D5  -  A  -  C  -    
 Em7/C  -  C  -     
Dm11/ C  -  C</sp

Alright For Now chords – Tom Petty And The Heartbreakers

 Alright for Now
Tom Petty
         Cadd9 G 
        Good night      Baby

         Cadd9 G 
        Sleep tight my  love, may

         Cadd9    Amadd9
         god watch      over

         Fadd9 Cadd9 
        you from        above

         G Cadd9 G 
        To      morrow I'm      working

         Cadd9 G 
        What would I    do

         Cadd9    Amadd9
        I'd be lost and         lonely

         Fadd9 Cadd9 G 
        If not for      you      

         Em Dm 
        So Close        Your eyes

         Em Dm 
        You're all      right

         Fadd9 
        For now

         Cadd9 G 
        I've spent my life      Traveling

         Cadd9 G 
        Spent my life   free

         Cadd9    Aadd
        I could not re  pay all

         Fadd9 Cadd9 G 
        you've done for         me       

         Cadd9 G 
        Good night      Baby

         Cadd9 G 
        Sleep tight my  love

         Cadd9    Amadd9
        And know I      love you

         Fadd9 Cadd9 
        You're all right for    now -

Hometown Blues chords – Tom Petty And The Heartbreakers

 
               Hometown Blues - Tom Petty & The Heartbreakers

Tuning: standard
 N3WW4V3N1NJ4

Love this song, can't believe it wasn't on here yet.

Intro:  A A 
Baby can't wait, baby gotta go
Gotta do a number on a late night show
Do a little song, do a little dance
Gonna make the best of her big chance

 E 
Don't really matter if she don't or if she do
             F E A 
She's trying to make the best of the hometown blues

 A 
I got a friend, got a little girl
Says she's the best in the whole wide world
Said it's so cool, said it's unreal
It might not last, but it's no big deal

 E 
Don't really matter if she don't or if she do
              F E A 
She's trying to make the best of the hometown blues

 F E A 
Baby, save me, save me
 D E A    
Save me with your sweet smile
 F E A D E 
Honey, I really need you to help me kill a little bit of time

 A 
All of the girls run with the crowd
They go wild when the lights go down
They got a little money, live in a dream
Wanna be the queen of their little scene

 E 
Don't really matter if she don't or if she do
              F E A 
She's trying to make the best of the hometown blues

There's the whole song.

Down South chords – Tom Petty V3

 Down South
By Tom Petty
Highway Companion Album

 D Dsus2 D 
Headed back down south
 G D Dsus2 
Gonna see my daddy's mistress
 G D Dsus2 
Gonna buy back her forgiveness
 Bm A A4 A 
Pay off every witness

(repeat)
One more time down south
Sell the family headstones
Drag a bag of dry bones
Make good on my back loans

 G D 
So if I come to your door
 G D 
Let me sleep on your floor
 G/D A  
I'll give you all I have
       D Dsus2 D  
And a little more

Sleep in late.....

Notes:

Odd chords

 Dsus2 G/D A4 
0       3      0
3       3      0
2       4      2
0       0      2
0       x      0
x       x      x

If you don't like the switch between D to G/D in the refrain, try a Dsus4, it's 
easier but, a little flat.

 Dsus4 
3
3
2
0
X
X

The other versions on this song are great. I love this song, just wanted to add my cut.

Bootleg Flyer chords – Tom Petty

 Bootleg Flyer
(Tom Petty, Mike Campbell)

 A 
I'm a bootleg flyer, and I work alone.
I'm a radar hider, turn your head and I'm gone.
 G 
Gonna set her down easy on a dirt road. I'm gonna land her on 
                                   D 
sand. Moonshine on the Redwood Forest with money across my hand.
 E 
I'm a bootleg flyer, oh oh oh.
 A 
I'm a bootleg flyer, cargo in the back.
I'm a tree-top glider, I never leave the track.
 G 
Thrown over napalm, I've flown under fire and I go rain or sun.
                                   D 
In a world where no one knows me, I'm a motherless son.
 E G D G D    
I'm a bootleg flyer, oh oh.
 A 
I'm a bootleg flyer, and I work alone.
I got wings for hire, drive my load and I'm gone.
 A 
I'm a bootleg flyer and I work alone.
I'm a tree-top glider. Drive my load and I'm gone.

American Girl solo Tabs by Tom Petty And The Heartbreakers V2

 The outro solo for "American Girl" by Tom Petty and the Heartbreakers

 Luke Stirton

(made to be played in this key, with this tab:
http://tabs.ultimate-guitar.com/t/tom_petty_and_the_heartbreakers/american_girl_crd.htm)

No Capo

e----14----14-14-----14----14-14-----14----14-14-|
B-15----15--------15----15--------15----15-------|
G------------------------------------------------|
D------------------------------------------------|
A------------------------------------------------|
E------------------------------------------------|

***

e----14----14-------12---------------------------|
B-15----15----12/14----15------------------------|
G------------------------------------------------|
D------------------------------------------------|
A------------------------------------------------|
E------------------------------------------------|

***
alternate
***

e------------------------------------------------|
B------------------------------------------------|
G------------------------------------------------|
D---4---4-4----4--4-4----4---4-4-----------------|
A-5---5------5--5------5---5---------------------|
E------------------------------------------------|

***

e------------------------------------------------|
B------------------------------------------------|
G------------------------------------------------|
D---4---4-----2----------------------------------|
A-5---5---2/4---5--------------------------------|
E------------------------------------------------|

Christmas All Over Again chords – Tom Petty And The Heartbreakers V2

 Tom Petty & The Heartbreakers   Christmas all over again   (frt2)

Intro) //:  G Gdim7 Am D  ://        
--------------------------                                                       

Vers 1)
           G          Gdim7  Am D  
Well it's Christmas time again, 
     G                Gdim7        Am D  
decorations are all hung by the fire                                    
 Am D Am Cm 
  Everybody's singin', all the bells are ringing out
          G Em G Em Am D 
And it's Christmas all over     again, yeah again
--------------------------- 
Vers 2)
      G         Gdim7   Am D G             Gdim7       Am D  
Long-distance rela---tives,   haven't seen'em in a long, long time
 Am D Am Cm 
  Yeah I kind of missed 'em, I just don't wanna kiss 'em, no
      G Em G Em Am D 
It's Christmas all over  again, yeah again
--------------------------- 
Bridge)
 Fm G Fm G 
  And all over town  little kids gonna get down
 C                                      
 And Christmas is a rockin' time, put your body next to mine
 A7 D 
 Underneath the mistletoe we go, we go
--------------------------- 
Solo) auf Vers/1.Teil   //: G   Gdim7   Am   D ://
--------------------------- 
 Am D Am Cm 
  Everybody's singin',   all the bells are ringing out
          G Em G - Em Am D 
And it's Christmas all over again, yeah again
---------------------
Bridge)
 Fm G Fm G 
  And right down our block  little kids start to rock
 C                                      
 And Christmas is a rockin' time, put your body next to mine
 A7 D 
 Underneath the mistletoe we go, we go
--------------------------------- 
Vers 3)
       G          Gdim7          Am D             
Merry Christmas time come and find you 
 G                Gdim7     Am D 
happy and there by  your fire
 Am D                  
  I hope you have a good one, 
 Am Cm 
  I hope momma gets her shoppin' done
            G Em G - Em Am  
And it's a Christmas all over   again

---Break----
                G Em G Em Am Cm  
Oh Baby,  it's Christmas all over  again  oh, yea
---------------------------
Instrumental)
 G Em G Em 
--------------------------- 
          G Em G Em Am Cm G 
And it's Christmas all over   again
----------------------------
- G -
Now let's see...I want a new Rickenbacker guitar, 
two Fender bass-mans, Chuck Berry songbooks, xylophone .... 

----------------------------- 

I Should Have Known It Tabs by Tom Petty And The Heartbreakers

 Tuning: D Tuning

Intro/Verse x4
d|------------------------------------------------------------------------|
A|------------------------------------------------------------------------|
F|-------------------5-2-----------------------2~-------------------------|
C|---0---0---------------------0---0--------------------------------------|
G|-3b--3b--0---0-2-3---------3b--3b--0---0-2-3----------------------------|
D|------------------------------------------------------------------------|

Bridge x2
d|------------------------------------------------------------------------|
A|/10-10-10-10-9--9--9--8---10\-------------------------------------------|
F|/11-11-11-11-10-10-10-9---11\-------------------------------------------|
C|------------------------------------------------------------------------|
G|------------------------------------------------------------------------|
D|------------------------------------------------------------------------|

Verse x1
d|------------------------------------------------------------------------|
A|------------------------------------------------------------------------|
F|-------------------5-2-----------------------2~-------------------------|
C|---0---0---------------------0---0--------------------------------------|
G|-3b--3b--0---0-2-3---------3b--3b--0---0-2-3----------------------------|
D|------------------------------------------------------------------------|

Chorus x1
d|0--0---3-2--3-2--3-2----------------------------------------------------|
A|0--0---3-3--3-3--3-3----------------------------------------------------|
F|1--1---2-2--2-2--2-2-------------2p0------------------------------------|
C|2--2---0-0--0-0--0-0-----------------------0----------------------------|
G|2--2-----------------------0-2-3-----3p0-3---0--------------------------|
D|0--0--------------------------------------------------------------------|

Verse x3

Bridge x2

Verse x1

Chorus x1

Alt. Verse x8
d|------------------------------------------------------------------------|
A|------------------------------------------------------------------------|
F|------------------------------------------------------------------------|
C|------------------------------------------------------------------------|
G|---0---0-------------2p0------------------------------------------------|
D|-3b--3b--0-----0-2-3-----3p0--------------------------------------------|

Chorus (with variaton)
d|0--0---3-2--3-2--3-2----------------------------------------------------|
A|0--0---3-3--3-3--3-3----------------------------------------------------|
F|1--1---2-2--2-2--2-2-------------2p0------------------------------------|
C|2--2---0-0--0-0--0-0-----------------------0-------0--------------------|
G|2--2-----------------------0-2-3-----3p0-3---0---3---0------------------|
D|0--0--------------------------------------------------------------------|

Outro Riff X16

d|---3--------------------------------------------------------------------|
A|-2-3-2--3-3-2-3-2-------------------------------------------------------|
F|-2-0-2--2-2-2-2-2-------------------------------------------------------|
C|-2-0-2--2-2-2-2-2-------------------------------------------------------|
G|-0-2-0--0-0-0-0-0-------------------------------------------------------|
D|---3--------------------------------------------------------------------|

d|3-2--3-2--3-2-----3-2--3-2--3-2-----------------------------------------|
A|3-3--3-3--3-3-----3-3--3-3--3-3-----------------------------------------|
F|2-2--2-2--2-2-----2-2--2-2--2-2-----------2p0---------------------------|
C|0-0--0-0--0-0-----0-0--0-0--0-0---------------------0-------0-----------|
G|------------------------------------0-2-3-----3p0-3---0---3---0---------|
D|------------------------------------------------------------------------|