Tag: pilots

My Blood piano chords by twenty one pilots

[Verse 1]
Fm              Ab
   When everyone  you thought you knew,
Fm              Eb   Ab
   Deserts your fight, I'll go with you
Fm                   Ab
   You're facing down  a dark hall,
Fm              Eb   Ab
   I'll grab my light, and go with you


[Refrain]
Fm      Eb      Ab
   I'll go with you, I'll go with you
Fm      Eb      Ab
   I'll go with you, I'll go with you
Fm      Eb      Ab
   I'll go with you, I'll go with you
Fm      Eb      Ab
   I'll go with you


[Verse 2]
Fm    Eb      Ab
   Surrounded and up against a wall
Fm      Eb         Ab
   I'll shred them all and go with you
Fm      Eb      Ab
   When choices end, you must defend,
Fm      Eb      Ab
   I'll grab my bat and go with you


[Refrain]
Fm      Eb      Ab
   I'll go with you, I'll go with you
Fm      Eb      Ab
   I'll go with you, yeah


[Chorus]
Bbm         Ab Db
Stay with me,  no, you don't need to run
Fm          Eb   Ab
Stay with me, my blood, you don't need to run
Bbm         Ab Db
Stay with me,  no, you don't need to run
Fm          Eb   Ab
Stay with me, my blood, you don't need to run


[Verse 3]
Fm          Eb      Ab
   If there comes a day,

People posted up at the end of your driveway,
        Fm                                Eb               Ab
They're calling for your head and they're calling for your name,

I'll bomb down on them, I'm coming through
Fm                    Eb         Ab
   Do they know I was grown with you?

If they're here to smoke, know I'll go with you,
     Fm               Eb         Ab
Just keep it outside, keep it outside, yeah


[Chorus]
Bbm         Ab Db
Stay with me,  no, you don't need to run
Fm          Eb   Ab
Stay with me, my blood, you don't need to run
Bbm         Ab Db
Stay with me,  no, you don't need to run
Fm          Eb   Ab
Stay with me, my blood, you don't need to run


[Bridge]
Bbm   Ab   Db
             You don't need to run
Fm   Eb   Ab
            You don't need to run
Bbm   Ab   Db
             You don't need to run
Fm   Eb   Ab
            You don't need to run


[Verse 4]
Fm   Ab   Fm   Eb   Ab  (same as intro)

                    Fm
If you find yourself  in a lion's den,
Ab                   Fm            Eb
   I'll jump right in  and pull my pin,
Ab
   And go with you


[Refrain]
Bbm     Ab      Db
   I'll go with you, I'll go with you
Fm      Eb      Ab
   I'll go with you, I'll go with you (you don't need to run)
Bbm     Ab      Db
   I'll go with you, I'll go with you (you don't need to run)
Fm               Eb      Ab
  My blood, I'll go with you, yeah


[Chorus]
Bbm         Ab Db
Stay with me,  no, you don't need to run
Fm          Eb   Ab
Stay with me, my blood, you don't need to run
Bbm         Ab Db
Stay with me,  no, you don't need to run
Fm          Eb   Ab
Stay with me, my blood, you don't need to run


[Bridge]
Bbm   Ab   Db
             You don't need to run
Fm   Eb   Ab
            You don't need to run
Bbm   Ab   Db
             You don't need to run
Fm   Eb   Ab
            You don't need to run


[Outro]
Bbm         Ab Db
Stay with me,  no, you don't need to run
Fm          Eb   Ab
Stay with me, my blood

My Blood chords by twenty one pilots

[Intro] 
   Fm                Ab                    Fm      Eb    Ab
e|-1---------------|-4---------------|-----1-------3---|-4---------------|
B|-1---------------|-4---------------|-----1-------4---|-4---------------|
G|-1---------------|-5---------------|-----1-------3---|-5---------------|
D|-3---------------|-6---------------|-----3-------5---|-6---------------|
A|-3---------------|-6---------------|-----3-------6---|-6---------------|
E|-1---------------|-4---------------|-----1-------3---|-4---------------|
   ^ ' ^ ' ^ ' ^ ' | ^ ' ^ ' ^ ' ^ ' | ^ ' ^ ' ^ ' ^ ' | ^ ' ^ ' ^ ' ^ ' |
   1   2   3   4     1   2   3   4     1   2   3   4     1   2   3   4


[Verse 1]
Fm              Ab
   When everyone  you thought you knew,
Fm              Eb   Ab
   Deserts your fight, I'll go with you
Fm                   Ab
   You're facing down  a dark hall,
Fm              Eb   Ab
   I'll grab my light, and go with you


[Refrain]
Fm      Eb      Ab
   I'll go with you, I'll go with you
Fm      Eb      Ab
   I'll go with you, I'll go with you
Fm      Eb      Ab
   I'll go with you, I'll go with you
Fm      Eb      Ab
   I'll go with you


[Verse 2]
Fm    Eb      Ab
   Surrounded and up against a wall
Fm      Eb         Ab
   I'll shred them all and go with you
Fm      Eb      Ab
   When choices end, you must defend,
Fm      Eb      Ab
   I'll grab my bat and go with you


[Refrain]
Fm      Eb      Ab
   I'll go with you, I'll go with you
Fm      Eb      Ab
   I'll go with you, yeah


[Chorus]
Bbm         Ab Db
Stay with me,  no, you don't need to run
Fm          Eb   Ab
Stay with me, my blood, you don't need to run
Bbm         Ab Db
Stay with me,  no, you don't need to run
Fm          Eb   Ab
Stay with me, my blood, you don't need to run


[Verse 3]
Fm          Eb      Ab
   If there comes a day,

People posted up at the end of your driveway,
        Fm                                Eb               Ab
They're calling for your head and they're calling for your name,

I'll bomb down on them, I'm coming through
Fm                    Eb         Ab
   Do they know I was grown with you?

If they're here to smoke, know I'll go with you,
     Fm               Eb         Ab
Just keep it outside, keep it outside, yeah


[Chorus]
Bbm         Ab Db
Stay with me,  no, you don't need to run
Fm          Eb   Ab
Stay with me, my blood, you don't need to run
Bbm         Ab Db
Stay with me,  no, you don't need to run
Fm          Eb   Ab
Stay with me, my blood, you don't need to run


[Bridge]
Bbm   Ab   Db
             You don't need to run
Fm   Eb   Ab
            You don't need to run
Bbm   Ab   Db
             You don't need to run
Fm   Eb   Ab
            You don't need to run


[Verse 4]
Fm   Ab   Fm   Eb   Ab  (same as intro)

                    Fm
If you find yourself  in a lion's den,
Ab                   Fm            Eb
   I'll jump right in  and pull my pin,
Ab
   And go with you


[Refrain]
Bbm     Ab      Db
   I'll go with you, I'll go with you
Fm      Eb      Ab
   I'll go with you, I'll go with you (you don't need to run)
Bbm     Ab      Db
   I'll go with you, I'll go with you (you don't need to run)
Fm               Eb      Ab
  My blood, I'll go with you, yeah


[Chorus]
Bbm         Ab Db
Stay with me,  no, you don't need to run
Fm          Eb   Ab
Stay with me, my blood, you don't need to run
Bbm         Ab Db
Stay with me,  no, you don't need to run
Fm          Eb   Ab
Stay with me, my blood, you don't need to run


[Bridge]
Bbm   Ab   Db
             You don't need to run
Fm   Eb   Ab
            You don't need to run
Bbm   Ab   Db
             You don't need to run
Fm   Eb   Ab
            You don't need to run


[Outro]
Bbm         Ab Db
Stay with me,  no, you don't need to run
Fm          Eb   Ab
Stay with me, my blood

The Judge chords – Twenty One Pilots Vsion 3

   Capo on 5th fret, Chords relative to capo.
----------------------------------------------
 Em C G Am Em C G 

[Intro]
 Em C G 
Na Na Na Na Oh Oh
             Am Em 
Na Na Na Na Oh Oh
             C G 
Na Na Na Na Oh Oh

[Verse 1]
 Em C 
 When the leader of the bad guys sang
 G Am 
   Something soft and soaked in pain
 Em C G 
  I heard the echo from his secret hideaway


 Em C 
  He must've forgot to close his door
 G Am 
  As he cranked out those dismal chords
 Em C G 
    And his four walls declared him insane

[Pre-Chorus]
      B/E 
  I found my way
      Gbm  
Right time, wrong place
      C D 
  As I pled my case

[Chorus]
            C G 
You're the judge, Oh no
         D Em   
 Set me free
            C G 
You're the judge, Oh no
         D Em 
 Set me free
   C D 
I know my soul's freezing
         G Em 
Hell's hot for good reason
    C Em 
So please, take me

 Em C G 
Na Na Na Na Oh Oh
             Am Em 
Na Na Na Na Oh Oh
             C G 
Na Na Na Na Oh Oh

[Verse 2]
 Em 
Three lights are lit
                       C 
But the fourth one's out
 G 
I can tell cause it's a bit darker
                       Am 
Than the last night's bout
 Em 
I forgot about the drought
                        C 
Of light bulbs in this house
           G 
So I head out
                                 Am 
Down a route I think is heading south
 Em 
But I'm not good with directions
                      C 
And I hide behind my mouth
       G 
I'm a pro at imperfections
                              Am 
And I'm best friends with my doubt
     Em 
And now that my mind's out
                            C 
And now I hear it clear and loud
              G 
I'm thinking, 'Wow,
                      G 
I probably should've stayed inside my house.'

[Pre-Chorus]
      B/E 
  I found my way
      Gbm 
Right time, wrong place
      C D 
  As I pled my case

[Chorus]
            C G 
You're the judge, Oh no
         D Em   
 Set me free
            C G 
You're the judge, Oh no
         D Em 
 Set me free
   C D 
I know my soul's freezing
         G Em 
Hell's hot for good reason
    C 
So please...

[Bridge] x2
 Em C 
    I don't know if this song
 G Am 
    Is a surrender or a revel
 Em C 
    I don't know if this one
 G Am 
    Is about me or the devil


[Chorus]
            C G 
You're the judge, Oh no
         D Em   
 Set me free
            C G 
You're the judge, Oh no
         D Em 
 Set me free
   C D 
I know my soul's freezing
         G Em 
Hell's hot for good reason
    C 
So please...

 C G D Em   x2  

 C

Ride chords – Twenty One Pilots V4

 ===========================================================
                 Ride - Twenty One Pilots
===========================================================
I Usually hate Capos, But It works really Well if you use one on fret 1, You'll see...

Capo 1 


Intro:
 F F F Gm Dm Dm Dm Bb F F F Gm Dm Dm Dm C 


Verse 1:
 F Gm Dm 
I just wanna stay in the sun where I find
                      Bb 
I know it's hard sometimes
 F Gm Dm 
Pieces of peace in the sun's peace of mind
                      C 
I know it's hard sometimes
 F Gm Dm 
Yeah I think about the end just way too much
                      Bb 
But it's fun to fantasise
 F Gm Dm 
All my enemies who wouldn't wish who I was
                      C 
But it's fun to fantasise



Chorus:
 F Gm 
Oh, wooh
     Dm C F 
I'm falling so I'm taking my time on my ride
        Gm 
Oh, wooh
     Dm       -                            F Gm Dm 
I'm falling so I'm taking my time on my riiiiiiiiiiiiiiide
           Bb F Gm Dm C 
Taking my time on my riiiiiiiiiiiiide



Verse 2:
 F 
I'd die for you That's easy to say
                                        Gm 
We have a list of people that we would take
   Dm    
A bullet for them A bullet for you
                        Bb 
A bullet for everybody in this room
       F 
But I don't seem to see many bullets coming through
          Gm 
See many bullets coming through
 Dm 
Metaphorically I'm the man
                       Bb 
But literally I don't know what I'd do
     F 
I'd live for you And that's hard to do
                             Gm 
Even harder to say When you know it's not true
      Dm 
Even harder to write When you know that tonight
                                      Bb 
There are people back home which are talking to you
          F 
But then you ignore them still
                                Gm 
All these questions they're forming like
               Dm  
Who would you live for? Who would you die for?
                C 
Would you ever kill?



Chorus



Bridge:
 F Gm 
   I've been thinking too much
 C Dm 
   I've been thinking too much
 Csus4/G Dm 
   I've been thinking too much
 C C/E F 
   I've been thinking too much; Help me
                                           Gm C            
   I've been thinking too much (I've been thinking too much)
                                 Dm Csus4/G 
   I've been thinking too much (help me)
                                           Dm C 
   I've been thinking too much (I've been thinking too much)
                                 C/E 
   I've been thinking too much



Last Chorus:
 F Gm 
Oh, wooh
     Dm Bb F 
I'm falling so I'm taking my time on my ride
        Gm 
Oh, wooh
     Dm    -                       F Gm Dm 
I'm falling so I'm taking my tiiiiiiiiiiiiiiiimmmeeee
           Bb F Gm D

Ode To Sleep chords – Twenty One Pilots V2

 ===================================================================
                 Ode To Sleep - Twenty One Pilots
===================================================================


Intro A:
 E Em E Em E Em 

Intro B/Postchorus: (When melody comes in)
 Em Em Em Em C C C  C(Bm)



Spittin': (With the E to Em switches in the Background)
 Em 
I wake up fine and dandy but then by the time I find it handy,

To rip my heart apart and start planning my crash landing,
      C 
I go up-up-up-up up to the ceiling,
                                                           Bm 
Then I feel my soul start leaving, like an old man's hair receding,
 Em 
I'm pleading please, oh please on my knees repeatedly asking,

Why it's got to be like this, is this living free,
 C 
I don't want to be the one, be the one who has the sun's blood on my hands,

I'll tell the moon, take this weapon forged in darkness,
                 Bm 
Some see a pen, I see a harpoon.

 Em Em Em Em 




Verse 2:
 G F#m  (D)   Em Am D 
           I'll stay awake, 'Cause the dark's not taking prisoners tonight.

 G F#m D Em Am D G F#m D Em 
Why am I not scared in the morning, I don't hear those voices calling,
                             Am D 
I must have kicked them out,   I must have kicked them out,
 G F#m D Em    
I swear I heard demons yelling, those crazy words they were spelling,
                        Am D Gmaj7 
They told me I was gone,   they told me I was gone.

But I'll tell them,




Chorus:
 G C Bm 
Why won't you let me go?
 D G C Bm D 
Do I threaten all your plans, I'm insignificant,
                  G C Bm 
Please tell them you have no plans for me,
 D G C Bm D 
I will set my soul on fire, what have I become?
                Em 
I'll tell them!




Intro B/PostChorus:
 Em Em Em Em C C C  C(Bm)




Spittin' Again:
 Em 
On the eve of a day that's forgotten and fake,

As the trees they await and clouds anticipate,

The start of a day when we put on our face,
                                            C 
A mask that portrays that we don't need grace,

On the eve of a day that is bigger than us,

But we open our eyes 'cause we're told that we must,

And the trees wave their arms and the clouds try to plead,
 Bm Em 
Desperately yelling there's something we need,

I'm not free I asked forgiveness three times,

Same amount that I denied, I three-time mvp'ed this crime,
        C 
I'm afraid to tell you who I adore, won't tell you what I'm sing towards,
                                        Bm 
Metaphorically I'm a whore, and that's denial number four.

 Em Em Em Em 




Verse 2:
 G F#m  (D)   Em Am D 
           I'll stay awake, 'Cause the dark's not taking prisoners tonight.

 G F#m D Em Am D G F#m D Em 
Why am I not scared

Fairly Local chords – Twenty One Pilots V3

 ==========================================================
             Fairy Local - Twenty One Pilots
==========================================================


Intro:
 F#m 

Chorus A:
 F#m D                   
    I'm fairly local, I've been around
 Bm F#m 
    I've seen the streets you're walking down
 F#m A 
    I'm fairly local, good people now
 E F#m 
Oh Oh Oh Oh Oh Oh Ooohh


Verse:
 F#m 
    I'm evil to the core
 D 
    What I shouldn't do I will
 Bm 
    They say I'm emotional
 F#m 
    What I want to save I'll kill
 F#m 
    Is that who I truly am?
 A 
    I truly don't have a chance
 E 
    Tomorrow I'll keep a beat
 F#m 
    And repeat yesterday's dance


Spittin':
 F#m D 
Yo, this song will never be on the radio
 F#m 
Even if my clique were to pick and the people were to vote

It's the few, the proud, and the emotional
 F#m A 
Yo, you, bulletproof in black like a funeral
 F#m 
The world around us is burning but we're so cold

It's the few, the proud, and the emotional



Chorus B:
 F#m D                   
    I'm fairly local, I've been around
 Bm F#m 
    I've seen the streets you're walking down
 F#m A 
    I'm fairly local, good people now
 E F#m 
Oh Oh Oh Oh Oh Oh Ooohh
 E F#m 
Oh Oh Oh Oh Oh Oh Ooohh


Verse

Spittin'

Chorus B (And one more Oh Oh part at the end)


Bridge:
 D E F#m F#m D E F#m F#m D E F#m F#m 


Last Chorus:
 F#m D                   
    I'm fairly local, I've been around
 Bm F#m 
    I've seen the streets you're walking down
 F#m A 
    I'm fairly local, good people now
 E F#m 
Oh Oh Oh Oh Oh Oh Ooohh
 D E 
    I'm fairly local, good people now
 F#m 
Oh Oh Oh Oh Oh Oh Ooohh, Good People Now
 D E 
Oh Oh Oh Oh Oh Oh Ooohh, Good People Now
 F#m 
Oh Oh Oh Oh Oh Oh Ooohh.

Taxi Cab chords – Twenty One Pilots V2

 A/F# Asus4 A/C#              
   I wanna fall inside your ghost
 Asus2 A/F# Asus4 A/C# Asus2 
And fill up every whole inside my mind
 A/F# Asus4 A/C# 
   And I want everyone to know
 Asus2 A/F# Asus4 A/C# Asus2   
That I am half a soul divid        ed

 Bm E 
Sometimes we will die and sometimes we will fly away
 Bm F#m 
Either way you're by my side until my dying days
 E Bm 
And if I'm not there and I'm far away

           A C#m A/F# 
I said, Don't be afraid,"
           Asus4 
I said, "Don't be afraid, we're going home"

 A/F# Asus4 A/C#  
  I wanna strip myself a breath
     Asus2 A/F# Asus4 A/C# Asus2 
A breathless piece of death I've made for you
 A/F# Asus4 A/C# Asus2 A/F# 
   A mortal writing piece of song will help me carry on
        Asus4 A/C# Asus2 
But these you heard

 Bm E 
Sometimes we will die and sometimes we will fly away
 Bm F#m 
Either way you're by my side until my dying days
 E Bm 
And if I'm not there and I"m far away

 A C#m A/F# 
I said, "Don't be afraid,"
    Asus4 
I said, "Don't be afraid, we're going home"



The chord pattern played in the verses is the same for the rap

Migraine chords – Twenty One Pilots

 Chords needed to know:
 C F Am G F7 E Dm 

MIGRAINE - Twenty | One | Pilots

 F C G 
Am I the only one I know
 F C G 
Waging my wars behind my face and above my throat?
 F C G F E 
Shadows will scream that I'm alone

( C F Am G ) x2

 C F 
I - I - I - I - I've got a migraine
 Am G 
And my pain will range from up, down and sideways
 C F 
Thank God it's Friday 'cause Fridays will always
 Am G 
Be better than Sundays 'cause Sundays are my suicide days
 C F 
I don't know why they always seem so dismal
 Am G 
Thunderstorms, clouds, snow and a slight drizzle
 C F 
Whether it's the weather or the letters by my bed
 Am G 
Sometimes death seems better than the migraine in my head


 C F 
Let it be said what the headache represents
 Am G 
It's me defending in suspense, it's me suspended in a defenseless test
 C F 
Being tested by a ruthless examinant
 Am G 
That's represented best by my
 C F 
Depress...ing thoughts
 Am G 
I do not have writer's block, my writer just hates the clock
 C F 
It will not let me sleep, I guess I'll sleep when I'm dead
 Am G 
And sometimes death seams better than the migraine in my head


 F C G G / Am 
Am I the only one I know
 F C G G / Am 
Waging my wars behind my face and above my throat?
 F C G 
Shadows will scream that I'm alone
       Dm C F7 
But I know we've made it this far, kid
 C F Am G 
                            Yeah yeah yeah!
 C F Am G C F 
I am not as fine as I seem, pardon
 Am G 
Me for yelling, I'm telling you green gardens
 C F 
Are not what's growing in my psyche, it's a different me
 Am G       
A difficult beast feasting on burnt down trees
 C F 
Freeze frame please, let me paint a mental picture portrait
 Am G 
Something you won't forget, it's all about my forehead
 C F 
And how it is a door that holds back contents
 Am G 
That make Pandora's Box's contents look nonviolent


 C F 
Behind my eyelids are islands of violence
 Am G 
My mind's shipwrecked, this is the only land my mind could
 C F 
Find, I did not know this was such a violent island
 Am G 
Full of tital waves, suicidal crazed lions
 C F 
They're trying to eat me, blood running down their chin
 Am G 
And I know that I can fight or I can let the lion win
 C F 
I begin to assemble what weapons I can find
 Am G 
'Cause sometimes to stay alive you got to kill your mind


 F C G G / Am 
Am I the only one I know
 F C G <spa

The Pantaloon chords – Twenty One Pilots

 Capo 2

 G C 
Your grandpa died

               Em 
When you were nine

           D 
They said he had

          G 
Lost his mind

          C 
You have learned

         Em 
Way too soon

            D G C Em D 
You should never trust the pantaloon


 G C 
Now it's your turn

        Em 
To be alone

        D 
Find a wife

                      G 
And build yourself a home

          C 
You have learned

         Em 
Way too soon

           D C            
That your dad is now a pantaloon


               G 
You are tired

               Em 
You are hurt

                    D 
A moth ate through

                     C 
Your favorite shirt

                     G Em 
And all your friends fertilize

                     D 
The ground you walk

 C D G 
Lose your mind

*either no music or quiet C, G, Em, D progression here*

He's seen too many stare downs


Between the sun and the moon


In the morning air


How he used to hustle all the people


Walking through the fairgrounds


He's been around so long


He's changed his meaning of a chair now


Because a chair now,


Is like a tiny island in the sea of all the people


Who glide across the very surface


That made his bones feeble


The end can't come soon enough


But is it too soon?


Either way he can't deny


He is a pantaloon

 C G 
You are tired

               Em 
You are hurt

                    D 
A moth ate through

                     C 
Your favorite shirt

                     G Em 
And all your friends fertilize

                     D 
The ground you walk

 C D G 
Lose your mind

 G C 
You like to sleep alone

                           Em 
It's colder than you know
 
                       D 
Cause your skin is so

                      G 
Used to colder bones

                        C 
It's warmer in the morning

                     Em 
Than what it is at night

                       D 
Your bones are held together

                                    C 
By your nightmare and your frights


               G 
You are tired

              Em 
You are hurt

                    D 
A moth ate through

                     C 
Your favorite shirt

                     G Em  
And all your friends fertilize

                     D 
The ground you walk

 C D G 
Lose your mind

Atlanta Tabs by Stone Temple Pilots V2

 Stone Temple Pilots - Atlanta
From the "No 4" Album
 jjhand

Main Riff - play 2x in intro, then 4x for verse

e|-0-----0-0-0--0-----0-0-0-|-0-----0-0-0--0---0---0---|
B|-0-----0-0-0--0-----0-0-0-|-0-----0-0-0--0---0---0---|
G|-1-----1-1-1--2-----2-2-2-|-4-----4-4-4--2---2---2---|
D|-2-----2-2-2--4-----4-4-4-|-5-----5-5-5--4---4---4---|
A|-2------------4-----4-4-4-|-5-----5-5-5--4---4---4---|
E|-0------------------------|--------------------------|


Chorus - play 2x, similarly

e|-7-----7--7--2---3---2---|-0-----0-0-----2---3---2---|
B|-5-----5--5--3---3---3---|-1-----1-1-----3---3---3---|
G|-5-----5--5--2---2---2---|-0-----0-0-----2---2---2---|
D|-5-----5--5--0-----------|-2-----2-2-----0-----------|
A|-0-----0--0--------------|---------------------------|
E|-------------------------|---------------------------|

e|-7-----7--7--2---3---2---|-0-----0-0-----0---0---0---|
B|-5-----5--5--3---3---3---|-1-----1-1----/3---5---3---|
G|-5-----5--5--2---2---2---|-0-----0-0-----0---0---0---|
D|-5-----5--5--0-----------|-2-----2-2----/4---4---4---|
A|-0-----0--0--------------|---------------------------|
E|-------------------------|---------------------------|

e|-7-----7--7--2---3---2---|-0-----0-0-----2---3---2---|
B|-5-----5--5--3---3---3---|-1-----1-1-----3---3---3---|
G|-5-----5--5--2---2---2---|-0-----0-0-----2---2---2---|
D|-5-----5--5--0-----------|-2-----2-2-----0-----------|
A|-0-----0--0--------------|---------------------------|
E|-------------------------|---------------------------|

e|-7-----7--7--2---3---2---|-0-----0-0-----0----0-0-0--|
B|-5-----5--5--3---3---3---|-1-----1-1----/3----3-3-3--|
G|-5-----5--5--2---2---2---|-0-----0-0-----0----0-0-0--|
D|-5-----5--5--0-----------|-2-----2-2----/4----4-4-4--|
A|-0-----0--0--------------|---------------------------|
E|-------------------------|---------------------------|




Play Main Riff Again


Play Chorus Again




Bridge - Play Chords shown with same rhythm

e|-2--------3--------|-2--------3--------|-2--------2--------|-1------------|
B|-3--------3--------|-2--------3--------|-3--------2--------|-3------------|
G|-4--------4--------|-3--------4--------|-2--------3--------|-3------------|
D|-4--------5--------|-4--------5--------|-0--------4--------|-3------------|
A|-2--------5--------|-4--------5--------|----------4--------|-1------------|
E|----------3--------|-2--------3--------|----------2--------|--------------|


   Play 2 1/2 times (end on E chord)
e|-0------------|-1-------------|
B|-0------------|-3-------------|
G|-1------------|-3-------------|
D|-2------------|-3-------------|
A|-2------------|-1-------------|
E|-0------------|---------------|


Ending Arpeggio Part - 

e|---0---------|-------------|
B|-----1---3---|---1-0-------|
G|-----------2-|-----------0-|
D|-------0-----|---------4---|
A|-0-----------|-3----/5-----|
E|-------------|-------------|


Chorus Chords on are played to end Song


KEY
************************************

| /   slide up
| \   slide down
| h   hammer-on
| p   pull-off
| ~   vibrato
| +   harmonic
| x   Mute note

************************************

Before You Start Your Day chords – Twenty One Pilots

 Capo 3 (listen to the song for the strumming pattern)

Intro: [ G ,  D ,  Em ,  C ] x2 

 G D Em D G 
Open the slits in your face 

           D Em C 
and start your day

 G D Em C G 
You don't have much time to make your slits 

          D Em 
look just right

 G ,  D ,  Em C 
I'm in your mind

 G ,  D ,  Em C 
I'm singing

 G ,  D ,  Em C 
I'm in your mind

 G ,  D ,  Em C 
I'm singing 

 C D Em G C D G 
la-da la-da la-da la-da la-da la-da da

 D ,  Em ,  D ,  G ,  D ,  Em ,  D G D Em C G D Em 
Look in the mirror and ask your soul if you're alright

 G D Em D G D Em C 
Put out the glitter that your soul hides behind

 G ,  D ,  Em C 
You're in my mind

 G ,  D ,  Em C 
I'm singing

 G ,  D ,  Em C 
You're in my mind

 G ,  D ,  Em C C D Em G C D G 
I'm singing la-da la-da la-da la-da la-da la-da da

 G ,  D ,  Em ,  C D C G 
Nowhere were they holy

 D C G 
Open up your eyes and see

 D C G 
The clouds above will hold you

 D C G 
The clouds above will sing

 D ,  Em C ,  G ,  D ,  Em ,  C G ,  D ,  Em C 
And in your mind

 G ,  D ,  Em C D D Em G C D G 
You're singing la-da la-da la-da la-da la-da la-da da

Holding On To You chords – Twenty One Pilots V2

 Intro:
 Abm F# E B/F#  x2

Verse 1:

 Abm F#
I'm taking over my body, back in control, no more shotty,
   E B/F#
I bet a lot of me was lost, 't's uncrossed and 'I's undotted,
 Abm F# E
I fought it a lot and it seems a lot like flesh is all I got,
               B/F#
Not anymore, flesh out the door, swat,

 Abm F#
I must've forgot, you can't trust me,
      E
I'm open a moment and close when you show it,
  B/F#
Before you know it I'm lost at sea,
  Abm F#
And now that I write and think about it,
                  E
And the story unfolds,
                         B/F#
You should take my life, you should take my soul.


Interlude:
e--14------------|-----------------|-------------14--|-----------------|
B-------14---16--|-----------------|---16---14-------|---16---14-------|
G--11------------|---15---13---11--|-------------11--|-------------16--| X2
D-------11---13--|-----------------|---13---11-------|---13---11-------|
A----------------|---13---11---9---|-----------------|-------------14--|
E----------------|-----------------|-----------------|-----------------|


Pre Chorus:

 E Abm B/F# F# C#m/G#
  You are surrounding   all my surroundings,
 E Abm B/F# F# C#m/G# E
Sounding down the mountain range of my left-side brain,
           Abm B/F# F# C#m/G#
You are surrounding all my surroundings,
    E Abm B/F# F# C#m/G
Twisting the kaleidoscope behind both of my eyes.


Chorus:

e--14------------|-----------------|-------------14--|-----------------|
B-------14---16--|-----------------|---16---14-------|---16---14-------|
G--11------------|---15---13---11--|-------------11--|-------------16--| X2
D-------11---13--|-----------------|---13---11-------|---13---11-------|
A----------------|---13---11---9---|-----------------|-------------14--|
E----------------|-----------------|-----------------|-----------------|


 Abm F# E B/F#
                                           And i'll be Holdin' on to you
 Abm F# E B/F#
                                           And i'll be Holdin' on to you


Break:
 Abm F# E B/F#  x2


Verse 2:

 Abm F#
Remember the moment you know exactly where you're going,
             E
'Cause the next moment, before you know it,
  B/F#
Time is slowing and it's frozen still,
         Abm F#
And the window sill looks really nice, right?
 E B/F#
You think twice about your life, it probably happens at night,
 Abm F#
Right? Fight it, take the pain, ignite it,
        E B/F#
Tie a noose around your mind loose enough to breathe fine and tie it,
 Abm F#
To a tree, tell it, "You belong to me,
               E
This ain't a noose, this is a leash,
             B/F# E
And I have news for you, you must obey me."


Pre Chorus:

           Abm B/F# F# C#m/G#
You are surrounding   all my surroundings,
 E Abm B/F# F# C#m/G# E
Sounding down the mountain range of my left-side brain,
           <

Black Heart Tabs by Stone Temple Pilots V2

 #----------------------------------PLEASE NOTE--------------------------------#
#This file is the author's own work and represents their interpretation of the#
#song. You may only use this file for private study, scholarship, or research.#
#-----------------------------------------------------------------------------#
#-- File created with Instab - http://www.pconline.com/~smcarey/instab.html --#
#-----------------------------------------------------------------------------#

Author/Artist: Stone Temple Pilots
Title: Black Heart
b bend
r release bend
h hammer on
/ slide up
A Arpeggio
m mute

G1 Two Guitars Arr. for One (eb A D f# a d), Down ~ 10%
G2 Solo Guitar Tuning (eb A D G B E), Down ~ 10%



----|--------------------------------------------------------------|----------|
----|--------------------------------------------------------------|----------|
----|-8---8--8-8--6-7-8---8--8-8--6-7-8---8--8-8-------------------|----------|
----|-5-5-5--5-5--x-x-5-5-5--5-5--x-x-5-5-5--5-5-5-5---------------|----------|
----|-------------8-9-------------8-9------------5-7-8--7--5-3-----|----------|
----|--------------------------------------------x-x-----------7-4-|----------|
 G1 Verse  m               m               m




----|---------------------------------------------|---------------------------|
----|---------------------------------------------|---------------------------|
----|-8b--8--8--8b--8--6b-8--8b-------------------|---------------------------|
----|-5b--5--5--5b--5--x--5--5b-5-5---------------|---------------------------|
----|------------------8b-------5-7-8--7--5-3-----|---------------------------|
----|---------------------------x-x-----------7-4-|---------------------------|
  Verse End




-|---------------------------------------------------------------------------|
-|---------------------------------------------------------------------------|
-|-------------13-13--------------13--8---------------13-13---------------13-|
-|---------12-----12----------12------------------12-----12-----------12-----|
-|-8h10-10------------8h10-10-------------8h10-10-------------8h10-10--------|
-|------------------------------------7--------------------------------------|
  Bridge          A                                      A



-|----------------------------------------------------------------------------|
-|----------------------------------------------------------------------------|
-|----------------------------------------------------------------------------|
-|-5--5--5-5-5-5--5--5--5-5-5-5--3--3--3-3-3-3--3--3--3-3-3-3--5--5--5-5-5-5--|
-|-6--6--6-5-6-5--6--6--6-5-6-5--5--5--5-3-5-3--5--5--5-3-5-3--6--6--6-5-6-5--|
-|-x--x--x-x-x-x--x--x--x-x-x-x--x--x--x-x-x-x--x--x--x-x-x-x--x--x--x-x-x-x--|
   Chorus       m  m  m        m  m  m        m  m  m



-------------------------------------|----------------------------------------|
-------------------------------------|----------------------------------------|
---------------------------13--13----|----------------------------------------|
--5--5-5-5-5------------12-12--12----|----------------------------------------|
--6--6-5-6-5------10-10--------------|----------------------------------------|
--x--x-x-x-x---11--------------------|----------------------------------------|
               Let Ring    A   A




----|-------------------------------------------------------|-----------------|
----|-------------------------------------------------------|-----------------|
----|---------------------------------------------------13--|-----------------|
----|------------------------------------------------12-----|-----------------|
-10-|-10---------------------------------------10-10--------|-----------------|
----|---------------------------------------11--------------|-----------------|
      "Rescue me..."                        "mind........."




----|------------------------------------

Addict With A Pen Tabs by Twenty One Pilots

 Piano part translated into guitar. Great song, great Band!


Main Bit: Repeated through most of the song, if you want to you can throughout all of it.
Pattern might be slightly off but 99.9% certain they're the right notes :)
e|---------------------------------------------------------------------------|
B|---------------------------------------------------------------------------|
G|---------------------------------------------------------------------------|
D|------9----9----9----7----7----7------9---9---9---7--7--7------------------|
A|---10---10----10--10---10---10------9---9---9---9--9--9--------------------|
E|---------------------------------------------------------------------------|

e|---------------------------------------------------------------------------|
B|---------------------------------------------------------------------------|
G|---------------------------------------------------------------------------|
D|------9---9---9---7---7---7-----7--7--7--7--7--7---5--5--5--5--------------|
A|----7---7---7---7---7---7-----3---3-3--3--3--3---3--3--3--3----------------|
E|---------------------------------------------------------------------------|

Power chords used in verse type thing

e|---------------------------------------------------------------------------|
B|---------------------------------------------------------------------------|
G|--------------------5------------------------------------------------------|
D|---5-----4-----2----5------------------------------------------------------|
A|---5-----4-----2----3------------------------------------------------------|
E|---3-----2-----0-----------------------------------------------------------|

Those are the basics, strumming pattern for "verse" or whatever you wish to call it is 
fairly simple and easy to hear chord changes in song.

Plush chords – Stone Temple Pilots V2

 PLUSH

Intro (x2)

Verse 1:

 G D F C 
    And I feel that time's a wasted go.
 Gm    
    So where ya going to 
   G D F C 
tomorrow? And I see that these are lies to come.
 Gm                               
    Would you even care?

Pre-chorus:

 D C G C 
                    And I
 D C G C 
feel  it...(it....it!)
 D C G C 
                    Yeah I
 D C G C 
feel  it...(it....it!)

Chorus (Part 1):

 Eb F  
    Where ya going for tomorrow?
 Eb F 
    Where ya going with that mask I found?
 Eb F 
    And I feel, and I feel when the dogs begin to smell her...
 Eb F 
    Will she smell alone?

Intro (x1)

Verse 2:

 G D F C 
    And I feel, so much depends on the weather.
 Eb                              
    So is it raining in your 
 G D F C         
bedroom? And I see, that these are the eyes of disarray.
 Eb                              
       Would you even care?

Pre-chorus:

 D C G C  
                    And I
 D C G C 
feel  it...(it....it!)
 D C G C 
                    And she
 D C G C  
feels it...(it....it!)

Chorus (Part 1):

 Eb F  
    Where ya going for tomorrow?
 Eb F 
    Where ya going with that mask I found?
 Eb F 
    And I feel, and I feel when the dogs begin to smell her...
 Eb F 
    Will she smell alone?

Chorus (Part 2): 

 G2 F 
When the dogs do find her. Got time, time, to wait for 
 G2 F            
tomorrow...    to find it, to find it, to find it.
 G2 F 
When the dogs do find her. Got time, time, to wait for 
 G2 F            
tomorrow...    to find it, to find it, to find it.

Intro (x3)

Chorus (Part 1):

 Eb F  
    Where ya going for tomorrow?
 Eb F 
    Where ya going with that mask I found?
 Eb F 
    And I feel, and I feel when the dogs begin to smell her...
 Eb F 
    Will she smell alone?

Chorus (Part 2): 

 G2 F 
When the dogs do find her. Got time, time, to wait for 
 G2 F            
tomorrow...    to find it, to find it, to find it.
 G2 F 
When the dogs do find her. Got time, time, to wait for 
 G2 F            
tomorrow...    to find it, to find it, to find it.

Trees Tabs by Twenty One Pilots

 Standard Tuning

Intro/Verse
e-----------------------------------------------------------------|
b---7---7---7---7---7---7---7---7---7---7---7---7---7---7---7---7-|
g-8---8---8---8---------------------------------------------------|
d-----------------9---9---9---9-----------------------------------|
a---------------------------------9---9---9---9---9---9---9---9---|
e-----------------------------------------------------------------|

Piano Bit
e-------9-6----------------------------------|
b---7-9------------------------------9----11-|
g-8------------------11----------------11----|
d---------------8-11----11------11-----------|
a-------------9---------------9----9---------|
e--------------------------------------------|

Chorus
e--6---6---6---6---7---7---7---7---6---6---6---6----9----9----9----9--|
b--7---7---7---7---7---7---7---7---7---7---7---7---11---11---11---11--|
g--6---6---6---6---8---8---8---8---6---6---6---6---11---11---11---11--|
d-(8)-(8)-(8)-(8)-(9)-(9)-(9)-(9)-(8)-(8)-(8)-(8)-(11)-(11)-(11)-(11)-|
a---------------------------------------------------------------------|
e---------------------------------------------------------------------|

e--6---6---6---6---7---7---7---7---6---6---6---6---4---4---4---4--|
b--7---7---7---7---7---7---7---7---7---7---7---7---6---6---6---6--|
g--6---6---6---6---8---8---8---8---6---6---6---6---6---6---6---6--|
d-(8)-(8)-(8)-(8)-(9)-(9)-(9)-(9)-(8)-(8)-(8)-(8)-(6)-(6)-(6)-(6)-|
a-----------------------------------------------------------------|
e-----------------------------------------------------------------|

Post-Chorus/Bridge
(You can either play the version in the intro/verse but if you want to get the extra
high notes the synth plays, this version is easier for that part.  Listen for timing.)
e---------------------------------------------------------------------------------------|
b-----------------------------------------11--------------------------------------11----|
g----11----11----11----11---11---11----13-------11---11---11---11---11---11----13----13-|
d-13----13----13----13----9----9--------------------------------------------------------|
a---------------------------------------------9----9----9----9----9----9----------------|
e---------------------------------------------------------------------------------------|

e------------------------------------------------------------------------------------14-|
b-----------------------------------------11--------------------------------------11----|
g----11----11----11----11---11---11----13-------11---11---11---11---11---11----13-------|
d-13----13----13----13----9----9--------------------------------------------------------|
a---------------------------------------------9----9----9----9----9----9----------------|
e---------------------------------------------------------------------------------------|

2nd Verse
Heavy synth/rhythm guitar.  (Can play this in rhythm for post-chorus/bridge part and 
wherever you see fit.)
e--------------------------------------|
b--------------------------------------|
g-8~--8----4~--4-----------------------|
d-8~--8----4~--4----4~--4----4~--4-----|
a-6~--6----2~--2----4~--4----4~--4-----|
e-6~--6----2~--2----2~--2----2~--2-----|

House Of Gold chords – Twenty One Pilots V4

 The other submitted chords work great, but this way of doing actually mimics the exact 
sound of a uke, because with a capo on 5th the 1st-4th strings are GCEA, the tuning for 
ukes. Anyways enough explaining, here ya go! please rate and/or comment!

uke chords:  C F Am G C F C G C 

Capo 5

(To get the sound of a uke you could not play low E and A strings)

Intro: G (only high E string)

She asked me, "Son, when I grow old,
Will you buy me a house of gold?
And when your father turns to stone,
Will you take care of me?"

     G C 
She asked me, "Son, when I grow old,
      Em D 
Will you buy me a house of gold?
     G C 
And when your father turns to stone,
      G D G 
Will you take care of me?"


 C E7 Am F C 
I will make you queen of everything you see
                     G 
I'll put you on the map,
                  C G 
I'll cure you of disease



       G C 
Let's say we up and left this town,
     Em D 
And turned our future upside down
       G C 
We'll make pretend that you and me,
       G D G 
Lived ever after happily


     G C 
She asked me, "Son, when I grow old,
      Em D 
Will you buy me a house of gold?
     G C 
And when your father turns to stone,
      G D G 
Will you take care of me?"


 C E7 Am F C 
I will make you queen of everything you see
                     G 
I'll put you on the map,
                  C G 
I'll cure you of disease    Ohhhhh


     G C 
And since we know that dreams are dead,
     Em D 
And life turns plans up on their head,
 G C 
I will plan to be a bum,
    G D G 
So I just might become someone


     G C 
She asked me, "Son, when I grow old,
      Em D 
Will you buy me a house of gold?
     G C 
And when your father turns to stone,
      G D G 
Will you take care of me?"


 C E7 Am F C 
I will make you queen of everything you see
                     G 
I'll put you on the map,
                  C 
I'll cure you of disease

|-/