Tag: Plays

Positively 4Th Street chords – Bob Dylan V5

 ---------------------------------------------------------------------------
          Positively 4th Street– Bob Dylan
---------------------------------------------------------------------------
: maguri
Tuning: Standard

Bob Dylan
Positively 4th Street (1965)
(Dylan)

Non-album single
Now on: “Side Tracks” and several Greatest Hits compilations

The bass sometimes plays notes other that the root. I indicated these 
chords as slash chords here. It is of course possible to play them 
as regular chords and just leave out the note after the slash.

The original recording is in F#. The live versions I know are mostly in 
G, though (easy to play and sounding great; maybe the guitar is tuned down 
one semi-tome on the original version?). To play G, one would have to 
transpose this tab up 3 steps and leave off the capo. Enjoy!

---------------------------------------------------------------------------

capo: 2nd fret
play: E
key: F#

---------------------------------------------------------------------------
CHORDS

        E-A-D-G-B-e
B/D#    x-6-4-4-4-x
A/C#    x-4-2-2-2-x
A/E     0-x-2-2-2-0

---------------------------------------------------------------------------

capo 2nd fret

INTRO
|  E  | % |


VERSE 1
 E F#m 
You got a lotta nerve
    A E 
To say you are my friend
      E B 
When I was down
 A C#m B       
You just stood there grinning


VERSE 2
 E F#m 
You got a lotta nerve
            A E 
To say you got a helping hand to lend
 E B A 
You just want to be on
     C#m B       
The side that's winning


VERSE 3
 E F#m 
 You say I let you down
     A E 
You know it's not like that
    E B 
If you're so hurt
 A C#m B       
Why then don't you show it


VERSE 4
 E F#m 
 You say you lost your faith
     A E 
But that's not where it's at
     E B/D# A/C# 
You have no faith to lose
 C#m B       
 And you know it


VERSE 5
 E F#m 
 I know the reason
          A E 
That you talk behind my back
   E B A/C# C#m 
I used to be among the crowd
        B       
You're in with


VERSE 6
 E F#m 
 Do you take me for such a fool
 A E 
 To think I'd make contact
          E B 
With the one who tries to hide
         A/C# C#m B       
What he don't know to begin with


VERSE 7
 E F#m 
 You see me on the street
 A E 
You always act surprised
     E B A 
You say, "How are you?" "Good luck"
     C#m B       
But you don't mean it


VERSE 8
          E F#m 
When you know as well as me
              A E 
You'd rather see me paralyzed
 E B A C#m 
Why don't you just come out once
     B       
And scream it


VERSE 9 
 E F#m 
 No, I do not feel that good
                A E 
When I see the heartbreaks you embrace
    E B A/C# 
If I was a master thief
    C#m B       
Perhaps I'd rob them


VERSE 10
     E F#m 
And now I know you're dissatisfied
             A E 
With your position and your place
 E B A/

Spring To Come Tabs by John Butler Trio

 -----------------------------------------------------------------------------
                    Spring To Come - John Butler Trio
-----------------------------------------------------------------------------

First of all I'd like to thank John Butler and his current and former bands for creating
such impressive, intense and beautiful music!

This tab only contains the awesome interlude and outro part because the other parts are
perfectly explained by John Butler himself in this video:

This tabs could be useful too:
http://www.guitarworld.com/acoustic-nation-video-lesson-play-it-now-john-butler-
teaches-us-play-spring-come

It was quite confusing to identify the timing of the melody along base-rhythm. I think I
finally figured it out correctly, so I thought: Let's share it!
If you have problems with the rhythm have a look at the video-link at the top. In the
end John plays the part really slowly, perhaps that helps you to get a feeling for the
timing. Also it is important to use the thumb for playing the base-notes G and D (or C
and D) in order to stick to the beat.
I hope there are no major mistakes in this tab nor my language, if else please use the
comment-section. :)

Tuning: C G D G b d

   1   +   2   +   3   +   4   +    1   +   2   +   3   +   4   +
d |--------------------------------|--------------------------------|
b |----------------1---0---------3~|----------------1---0---------0-|
G |----0h2-----0---------------0---|----0-------0---------------2---|
D |----0-------0-------0-------0---|----0-------0-------0-------0---|
G |0-------0-------0-------0-------|0-------0-------0-------0-------|
C |--------------------------------|--------------------------------|

This second half is almost the same just the base note changes from G to C.
   1   +   2   +   3   +   4   +    1   +   2   +   3   +   4   +
d |--------------------------------|--------------------------------|
b |----------------1---0---------3~|----------------1---0---------0-|
G |----0h2-----0---------------0---|----0-------0---------------2---|
D |----0-------0-------0-------0---|----0-------0-------0-------0---|
G |--------------------------------|--------------------------------|
C |0-------0-------0-------0-------|0-------0-------0-------0-------|

Sellout Song chords – Wingnut Dishwashers Union

 This is from "Towards A World Without Dishwashers." I know this tab is pretty 
technical for a WDU song, so if you don't like the way I tabbed it out play it 
however you'd like. :)

Intro chords are all barre chords.
  
   3      3      1     8
   5      3      1    10
 C 5    G 4    F 2  F*10     F* is just F but played in a higher position
   5      5      3    10
   3      5      3     8
   x      3      1     x

Intro:  C G C F C G F *  F *

Verse chords:

   0      3      5     1
   1      3      6     1
 C 0    G 4   Dm 7   F 2   (These are the chords he plays for the first two 
   2      5      7     3    measures of each verse. He mutes the C and G.)
   3      5      5     3
   x      3      x     1

The next two measures he plays C G Dm F open chords and F is played barred on the first fret. 

Theres one part near the end that is C G F F


  C G Dm F 
Well one of these days you know I'm gonna get my ass kicked.

  C G Dm F 
But I'm not gonna try and promise you that I'm not gonna deserve it.

              C G Dm F 
But your boyfriend is still the worst house guest I think that I've ever met.

        C G Dm       
And I hope that one day you'll wake up and you'll realize that you can't put 

         F 
up with it.

Intro:  C G C F C G F *  F *

 C G Dm F 
Well one of these days, maybe I'll just sit and give this all up.

          C G Dm 
And I'll say that all you yuppies can have this fuckin' world If you love it 

     F 
so much.

          C G Dm F 
But the things that we can't help but believe in make us who we are.

     C G Dm F 
And I just can't believe that could mean their condos and their sports cars.

 

  C G F C G F 
Well, when its gets had to breathe sometimes I slip to apathy,

        C G Dm F 
but I don't got any excuses not to learn what words like home and freedom mean. 

Intro again (end on barre chord C 8th fret.)

What Plays In My Head chords – Matt And Toby

 SONG:   WHAT PLAYS IN MY HEAD
ARTIST: MATT & TOBY
TAB BY: DON CZARSKI
EMAIL:  GUITARZAN7@HOTMAIL.COM

                    WHAT PLAYS IN MY HEAD
                         MATT & TOBY

INTRO:
-  C  -    Am Dm F Am C Dm F 


VERSE:
 Am C F 
I felt the car crash, it happened so fast
     C Dm Am 
I thought that I would never catch my breath again
       C F 
The dangling seat belts, the burning fuel smells
           G Dm                           
You were saying that the blood would stain your dress


BREAK:
     Am C 
And I thought back to New Years night
      G Em 
The angry words, the awful fight
     F C Dm 
We suffer for our sins, I've suffered for my sins


PRE-CHORUS:
 C G Am F C 
 You were so scared, that's the thing I most remember
 C Em G Am C F C 
 The way your hand felt in mine, I wish I still


CHORUS:
 Dm Am C 
I want you to know what happened when I lost you
 Dm C G 
I wish you could feel this aching that's replaced you
     Dm 
So here among these gathered few

With hardened hearts and empty pews
    Am C 
I pray that this will too pass and leave
      Dm                                                          
That I could be a man of faith in this quiet home that we both made
      C Em G Am 
And tell our son and daughter I believe... in God


VERSE:
      C 
Oh oh the worst is, those things we manage
                     F G 
Don't let yourself cry in front of the kids
           C Em Am 
And I'm so exhausted, that I think I've lost it
  C Em 
Six months ago I had it all


BREAK:
     Am C 
And I thought back to New Years night
      G Em 
The angry words, the awful fight
     Dm G C 
We suffer for our sins, I've suffered for my sins


PRE-CHORUS:
  C G Am F C 
You were so scared, that's the thing I most remember
      C Em G Am C F C 
The way your hand felt in mine, I wish I still


CHORUS:
 Dm Am C 
I want you to know what happened when I lost you
 Dm C G 
I wish you could feel this aching that's replaced you
     Dm 
So here among these gathered few

With hardened hearts and empty pews
   Am C 
I pray that this will too pass and leave
      Dm                                                          
That I could be a man of faith in this quiet home that we both made
      C Em G Am 
And tell our son and daughter I believe... in God


OUTRO:
                         C F C 
Early in the morning, sitting on the couch beside you
              Am F C 
And Ike is staring at your face
        Am C F C 
Ruby softly asks me for blankets and cartoons
            Am C F</

Jesse Ar Tabs by Said The Whale

 This is the only tab for Jesse, Ar I have seen on the internet so far. It's a great song 
and it's not that hard to play, just listen to it to figure out the rythm and if you 
see anything wrong with this tab don't hesitate to point it out!


Intro (Rythm)

E----------------------------------|
B----------------------------------|
G----------------------------------|
D----------------------------------|   x4
A---7---7---7---7---7---7---7---7--|
E-0---0---0---0---0---0---0---0----|

E------------------|
B------------------|
G-1-1-1-1-1-1-1-1--|
D-2-2-2-2-2-2-2-2--|   palm muted, x2
A-2-2-2-2-2-2-2-2--|
E-0-0-0-0-0-0-0-0--|


Intro (Lead)

E----------12-11------------------------|
B-12-14----------14-12-------12---------|
G-------13-------------13-11----13-11-9-|
D---------------------------------------|
A---------------------------------------|
E---------------------------------------|


Verse (Rythm)

Jesse came from Arkansas...
E----------------------------------|
B----------------------------------|
G-1-1--1-1--1-1--6-6-6-6-----------|
D-2-2--2-2--2-2--7-7-7-7-----------| x8 (No singing the first 4 times, the lead plays 
during these 4 times)
A-2-2--2-2--2-2--7-7-7-7-----------|
E-0-0--0-0--0-0--5-5-5-5-----------|


Verse (Lead)

E----------------------------------12---------------------------------|
B-12-12-12-12-12-12-12-12-12-12-14----14-12---------------------------|
G-------------------------------------------13-13-13-13-13-13-13-13---|
D---------------------------------------------------------------------|
A---------------------------------------------------------------------|
E---------------------------------------------------------------------|

E---------------------------------------------------------------------------|
B----------------12----------------------------------------------12---------|
G-11-11-11-11-13----13-11-------------------------11-11-11-11-13----13-11---|
D-------------------------14-14-14-14-14-14-14-14---------------------------|
A---------------------------------------------------------------------------|
E---------------------------------------------------------------------------|

E-------------------------------------14-12-------12|
B-------------------------------------------14-12---|
G---------------------------------------------------|
D-14-14-14-14-14-14-14-14-14-14-14-14---------------|
A---------------------------------------------------|
E---------------------------------------------------|


Pre-chorus

So he headed out to Edmonton...
E------------------|
B------------------|
G-6-6-6-6-6-6-6-6--|
D-7-7-7-7-7-7-7-7--|  x4
A-7-7-7-7-7-7-7-7--|
E-5-5-5-5-5-5-5-5--|


Verse (Rythm)

Didn't take a couple months...
E----------------------------------|
B----------------------------------|
G-1-1--1-1--1-1--6-6-6-6-----------|
D-2-2--2-2--2-2--7-7-7-7-----------| x6 (No singing the first 2 times)
A-2-2--2-2--2-2--7-7-7-7-----------|
E-0-0--0-0--0-0--5-5-5-5-----------|


Pre-chorus

So he brought her back to Little Rock...
E------------------|
B------------------|
G-6-6-6-6-6-6-6-6--|
D-7-7-7-7-7-7-7-7--|  x4
A-7-7-7-7-7-7-7-7--|
E-5-5-5-5-5-5-5-5--|


Chorus

Restless eyes they never sleep for too long...
E---x---x---x----------------------|
B---x---x---x----------------------|
G---x-9-x---x-8-8-9-9--------------|                  7
D-9-x-x-x-7-x-x-x-x-x--------------| x10 (He stops at x the 10th time)
A-x-x-7-x-x-x-6-6-7-7--------------|                  5
E-7-x---x-5-x----------------------|


Verse (Rythm)

Didn't take a couple months...
E----------------------------------|
B----------------------------------|
G-1-1--1-1--1-1--6-6-6-6-----------|
D-2-2--2-2--2-2--7-7-7-7-----------| x6 (No singing the first 2 times)
A-2-2--2-2--2-2--7-7-7-7-----------|
E-0-0--0-0--0-0--5-5-5-5-----------|


Verse (Lead)

E----------------------------------12----------------

Trust Chords – Matt Hammitt

 Found this awesome song but couldn't find the chords for it so decided to make this!

The original key that Matt Hammitt plays in is the key of G but I dropped it to E with a 
capo on 2 so I could sing it easier.

Matt also does fingerpick but I just strummed the song.

Capo 2
  E G#m7 C#m7 A2 E 
Lest I'm tempted to forget
     G#m7 
I'll tie Your love around my neck
      C#m7 
I'll write Your words upon my heart
      A2 
Lord I won't forget how good You are

      E 
I'll dwell upon Your faithfulness
     G#m7 
I'll rest within Your promises
     C#m7 
And when I'm walking through the dark
      A2 
Lord I won't forget how good You are

Chorus
        E 
I will trust
        A2 
I will trust You
           F#m7 G#m7 A 
I will trust You Lord with all my heart
      G#m7 E 
And I won't forget how good You are
     G#m7 E 
No I won't forget how good You are

      E 
You gave me everything I have
      G#m7 
And my whole life is in Your hands
      C#m7 
When what I fear is closing in
          A2 
Lord Your faithfulness will never end
 A2 
Your faithfulness will never end

Bridge
                 A2 
And even in the darkness
              E 
Even in the questions
               A2 E 
Even when the hardest times of life are at hand
                  A2 
And even in the darkness
              E 
Even in the questions
             A2 E 
Even in the times that I'm not meant to understand

Tambourine-n-thyme Chords – Nana Grizol

 C 
Jump in to that water, is it cold or is it hot,
          Am 
or is it nothing quite worth mentioning at all.
 F 
Hearts they will awaken, to remember fears of breaking
         G 
but all animals must answer to their call

               C 
It's like how when I try to write a song, sometimes the words just come out wrong,
     Am 
but if I never picked the pen up, held inside and never shared
     F 
And oh was that so eloquent, it wasn't really what I meant,
    G 
at least you got the notion that I care

       F G Am 
And a song well sung is a song well sung well song so sing.
    F G C F 
If nothing else you must remember that you're still breathing

    C 
So we ignore those body parts that get so wet and get so hard,
     Am 
and focus on our beating hearts, your arm to hold me here to guard me
 F 
I can sleep alone tonight, I feel weird but that's alright
     G 
I'm learning not to think too much, I turn the lights out and sleep tight

     C 
And if I make a big mistake, if anything well then it wont take
 Am F 
forever just to find myself again. In a subjective sense we've sense

we've seen a lot, yeah we make the best of what we've got
 G 
all we are is everything and everyone we've ever been so..

 F G Am 
Tell me not to fall in love with you
     F G C F 
And frankly my friend I think that's the sweetest thing you do

 C 
Summer in my town is nice, my front porch is my paradise
     Am 
and I can sit here every night, yes I can watch the world go by,
     F 
and know that I'm in motion to occasionally think of you
     G 
and just hope that you realize that when you sit here by my side
 F G Am 
whatever that implies will be just fine
    F G C F 
My heart beats like a tambourine that plays along in time.

Way To Blue Tabs by Nick Drake

 This is probably one of the saddest, but most beautiful songs ever written, and I
thought deserved at least a half decent tab, something that I hope this is. For the most part
it should be quite close to what he plays, or so far as you can play a piano song on 
guitar. Although the section for the bridge is not the same, i was kind of sick of writing
this tab by the time I got to there, but it fits in anyway.

I'm sorry I couldn't be bothered figuring out the names of all the chords, so I just
labelled their position relative to the words for you. Just learn the song (its too easy!)
then figure out the singing later if that's what you want to do.



Em(1)            Em(2)     Em(3)              Em(4)
Don't you have a word to show what may be done?
Em(1)         Em(2) Em(5) E(1)  C(1)      B(1)  E(2)
Have you never heard a way to find the sun?
E(3)                      B(2)  B(3)
Tell me all that you may know
E(3)                     B(2)   B(3)
Show me what you have to show
Em(6)                 Em(7) Em(8)
Won't you come and say
Em(6)  C(2)     B(4)       B(1)  E(2)
If you know the way to blue?


Have you seen the land living by the breeze?
Can you understand a light among the trees?
Tell me all that you may know
Show me what you have to show
Tell us all today
If you know the way to blue?

E(3)                    B(5)
Look through time and find your rhyme
A                E
Tell us what you find
E(3)            B(5)
We will wait at your gate
A                E
Hoping like the blind



Can you now recall all that you have known?
Will you never fall when the light has flown?
Tell me all that you may know
Show me what you have to show
Won't you come and say
If you know the way to blue?



Intro/verse

     Em(1) Em(2)      Em(3)  Em(5)
e|----7-----5-----|----5-----0----|
B|----8-----6-----|----5-----0----|
G|----9-----7-----|----5-----0----|
D|----------------|---------------|
A|----------------|---------------|
E|----0-----0-----|----0-----0----|

     Em(1) Em(2)      Em(5)   E(1) C(1)      B(1)    E(2)
e|----7-----5------|----5-------0----0---|----5-------4------|
B|----8-----7------|----5-------1----1---|----5-------5------|
G|----9-----8------|------------0----0---|----4-------4------|
D|-----------------|----4----------------|-------------------|
A|-----------------|-----------------0---|----2--------------|
E|----0-----0------|----0-------0--------|------------0------|


CHORUS

        E(3)          E(3)              B(2)    B(3)
e|----5-----4----|----5------4------|----2-------2-----|
B|----5-----5----|----5------5------|----5-------4-----|
G|----4----------|----4-------------|----4-------4-----|  x2
D|---------------|------------------|------------------|
A|---------------|------------------|----2-------------|
E|----0----------|----0-------------|------------------|

    Em(6)  Em(7) Em(8)    Em(6)   C(2)    B(4)        B(1)    E(2)
e|---3------2----2----|----3-------2--------------|----5-------4------|
B|---5------5----1----|----5-------5-------4------|----5-------5------|
G|---4------5----2----|----4-------5-------4------|----4-------4------|
D|--------------------|---------------------------|-------------------|
A|--------------------|------------0--------------|----2--------------|
E|---0------0----0----|----0----------------------|------------0------|


BRIDGE


      E(4)     B(5)            A       E
e|----7--------2----------|----5-------0----------|
B|----9--------5-4--------|----2-------0-4-0------|
G|----9-8------4---4------|----2-------1----------|
D|--------9---------------|-----------------------|
A|-------------2----------|----0------------------|
E|----0-------------------|------------0----------|

Hope this helps, and if it does then enjoy!

Elefanten Chords – Olli Schulz Und Der Hund Marie V2

 Olli Schulz und der Hund Marie – Elefanten


Based on an earlier version of this song.

You may use open chords (except G#m) throughout the whole song if you like the 
sound. It comes close to how Olli plays it in my opinion.

 A      x-0-2-2-0-0
 H      x-2-4-4-0-0
 C#m    x-4-6-6-0-0
 F#     2-4-4-3-0-0


Intro: 
 E  -  A  -  H                               2x

Strophe 1:
 E 
  Kauf dir ein Kleid
 A H 
  Hier nimm mein Geld
 E 
  Kauf dir was schönes
 A H 
  Was dir gefällt

 E 
  Nimm dir ein Taxi
 A H 
  Oder nimm meinen Wagen
 E 
  Was es auch ist:
 G# F# A 
  Du kannst es haben!

 E  –  A  -  H 

Strophe 2:
 E 
  Nun aber los
 A H 
  Hinfort mit dir 
 E 
  Geh zum Friseur
 A H 
  Und zum Juwelier

 E 
  Kauf dir brillanten
 A H 
  Und mach dich schick
 E 
  Flirte mit Männern
 G# F# A 
  Uuund sei glücklich

Bridge:
 C#m A H  
   Die karten liegen offen auf dem Tisch
 F# A H 
  Wir haben sie nie neu gemischt
 C#m A H                  
  Die zeit schreit nach Entscheidung
 F# A H 
  Und mir fehlt irgendwie die Meinung

 E  –  A  -  H C#m  -  A  -  H 

Strophe 3:
 E         
  Wenn du nach haus kommst
 A H 
  Sei bitte nicht bange
 E 
  Ich schlafe ganz friedlich
 A H H 
  Mit dem Föhn in der Wanne

Outro
     C#m A H 
Was müssen das für bäume sein wo die großen 
   C#m A H 
Elefanten spazieren gehen ohne sich zu stoßen?
     C#m A H 
Was müssen das für bäume sein wo die großen 
   C#m A H 
Elefanten spazieren gehen ohne sich zu stoßen?

 C#m  -  A H 
Ohne sich zu stoßen
 C#m  -  A H 
Ohne sich zu stoßen
 C#m  -  A H 
Ohne sich zu stoßen
 C#m  -  A H 
Ohne sich zu stoßen

 H  -  E

Carry My Soul Away Chords – Phil Wickham V3

 This is the song as played on the album Ascension. There are other chords on here, 
but this is the version with updated lyrics and chords. The Album recorded key is 
C#, but the Acoustic Album recorded key is D. Phil plays it using E shapes with 
the guitar turned one whole step down to D (in the acoustic album).

Carry My Soul
Phil Wickham

Intro:  E  -  C#m  -  B  |  E  -  E / G#  -  A 

Verse 1:
                     E 
I want to hear you say well done
               A 
I want to be welcomed in
                      C#m B A 
I want to feel Your love like sunshine on my resurrected skin.

                    E 
I want to hear the music play
                     A 
I want to hear the trumpet sound
                    C#m B A 
I want to hear You call my name, and watch my feet lift off the ground

Chorus:
           E C#m B E E / G# A 
So I will run     Ooh and I won't quit.
              E C#m B E E / G# A 
Chasing your heart, just like David did
                E 
And I'll come running through the gates
 E/G# A 
Look into your face, oh I can hardly wait
           C#m B A 
Until You carry my soul, carry my soul away
           C#m B A 
Until You carry my soul, carry my soul away, oh oh oh

-Intro Chords-

Verse2:
                    E 
When everything is said and done
               A 
And death has met its end
                     C#m B A 
I want to hear You call me son, be counted as Your faithful friend
                     E 
I want to see Your eyes like fire
                    B/D# 
I want to see the scars that bled
               C#m B A 
Oh, won't You take me higher, the place where angels fear to tread

Chorus:
           E C#m B E E / G# A 
So I will run!     Ooh and I won't quit.
              E C#m B E E / G# A 
Chasing your heart, just like David did
                E 
And I'll come running through the gates
 E/G# A 
Look into your face, oh I can hardly wait
           C#m B A 
Until You carry my soul, carry my soul away

Bridge:
             A E B 
And I will keep my lamplight burning in the night
             A E B C#m B 
And I’ll be waiting here for You, watching for all Your signs.
          A E B B/C C#m E/G# A 
If I may be so bold to ask You, would You lend Your ear to me, oh  Lord
      B 
Come quickly,

-Intro Chords-
-Chorus-

When You Were Young Chords – William Fitzsimmons

 |-----------------------------------------------------|
|--Tabbed by Gelnn for ultimate-guitar.com--08-20-13--|
|-----------------------------------------------------|


William plays this songs differently from time to time. 
On the record I believe he plays it in 
C#G#C#F#G#C# tuning (DADGAD lowered one semi-tone). 
On some live versions he plays it in standard tuning.
This tab is a simplified version, very easy to play,
written in DADGAD. If you want to play along with the record 
you will need to lower the whole tuning one semi-tone. Have fun!


[Chords]
Tuning: dadgad

       Bm *    G *    D *    A *   G **
D4|----0----0----0----0----0----|
A3|----0----0----0----0----0----|
G3|----0----0----0----0----0----|
D3|----0----0----0----0----0----|
A2|----9----10---9----7----5----|
D2|----9----9----0----7----5----|



[Verse]

 Bm *  G *
15 months and they would
 D *            A *
Drag you from your throne
 Bm *             G *              A *  A *
But you ain't got no place to go
 Bm *         G *           
You're the bad one from the 
 D *            A *
day you were born
         Bm *          G *                  A *  A *
You can run I don't think that you can hide

Have you found the knife and 
cigarettes inside 
of your locker with your books?
Smoking weed with Joe and 
Rock inside his house
You can run I don't think that you can hide

[Chorus]
 G **          Bm *               A *  A *
Mom wants you to come back home
 G **        Bm *             A *               G **
She keeps crying when I call her on the phone
 G **        Bm *                 A *  A *
Won't you give this thing a chance?
         Bm *            G *                  A *  A *
You were not what you were When you were young
         Bm *            G *                  A *  A *
You were not what you were When you were young

[Verse]
I was fucked up when you 
needed me the most
Trying to starve myself to death
I still feel like I did 
something always wrong
You can run I don't think that you can hide

[Chorus]
Mom wants you to come back home
She keeps crying when I call her on the phone
Won't you give this things a chance?
Cause you were not what you were When you were young
You were not what you were When you were young

Say It To Me Now Tabs by Glen Hansard V3

 Glen Hansard - Say it to me now


To start, a brilliant song! All tabbs I've seen is not completely right. 
So here it goes ;)

The tuning is Open E. to you who dont know how that works:
Tune up your A up to a B, your D up to a E and finally your G up to a G#.
So you'll have E,B,E,G#,B,E

To the tab!


I'm not gonna tab the strumming pattern or when to change chords.
It is pretty simple but with some fast tripplets and fourlets in there. 
To figure it out, just listen to some live performances! 
I wont bother to do that ;)
This is how he plays it live, and I think it's the same as on the cd but 
I hav'nt listened to the cd that much so, I'm not sure.

All the chords I tab IS IN THE RIGHT ORDER.




THE VERSE

 x2
|----0---------0---------0---------0------|
|----12--------12--------12--------12-----|
|----0---------0---------0---------0------|
|----0---------11--------0---------0------|
|----12--------12--------12--------12-----|
|----0---------0---------10--------9------|




THE BRIDGE


|----0----0----0----0----0----0----0----0-----|
|----0----0----0----5----0----0----0----0-----|
|----1----3----4----4----4----3----1----7-----|
|----2----4----5----5----5----4----2----7-----|
|----x----x----x----x----x----x----x----x-----|
|----2----4----5----5----5----4----2----7-----|




THE CHORUS

 x3                          
|----0-----0-----0-----0----|
|----12----13----0-----0----|
|----0-----0-----8-----5----|
|----0-----14----9-----5----|
|----0-----0-----x-----x----|
|----0-----0-----9-----5----|


 after 3 times
|----0-----0----0----0----0----0-----0-----0-----0-----0----|
|----12----0----0----0----0----0-----0-----0-----0-----0----|
|----0-----7----5----0----5----7-----5-----0-----5-----7----|
|----0-----7----5----5----5----7-----5-----5-----5-----7----|
|----0-----x----x----x----x----x-----x-----x-----x-----x----|
|----0-----7----5----5----5----7-----5-----5-----5-----7----|



ENDING

 he plays this softly 2 times     then this
|----0----0----0----0----|     |---0----0----0----0----0----0-------------|
|----0----0----0----0----|     |---7----9----7----5----4----5----------5--|
|----5----0----5----7----|     |---0----0----0----0----0----0--------0----|
|----5----5----5----7----|     |---0----0----0----0----0----0------0------|
|----x----x----x----x----|     |---7----9----7----5----4----5----5--------|
|----5----5----5----7----|     |---0----0----0----0----0----0--0----------|


DONE! comment & play! thanks!

Tender Chords – Blur V2

 There was a pretty good one already on here but there was an E on the chorus
in that one where I've put a C#m, I think this way is correct. There are a
couple of tabs with the intro on too so I won't bother with that. It's best
to just play around with it if you're playing lead. The chords are pretty
basic. The pattern for the verse can be a bit of a pain at first but other
than that it's all very straight forward.

Verse:
 A 
Tender is the night
 G A 
Lying by your side
 A 
Tender is the touch
    G A 
Of someone that you love too much
 A 
Tender is the day
     G A 
The demons go away
 A 
Lord I need to find
 G A 
Someone who can heal my mind

Chorus:
 A D C    
C'mon, c'mon, c'mon,     get through it
 A C#m D 
C'mon, c'mon, c'mon,     love's the greatest thing
(Repeat once) 

 C#m D 
That we have
 C#m D 
I'm waiting for that feeling
 C#m D 
Waiting for that feeling
 A G A 
Waiting for that feeling to come

Grahams bit : 2x
       A E A 
Oh my baby, oh my baby, oh why, oh my

Verse:
Tender is the ghost
The ghost I love the most
Hiding from the sun
Waiting for the night to come
Tender is my heart
I'm screwing up my life
Oh Lord I need to find
Someone who can heal my mind

Repeat Chorus

Repeat Grahams bit

Verse:
Tender is the night
Lying by your side
Tender is the touch
Of someone that you love too much
Tender is my heart tonight
I'm screwing up my life
Oh Lord I need to find
Someone who can heal my mind

Repeat Chorus

Repeat Grahams bit 6x

Damon plays the chords barred but I think the B and high E strings are open.
That sounds great if you've got the full band playing but if it's just one
guitar, you're better off sticking to the standard chords. 

Jealousy And I Chords – Torres

 ----------------------------------------------------------------------------
                             Jealousy and I - Torres
-----------------------------------------------------------------------------
Tabbed by: Daysleeper_05
Tuning: Standard

Capo 1
With Reverb and Delay

Ms. Scott tends to play without a pick. With this in mind, here is the picking
pattern for the intro, which continues throughout the rest of the song: 

e|-----------------1-----------------------1--------------------|
B|-----------3-----------3-----------3-----------2--------------|
G|-----2-----------------------2--------------------------------|
D|--0-----0-----0-----0-----0-----0-----0-----0-----0-----------|
A|--------------------------------------------------------------|
E|--------------------------------------------------------------|

e|-----------------0-----------------------3--------------------|
B|-----------1-----------1-----------0-----------0--------------|
G|-----0-----------------------0--------------------------------|
D|--------------------------------------------------------------|
A|--3-----3-----3-----3-----------------------------------------|
E|--------------------------3-----3-----3-----3-----------------|

e|-----------------0-----------------------0--------------------|
B|-----------1-----------1-----------1-----------1--------------|
G|-----2-----------------------2--------------------------------|
D|--------------------------------------------------------------|
A|--0-----0-----0-----0-----0-----0-----0-----0-----0-----------|
E|--------------------------------------------------------------|

For the "'Cause Jealousy and I, we're two of a kind" part, she plays
G, Am, and F as full bar chords, which I have not reflected in the notation. 
The same goes for the "I'll never let her go" part.

Intro:
|  Dm Dm  |  C G  |  Am Am  | x2

 Dm C 
What am I supposed to say babe?
 G Am 
I'll be up all night to tell the truth
 Dm C 
Would you really have a stranger in your bed
             G Am 
Rather than let someone like me take care of you?
 Dm C 
It's no one's problem but my own
   G Am 
I think I've always cared too  much
 Dm C 
I'm suffocating you, I know
               G           
It's just the only way I know to 
 Dm C G   
 Love        know to
 Dm C G 
 Love

[pause]

 Dm C 
Jealousy it's me sometimes
     G Am 
But I don't mind, no I don't mind
 Dm C 
Jealousy it's me sometimes
     G Am 
But I don't mind, no I don't mind
        G Am G F 
'Cause jealousy and I
 G Am G F 
We're two of a kind and she's all 
 Dm C G  
 Mine          She's all
 Dm C G  
 Mine

 Dm C 
You don't owe me anything
            G Am 
But you've got to spell it out for me
 Dm C 
'Cause if you're saying things that you don't mean
                G                   
Then you don't really want me at your
 Dm C G  
 Feet           At your
 Dm C G  
 Feet

[pause]

 Dm C 
Jealousy it's me sometimes
     G Am 
But I don't mind, no I don't mind
 Dm C 
Jealousy it's me sometimes
     

Love This Acoustic Chords – Cosmo Jarvis V2

 someone had chords up for the recorded version but the way he plays it acoustic is 
a bit different. so heres the chords.


so; capo 4th

verse chords are:

 Em :  022000
 C :   032010
 D/F# :200230
 G :   320003

then pre and chorus use:

 Am :   002210
 G *:   320030
 D/F# : 200230
 C *:   032030


so pretty simple chords. there's slight variations in the song so listen and you'll pick it up. 






 Em C D/F# G       E:--3-2-->  Em 
If I should see you in the sky

 Em C G D/F#                    E:--3-4-->  Am 
I will look up, I will look up with some delight

 Am G *          D/F# C *
I'll probably ask you shit you heard a million times

 Am G *        D/F# C *  
How many parts of things I do would you consider crimes?


 Em C D/F# G 
I'll ask you which way I should go

 Em C G D/F#                 E:--3-4-->  Am 
Even if you answer I won't trust you in my soul

 Am G *         D/F# C *
I'm only human, I watch stories on TV

 Am G *          D/F# C * *hold
They give me an ending when an ending's all I need




 Am G *    D/F# C Am G *  D/F# C  
You don't know how much I love this

 Am G *   D/F# C Am G *  D/F# C  
You don't know how much I love this



(same as above)

So many lines I've had to cross
Don't want to belong to a club with such a lenient boss
Get your ass down here reprimand me for my sins
How can I know reason if no reason's why I've been

How come every man aint good?
If it happened overnight would you retired if you could?
If I believe in heaven I deny myself a death
Dying keeps my conscious of the way I waste my breath

You don't know how much I love this (x 4)

So you'll tell me how it is
But what if how it is does not agree with how I live?
Should I admit the path I'm on is not the best?
Should I join your super highway cos you say that it's correct?

Just want an answer I can trust
Things I should be doing aint the same as things I must
Tony Soprano is a teacher I respect
He's always been there when I take a nasty step

You don't know how much I love this (x 4)

So I don't think we should confer
Let's just grab a cup of coffee, get fair trade if you'd prefer
You'll look at me ways that I've never looked at you
and I'll step back still wondering what you're thinking I should do

You don't know how much I love this (x 4) 





so yeah thats it. hope its legible. feel free to correct if i stuffed up.
cheers, 
Axel 

lyrics thanks to: http://songmeanings.com/songs/view/3530822107859433408/

What Love Means Chords – Everfound V2

 riff 1:
E| ----------------------11-11---------|
B| 8-8-9-9-11-11-8-8-9-9-------9-9-8-8-|
G| ------------------------------------|
D| ------------------------------------|
A| ------------------------------------|
E| ------------------------------------|

riff 2:
E| -------------------------------------------------------------------------|
B| 8-8-8-8-8--8-8--8-8--8-8-8-8-8--8--8--8--8---8--8---8--8---8--8--8--8----|
G| 8-8-8-8-8--8-8--8-8--8-8-8-8-8--8--8--8--8---8--8---8--8---8--8--8--8----|
D| 8-8-8-8-8--8-8--8-8--8-8-8-8-10-10-10-10-10--10-10--10-10--10-10-10-10---|
A| 6-6-6-6-6--6-6--6-6--6-6-6-6---------------------------------------------|
E| -------------------------------------------------------------------------|

E| -------------------------------------------------------------------------|
B| 8-8-8-8-8--8-8--8-8--8-8-8-8-9-9-9-9-9-9-9-9-----------------------------|
G| 8-8-8-8-8--8-8--8-8--8-8-8-8-8-8-8-8-8-8-8-8-----------------------------|
D| 6-6-6-6-6--6-6--6-6--6-6-6-6-6-6-6-6-6-6-6-6-----------------------------|
A| -------------------------------------------------------------------------|
E| -------------------------------------------------------------------------|

When the E-Guitar plays, the chords are played like that:
Ab: 4 6 6 x x x
Bb: 6 8 8 x x x
Eb: x 6 8 8 x x
Cm: 8 10 10 x x

Intro:
7x riff 1
After the third time riff the 2.guitar plays the chords
 Eb - Cm - Ab - Ab 
Every Chords played to one time riff 1


Verse 1:
            Eb Cm 
There's no Life, There's no death.
          Ab 
There no height, that can stand in Your way
          Eb Cm 
Not even doubt, or my mistakes.
               Ab 
You broke the walls, and tore apart the veil.


[Chorus]:
                          Eb 
And what can separate us now
                    Bb Cm 
You gave away Your life, The greatest sacrifice,
                   Ab Eb 
You did it all so I can know what love means.
                         Bb Cm 
There's nothing good in me, but you see what I can't see.
                                                     riff 1
                         Ab Eb 
And through it all Your cross shows me what love means.

riff 1            riff 1 2x
 Cm Ab 
   What love means


Verse 2:
           Eb Cm 
Afraid no more, Oppress no more.
        Ab 
By His wounds, I am in chains no more.
                 riff 2
My strength My freedom, My lasting hope.

I lift my eyes, 'Cause Love has one the war.

[Chorus]:
                          Eb 
And what can separate us now
                    Bb Cm 
You gave away Your life, The greatest sacrifice,
                   Ab Eb 
You did it all so I can know what love means.
                         Bb Cm 
There's nothing good in me, but you see what I can't see.

                         Ab Eb 
And through it all Your cross shows me what love means.


Bridge:
                   Bb Cm 
Love comes with a price, You paid with your life.
                  Ab Eb 
So I'll give you mine, I'll give you mine.
                   Bb Cm 
Love comes with a price, you paid with your life.
                  Ab Eb 
So I'll give you mine, I'll give you mine.


[Chorus]:
                    Bb Cm 
You gave away Your life, The greatest sacrifice.
                                            riff 1
                   Ab Eb 
You did it a

Let It Ride Tabs by Bachman Turner Overdrive V2

 B.T.O.\Let it Ride

I got tired of seeing all the bogus tabs for this one
online; nearly all of which are actually the chords 
(NOT the tab) and the wrong chords, at that, and
none with the solo. Here's how Randy plays it:

Chords:
There are two guitars but the one that makes 
the riff distinctive uses this sequence:

|-10------9-----12----9-------9-7----------------------|
|-10-----10-----12----9h10----7-7----9h10--------------|
|-11------9-----13----9h11----7-7----9h11--------------|
|-12-----11-----14----9--------------9h11--------------|
|------------------------------------------------------|
|------------------------------------------------------|

|-10------9-----12----9-------9-7----------------------|
|-10-----10-----12----9h10----7-7----------------------|
|-11------9-----13----9h11----7-7----------------------|
|-12-----11-----14----9--------------4(x)4(x)4---------|
|------------------------------------4(x)4(x)4-2h4-----|
|------------------------------------2(x)2(x)2---------|


Solo:

|-----2------------0-7p4-------------------------------|
|-------5p2-------------5--5-4-4-2p0-------------------|
|-4b6------4p2-----------6----------2-4-2-1------------|
|-------------4-4--------------------------2s4---------|
|------------------------------------------------------|
|------------------------------------------------------|

|------------------------------------------------------|
|------------------------------------------10-9--------|
|-----9--9-11b14-11b14-11b14--11b12b11-9--------11-9-7-|
|-9s11-11--------------------------------12------------|
|------------------------------------------------------|
|------------------------------------------------------|


|--------------2p0-------------------------------------|
|-----------------2------------------------------------|
|-7h9p7-6-6-4b6----2-4-2-2-4s13b14r--------------------|
|-----------------------4------------------------------|
|------------------------------------------------------|
|------------------------------------------------------|

Drift And Die Acoustic solo Tabs by Puddle Of Mudd

 This is the solo of Drift and Die played on the Striking That Familiar Chord DVD by
Puddle of Mudd. He plays it on an acoustic guitar so the bends may be a little hard. I spent
a long time listening in slow motion and learning this, so it is 100% accurate, I 
guarantee. He also plays it tuned 1/2 down, but this tab is used for guitars in standard
tuning. Really easy once you get the hang of it

e|--9--9--7--9~~~~9--7--7-------------9--7--------------6-------------|
B|------------------------------7--9-------9--8-7-------7-------------|
G|------------------------------------------------9--6--9-------------|
D|--------------------------------------------------------------------|
A|--------------------------------------------------------------------|
E|--------------------------------------------------------------------|

e|----------------------------------------------12--------------------|
B|-9----9---------------------------12b14-12b14---12b14—b14b14-14r12--|
G|-9-11-9--11-9-11---9-99—11-1111-13--------------------------------13|
D|---------11-9-11----------------------------------------------------|
A|--------------------------------------------------------------------|
E|--------------------------------------------------------------------|

e|-13b1414141414b1515r------------------------------------------------|
B|--------------------14----------------------------------------------|
G|--------------------------------------------------------------------|
D|--------------------------------------------------------------------|
A|--------------------------------------------------------------------|
E|--------------------------------------------------------------------|

e|-12-12-9----9-9-----------------------------------9-------9---------|
B|---------12------12-9-12-12---------------9------9-------9----------|
G|-----------------------------13-11-13-11b---11b13---11b13-----------|
D|--------------------------------------------------------------------|
A|--------------------------------------------------------------------|
E|--------------------------------------------------------------------|

e|--------------------------------------------------------------------|
B|-12-9---9-----------------------------------------------------------|
G|-----11----11b13-11--9---11----9-9h119h11--9----9---6-4-6-4---------|
D|-----------------------11---11---------------11--------------s4-3---|
A|--------------------------------------------------------------------|
E|--------------------------------------------------------------------|

*Interlude solo*

e|---------—------6-7-6h7p6--6----------------------------------------|
B|----------6-7-9--------------9-7--6-7-6h7p6--7-6-7-7h9--------------|
G|------6-8-----------------------------------------------------------|
D|--6-8---------------------------------------------------------------|
A|--------------------------------------------------------------------|
E|--------------------------------------------------------------------|

e|---------—----------------------------------------------------------|
B|-9-10-12-10-9-10-9h10p9---------------------------------------------|
G|------------------------11-10-11-10--11-10b12--------11-10b12-------|
D|----------------------------------------------11-9~~~---------11-9--|
A|--------------------------------------------------------------------|
E|--------------------------------------------------------------------|

e|---------—----------------------------------------------------------|
B|-----------------------------------------------9-9-10-10-12-12b14~~~|
G|-11-10b12------11-10b12------------10-10-11-11----------------------|
D|----------11-9----------11-9-11~~~----------------------------------|
A|--------------------------------------------------------------------|
E|--------------------------------------------------------------------|

e|-131313--—---------------------12-------------

Out Of Your Hands Live Chords – Jason Mraz

 This is my first tab. Hope you like it :)

Note: Sometimes he plays the chords a little different. He does that with the C --
> C7 and the D --> Dsus4. You really have to watch the video for that: 


Capo 3

Oooh...
 Em Em C G  2x

 Em Em C G 
You went walking away, into the sun
 Em Em C G 
How romantic, no i knew we were done

                    Em Em C G 
Was it something I said, something I did, it must be over my head
                      Em Em C C 
I didn't quite understand it, now it's out of my hands, it's out of my hands

 Em Em C G  
I am sorry for the way you was feeling about yourself, every day
 Em Em C G 
Baby you needed me to make it, so you can keep on running away

                     Em Em C G 
Was it something I said, something I did, it must be over my head
                       Em Em C C 
I didn't quite understand it, now it's out of my hands, it's out of my hands

           G G D D  
When it feels like life has gotten out of control,
           Em Em C C  
when it feels like much too much to hold
           G G D  
When it feels like too much to understand

 B7 Em C G  
Know, that's out of your hands, out of your hands, out of your hands

ooohhh
 Em Em C G  4x

                     Em Em C G 
Was it something I said, something I did, it must be over my head
                       Em Em C C 
I didn't quite understand it, now it's out of my hands, it's out of my hands

          G G D D  
When it feels like life has gotten out of control,
           Em Em C C  
when it feels like much too much to hold
           G G D  
When it feels like too much to understand
 B7 Em C G  
Know, that's out of your hands, out of your hands, out of your hands
 B7 Em C G  
Know, that's out of your hands, out of your hands, out of your hands

ooohhh...
 Em Em C G  4x 

Disarm Tabs by The Civil Wars

 The Civil Wars
Disarm by The Smashing Pumpkins Cover
The Civil Wars

Tabbed by: Aaron91

Tuning: Standard
Capo: 7th Fret

Picking Pattern:

  Am                          F
|--------0---0-----0---0------------0---3p0---0---0---------0---0--|
|--0h1---------1--------------0h1---------------------0h1----------|
|------------------------------------------------------------------|
|------2---2-----2---2------------3---3-----3---3---------2---2----|
|--0-----------0--------------0-----------------------3------------|
|------------------------------------------------------------------|

   C
|--------0---0-----0---0------------0---0-----0---0--|
|--0h1---------1--------------1-----------1----------|
|----------------------------------------------------|
|------2---2-----2---2------------0---0-----0---0----|
|--3-----------3--------------2-----------2----------|
|----------------------------------------------------|

That riff is played throughout most of the song (intro, verse, outro). There is, 
however, a section with barre chords,
which I believe is the last chorus.

I believe that the strumming pattern above holds true to the chorus as well, with the 
exception of the last one
    F  G  Am
|---1--3--5---|
|---1--3--5---|
|---2--4--5---|
|---3--5--7---|
|---3--5--5---|
|---1--3--5---|

If you want, you can play the G and Am chords normally, but the barre chords are the way 
that JPW plays it.

==Verse==
Disarm you with a smile
And cut you like you want me to
Cut that little child
Inside of me and such a part of you
The years burn
Ooh, the years burn

==Chorus==
I used to be a little boy
So old in my shoes
And what I choose is my choice
What's a boy supposed to do?
The killer in me is the killer in you
My love
I send this smile over to you

==Verse==
Disarm you with a smile
And leave you like they left me here
To wither in denial
The bitterness of one who's left alone
Ooh, the years burn
Ooh, the years burn, burn, burn

==Chorus==
F              G      Am
I used to be a little boy
   G         F
So old in my shoes
F                 G     Am
And what I choose is my voice
         G               F
What's a boy supposed to do?
G             Am                  F
The killer in me is the killer in you
   G
My love
            Am            F
I send this smile over to you
G             Am                  F
The killer in me is the killer in you
   G
My love
            Am            F
I send this smile over to you

==Outro==
The killer in me is the killer in you
Send this smile over to you




Leave comments and recommend changes if you'd like! I know this is not perfect, so any 
help would be appreciated!

Cheers!