Tag: Promise

I Promise chords by Radiohead ver 2

[Chords]
E: 022100  or 079900
Esus4: 022200
E6: 022120
B: x24442
B7: x24242

[Intro]
     E
e|------------------------------------------------|
B|------------------------------------------------|
G|------------------------------------------------|
D|------------------------------------------------|
A|---11----9-----11--9------11-9-9-9--------------|
E|----0----0--0--0---0--0----0-0-0-0--------------|

     Esus4
e|------------------------------------------------|
B|------------------------------------------------|
G|------------------------------------------------|
D|------------------------------------------------|
A|---12---11----12--11-----12-11-11-11------------|
E|----0---0--0--0---0--0----0-0--0--0-------------|

     E                               E
e|-----------------------------------0------------|
B|-----------------------------------0------------|
G|-----------------------------------9------------|
D|-----------------------------------9------------|
A|---9---7-----9---7-------9-7-7-7---7------------|
E|---0---0--0--0---0--0----0-0-0-0---0------------|

[Intro]
E   Esus4   E   2x

[Verse 1]
E                   E6       E        Esus4   E
I won't run away no more - I promise 
E               E6        E        Esus4   E
Even when I get bored - I promise
B                     B7      E        Esus4   E
Even when you lock me out - I promise
B                    B7        E        Esus4   E
Say my prayers every night - I promise
 
[Verse 2]
E                      E6        E        Esus4   E
I know which side I'm spread - I promise
    E                       E6       E        Esus4   E
The tantrums and the chitty chat - I promise
B                     B7          E        Esus4   E
Even when the ship is wrecked - I promise
B                     B7       E         Esus4   E
Tie me to the rotting mast - I promise

[Break]
E

[Verse 3]
E                   E6       E        Esus4   E
I won't run away no more - I promise
E               E6        E        Esus4   E
Even when I get bored - I promise
B                     B7          E         Esus4   E
Even when the ship is wrecked - I promise
B                     B7       E         Esus4   E
Tie me to the rotting mast - I promise

[Outro]
E

[Reprise]
E                   E6       E
I won't run away no more - I promise . . .

I Promise chords – Harris Jayaraj

     G
I promise anytime You call me 
    G 
It don't matter where I am

                D 
I'll always be there
   D 
Like You've been there
                     Em 
If You need Me close
 Em 
I'll be right over
   C 
I swear, I swear

 Em
Every time that
           C
I need you by my side
                                     D 
every time I lose my way in life
   D 
you 're my circle of life
   Bm 
compass and guide
   C 
there behind me

   Em 
and one day when
                    C 
the tables finally turn
                                     D 
and its me youre depending on
   D 
ill put you first
   Bm 
hold you close
 C
like you taught me

know that ill be there for you
for you

CHORUS :

            G 
I promise anytime You call me 
 G 
It don't matter where I am
               D 
I'll always be there
   D 
Like You've been there
                  Em 
If You need Me close
 Em
I'll be right over
 C
I swear, I swear


              G 
I promise anytime You call me 
    G 
It don't matter where I am
            D      
I'll always care for you
   D 
go anywhere for you
                    Em 
If You need Me close
 Em
I'll be right over
 C
I swear, 

   Em 
there are days when i just
                 C 
dont want to talk
                            D 
and your feelings hit a wall
   D 
but that wont change
      ---------------------------------------------------|
B|------12-10-12---------------------------15--12h14----12-------------------------------------|
G|------------------11\9-----------------------------------14-9h11-9h11-9h11-------------------|
D|-----------------------12-9------------------------------------------------12-11-12----------|
A|---------------------------------------------------------------------------------------9-7-9-|
E|---------------------------------------------------------------------------------------------|

e|-------------15-14-12--------------12-14----------14-12----------12--------------------------|
B|-------12-15--------------15-14-15----------14-15----------12-14---15-----12-15-14-15-12-----|
G|-12-14------------------------------------------------------------------14-------------------|
D|---------------------------------------------------------------------------------------------|
A|---------------------------------------------------------------------------------------------|
E|---------------------------------------------------------------------------------------------|

e|-------------------------------------------------------------------------------------------------------|
B|-15p14-12----17b18-17-15----17b18-17-15----17b18-17-15----17b18-17-15---------15----17----15--------19-|
G|----------------------------------------------------------------------------16----18----------18-16----|
D|-------------------------------------------------------------------------------------------------------|
A|-------------------------------------------------------------------------------------------------------|
E|-------------------------------------------------------------------------------------------------------|



************************************

| /   slide up
| \   slide down
| h   hammer-on
| p   pull-off
| ~   vibrato
| +   harmonic
| x   Mute note
| b   Bend
| pb  Pre-bend
| br  Bend release
| pbr Pre-bend release
| brb Bend release bend

************************************

The Promise Acoustic chords – Emma Blackery

 Ok so this is my first tab and I think I got a few chords wrong but basically this is an easy way to play 
The Promise (It's pretty much just  G D Em D  throughout the whole song)

Intro:  G  x4

 G D 
Today you don't wanna get out of bed
                                    Em 
There are so many thoughts in your head
               D 
Like you'd be better off dead better off dead
                  G D 
Well let me tell you there's a whole world waiting for you
                               Em 
It's hard to believe but it's true - woah
         D 
So just hold on for me hold on for me

'Cause I believe
 G D 
If you go my heart would break
      Em D  (single strum)
Just hold on one more day

        G D Em 
'Cause you are so beautiful - woah
   D 
I promise you this, I promise you this
             G D Em 
And you are more than capable - woah
      D Em G  (single strum)
Just believe in yourself when nobody else is listening
     G D 
And I may not even know your name
                                 Em 
But I promise you I've felt the same
    D 
As you do right now you'll make it somehow
             G D 
And even if you feel as though you have no friends
                                 Em 
Except the blade that cuts your skin
        D 
You're better than this, you're worth more than this
               G D Em D 
And I believe if you go my heart would break just hold on one more day

        G D Em 
'Cause you are so beautiful - woah
   D 
I promise you this I promise you this
             G D Em 
And you are more than capable - woah
        D 
Just believe in yourself when nobody else is listening

    G D Em D 
And if you go I think my heart would break
    G D Em D 
And if you go I think my heart would break

        G D Em 
'Cause you are so beautiful - woah
   D 
I promise you this, I promise you this
                G D Em 
I promise that you are so beautiful - woah
   D      
I promise you this, I promise you this
             G D Em 
And you are more than capable - woah
        D 
Just believe in yourself when nobody else is listening
 G D Em 
You are so beautiful whoa oh
   D 
I promise you this, I promise you this
             G D Em 
And you are more than capable, whoa oh
        D G D Em D  (3 single strums)  G  (single strum)  
Just believe in yourself when nobody else is listening

Adam Peyman – I Promise chords

 D G D D 
Honey dry your tears cuz I will always be here next to you
 D G D D 
Darlin’ stop your fearin’ I am being sincere and it’s true

 A A D D 
I promise I promise I promise I promise I promise to you
 E G D D 
I will always love you respect you be faithful and honest to you

 D G D D 
I never thought that I would find myself such a wonderful girl
 D G D D 
So baby settle down with me I want nothing more in the worl

 A A D D 
I promise I promise I promise I promise I promise to you
 E G D D 
I will always love you respect you be faithful and honest to you

 D G D D A A D D 
I promise I promise I promise I promise I promise to you
 E G D D 
I will always love you respect you be faithful and honest to you
 E G D D 
I will always love you respect you be faithful and honest to you

A Man Of Great Promise chords – Style Council

 A Man Of Great Promise - The Style Council, Our Favourite Shop (1985)

Words and Music by Paul Weller

 Ryan Chan

This version is based on the acoustic performances of the song by Paul Weller. 

Capo on second fret although on studio version does not have a capo.

Chords:

 Em     (022000)
 Am     (x02210)
Am7   (x02010) or (x02013)
 D      (xx0232) or  D7  (xx0212)
 G      (320033)
G/F#  (2x0033) or (2x023x)
 G7     (320001)
 Cmaj7  (x32000) or  C  (x32010)
 Bm     (x24432) or  D  (xx0232)
B7    (x21200) or (x21202) or (x24242)


Intro:

 Em Am Am7 D G G/F# 

Verse 1 :

 Em Am Am7 
I bought the paper yesterday
       D G G/F# 
And I saw the obituary
       Em Am Am7 
And I read of how you died in pain
      D G G/F# 
Well I just couldn't understand it
    Em Am Am7 
If I could of changed that
      D G G/F# 
Then Lord knows I'd do it now
     Em Am Am7 
But there is no going back
            D G G7 
And what's done is done forever 


Chorus 1:

 Cmaj7 Bm  
But you were always chained and shackled by the dirt
 Am B7 
Of every small town institution and every big town flirt 


Solo:

 Em Am Am7 D G G/F#  x2


Verse 2

       Em Am Am7 
And I think of what you might have been
   D G G/F# 
A man of such great promise
          Em Am Am7 
Oh but you seem to forget the dream
         D G G/F# 
And the more you saw you hated
           Em Am Am7 
But let's not talk of the blame
     D G G/F#            
For what is only natural
        Em Am Am7 
Like a moth going to a flame
     D G G7 
You had a dangerous passion


Chorus 2:

 Cmaj7 Bm  
But you were always chained and shackled by the dirt
 Am B7 
Of every small town institution and every big town flirt 


Outro:

 Em Am Am7 
All the things that you might have been
     D G G/F# 
But who am I to say?
         Em 
Still I wonder
         Am D G G/F# Em 
If it's in the cold earth you prefer to lay
         Am D G G/F# Em 
If it's in the cold earth you prefer to stay


 Am D Em

I Will Be Here chords – Steven Curtis Chapman V6

 I Will Be Here
Steven Curtis Chapman


Intro:

 D G/D D Dmaj7 G/D 


Verse 1:

 D A/C# Bm A G D/F# 
Tomorrow morning if you     wake up and the sun   does not appear
 Em Asus D Dmaj7 G/D 
I,         I will be here
 D A/C# Bm A G D/F# 
If in the dark, we lose sight of love, hold my hand and have no fear
        Em Asus D A/C# 
‘Cause I,       I will be here


Chorus 1:

            Bm A E/G# A 
I will be here     when you feel  like being quiet
 G D/F# G D/F# Em 
When you need to speak your mind, I     will listen
     F# Bm A E/G# A G 
And I will be here     when the laughter turns to crying
              D/F# G D/F# Em Asus - A 
Through the winning, losing and trying, we’ll be together
                   D 
‘Cause I will be here


Interlude:

 D G/D D Dmaj7 G/D 


Verse 2:

 D A/C# Bm A G D/F# 
Tomorrow morning, if you  wake up, and the future is unclear
 Em Asus  -  A D Dmaj7 G/D 
I,            I will be here
 D A/C# Bm A G D/F# 
As sure as seasons were made  for change our lifetimes were made for these years
    Em Asus D A/C# 
So I,        I will be here


Chorus 2:

            Bm A E/G# A 
I will be here,    so you can cry   on my shoulder
 G D/F# G D/F# Em 
When the mirror tells us we’re older, I     will hold you
     F# Bm A E/G# A 
And I  will be here    to watch you grow in beauty
 G D/F# G             
And tell you all   the things you mean to me
 D/F# Em F#sus - F# 
I will be here


Coda:

 Bm A E/G# A G D/F# 
I   will be true  to the promise I have made
     G D/F# Em Asus  –  A Asus  –  A 
To you and to    the One who gave you to    me
          D A/C# 
Just as sure as seasons were made for change
       Bm A G D/F# 
Our lifetimes were made for these years
    Em Asus  –  A F#7sus  –  F#7 Bm A 
So I,            I           will be here
       Em Asus  –  A  
We’ll be together
                   D G/D D 
‘Cause I will be here
 G/D D G/D Asus4 
  I will be here

Samuel Mendonca-amazed chords – Misc Your Songs

 Amazed
Samuel Mendonҫa
--------------------------------

Verse 1
 Bm G 
In the waves of the ocean
 D F#m 
In the rays of the sun
 Bm G 
In my hopes and my failures 
 D F#m 
When I'm trying to run

Pre-Chorus
         Bm G D A 
I will stand, amazed, by You
         Bm G D A 
I will stand, amazed, by You

Tag  Am F C Em 

Verse 2
 Bm G 
When I'm weak and I'm doubting
 D F#m 
When I seek but I fear
 Bm G 
I will stand on Your promise
 D F#m 
I will know You are near

Pre-Chorus
         Bm G D A 
I will stand, amazed, by You
         Bm G D A 
I will stand, amazed, by You

Chorus 
(Because)
       Bm G 
I am nothing without Your love (and)
        D A 
I am nothing without Your son 
             Bm G 
And I will give it all
         D A 
Just to be Yours 

Interlude  Am F C G 

Bridge 
 Bm G 
Take my hand and I'll go 
 D A 
Take my heart and I'll know

(Chorus)

How Nothing Feels Tabs by Promise Ring

 -----------------------------------------------------------------------------
                             HOW NOTHING FEELS - The Promise Ring
-----------------------------------------------------------------------------
So this is pretty basic, its just a simple melody over the same chords of Nothing Feels 
Good. The melody is on a piano (and I think the right hand plays the chords softly as 
well) and the chords are played on an acoustic.

Tuning: Standard
                                      x2
e|-7-8-|-------------12-10----------7-8-|-------------8--7------------14--|
B|-----|-10-----------------------------|-10------------------------------|
G|-----|--------------------------------|---------------------------------|
D|-----|--------------------------------|---------------------------------|
A|-----|--------------------------------|---------------------------------|
E|-----|--------------------------------|---------------------------------|
 |                                                                        |
e|-----|--------------------------------|---------------------------------|
B|-----|--------------------------------|---------------------------------|
G|-4-4-|-2---2---2---2-2-4---4---4---4-4|-2---2---2---2-2-4---4---4---4-4-|
D|-5-5-|-3---3---3---3-3-5---5---5---5-5|-3---3---3---3-3-5---5---5---5-5-|
A|-5-5-|-3---3---3---3-3-5---5---5---5-5|-3---3---3---3-3-5---5---5---5-5-|
E|-3-3-|-1---1---1---1-1-3---3---3---3-3|-1---1---1---1-1-3---3---3---3-3-|


e|-15-----------------------------|-----(7)(8)---8--7-----------7-8-|
B|--------------------------------|-10------------------------------|
G|--------------------------------|---------------------------------|Fade...
D|--------------------------------|---------------------------------|
A|--------------------------------|---------------------------------|
E|--------------------------------|---------------------------------|
 |                                    *(ghost notes, not harmonics) |
 |                                                                  |
e|--------------------------------|---------------------------------|
B|--------------------------------|---------------------------------|
G|-2---2---2---2-2-4---4---4---4-4|-2---2---2---2-2-4---4---4---4-4-|
D|-3---3---3---3-3-5---5---5---5-5|-3---3---3---3-3-5---5---5---5-5-|
A|-3---3---3---3-3-5---5---5---5-5|-3---3---3---3-3-5---5---5---5-5-|
E|-1---1---1---1-1-3---3---3---3-3|-1---1---1---1-1-3---3---3---3-3-|

Anne You Will Sing Tabs by Promise Ring

 -----------------------------------------------------------------------------
                           ANNE YOU WILL SING - The Promise Ring
-----------------------------------------------------------------------------
Well this is my favorite song by TPR so I thought I'd try to tab it out. 

Tuning: Standard


Beginning:
e|---------------------------|
B|-4------------4------------|
G|-----4-------------4-------|
D|---------------------------|
A|---------------------------|
E|---------------------------|

Intro/Verse:
e|------------------------------------------------------------------------|
B|------------------------------------------------------------------------|
G|-9-99-99-99-99-99-8-89-911-119-99-99-8-88-88-88-88-888-88-88-88-88-88---|
D|-9-99-99-99-99-99-9-99-9-9-9-9-99-99-x-xx-xx-xx-xx-xxx-xx-xx-xx-xx-xx---|
A|-7-77-77-77-77-77-6-66-6-6-6-6-66-66-6-66-66-66-66-666-66-66-66-66-66---|
E|-------------------------------------4-44-44-44-44-445-55-55-55-55-55---|
 |                                                                        |
e|------------------------------------------------------------------------|
B|------------------------------------------------------------------------|
G|-9-99-99-99-99-998-88-88-88-88-8813-1313-1313-1313-1313-1311111111111111|
D|-9-99-99-99-99-999-99-99-99-99-99x--x-x--x-x--x-x--x-x--x-x-xx-xx-xx-xx-|
A|-7-77-77-77-77-776-66-66-66-66-6611-1111-1111-1111-1111-119-99-99-99-99-|
E|------------------------------------------------------------------------|

Bridge:           x1                 x3
e|------------------|------------------|
B|------------------|------------------|
G|-888-9999-99-9999-|-888-9999-99-9999-|
D|-xxx-777x-xx-xxxx-|-xxx-777x-xx-xxxx-|
A|-666-0007-77-7777-|-666-0007-77-7777-|
E|--------0-00-0000-|--------0-00-0000-|
 |                                     |
e|------------------|------------------|
B|------------------|------------------|
G|------------------|-444-222----------|
D|--------2-22-2222-|-444-2222-22-2222-|
A|--------2-22-2222-|-222-0002-22-2222-|
E|--------0-00-0000-|--------0-00-0000-|

Interlude:
G|---------------------------------------------------------|
D|---------------------------------------------------------|BASS
A|---0-4----0-4----0-4----0-4----0-7----0-7----0-7----0-7--|
E|-0------0------0------0------0------0------0------0------|
 |                                                         |
e|--------------------------------------------------7------|
B|-----------------------------------------------9---------|GTR I
G|---------------------------------9-----------------------|
D|---------------------------------------------------------|
A|-----7---------------------------7-----------------------|
E|-0-0-0-----------------------0-0-------------------------|
 |                                                         |
e|---------------------------------------------------------|
B|---------------------------------------------------------|GTR II
G|---------------------------------------------------------|
D|---------------------------------------------------------|
A|-----4---------------------------7----------------7/9-9--|
E|-0-0-0-----------------------0-0-0----------------0---0--|


G|---------------------------------------------------------|
D|---------------------------------------------------------|BASS
A|---0-4----0-4----0-4----0-4----0-7----0-7----0-7----0-7--|
E|-0------0------0------0------0------0------0------0------|
 |                                                         |
e|-------------------7-------------------------------------|
B|-----9--------------------9------------------------------|GTR I
G|------------6--------------------6------6/4---4/6--------|
D|---------------------------------------------------------|
A|---------------------------------------------------------|
E|---------------------------------------------------------|
 |                 

Promise chords – Sirius

 Not completely sure if it's 100% correct, but it should be alright.
Didn't find any chords for this so i did my best to figure it out by ear.
Please leave ratings and comments :)


[Chorus]
             Am F 
This much I promise
                                 C 
You ain't gotta cry no more for me
                   G 
I'm gonna make it easy for you
             Am F 
This much I promise
                                       C 
You ain't gotta deal no more with the guilt
                           G 
I'll die before I let you kill me
               Am 
This much I promise



[Verse 1]
               Am 
Look, we made promises, honestly I don't know what happened
    F 
It seems that we came to a point we stopped laughing
 C 
You never see it coming, it's like a slap in the face
 G 
A cold shower, we must have tapped the breaks
 Am F 
And they say when a door close another one opens
                                               C 
I was running towards the first one trying to hold it

Hopeless
 G 
I guess that I was too blind to notice
               Am 
Now I let you go knowing everything is OK
                F 
Knowing if you stayed it would probably give us more pain
               C 
I'd rather be lonely than make you smile again
               G 
I'd rather be lonely to feel alive again
            Am 
I remember when I told you I will never make you cry
           F 
And I can finally achieve it if I let you fly
           C 
So let me keep a promise, better late than never
                G Am 
I won't be the reason why you cry again ever


[Chorus]


[Verse 2]
I hid the pictures of us in a box, there's dust on the frames
And about as much to do as there's nothing to say
I hope you're living life though, hell if I know
You became a stranger from my past when I let go
But I need you to know, I tried to make up
For every mistake, you know it's not like I just gave up
And I remember when you made me say that I would always be a part of your 
life
Guess you forgot it, right?
We've been growing apart for so long
My last words ended up being a monologue
I've been killing myself trying to analyze and understand
I'm done letting you have the upper hand
I'd rather be alone and make you happy
If that's what it takes I'm walking away gladly
I put us back in the box, close it and put it away
I swear that'll be the last promise I make

[Chorus] x2

Promise chords – Matchbook Romance V3

 Intro:
e|----0--0--0--0--0----0--0--0--0--0----0--0--0--0--0----0--0--0--0--0-|
B|----0--0--0--0--0----0--0--0--0--0----0--0--0--0--0----0--0--0--0--0-|
G|---------------------------------------------------------------------|
D|---------------------------------------------------------------------| 2x
A|--7---7--7--7--7---2---2--2--2--2---0---0--0--0--0---------0--2--2---|
E|-----------------------------------------------------2--4------------|

e|----0--0--0--7--0----0--0--2--0--0----0--2--5--4--2------------------|
B|----0--0--0--7--0----0--0--2--0--0----0--2--5--4--2------------------|
G|---------------------------------------------------------------------|
D|------------------------------------------------------4--6--7~-/-2~--| 
A|--7---7--7--7--7---2---2--2--2--2---0---0--0--0--0----4--6--7~-/-2~--|
E|------------------------------------------------------2--4--5~-/-0~--|


Verse I:
 E B A 
  What would you say if I asked you not to go
                        B E 
to forget everyone, forget everything and start over with me
                   B A 
would you take my hand and never let me go
                   B 
promise me you'll never let me go


Refrain:
 E B 
  And the stars aren't out tonight
                            A 
But neither are we to look up at them
Why does hello feel like goodbye?
 E B 
  These memories can't replace,
                                 A 
These wishes i wished and these dreams i chased
 F#m G#m A B E 
Take this broken heart and make it right


Chorus:
        E C#m A 
I feel like I lost everything when you're gone
        B E C#m 
Left remembering what it's like to have you here with me
    A 
I thought you should know,
        B 
You're not making this easy


Verse II:
 E B      
    I never thought I'd be the one to say
 A B 
please don't, please don't leave me


Chorus:
        E C#m A 
I feel like I lost everything when you're gone
        B E C#m 
Left remembering what it's like to have you here with me
    A 
I thought you should know,
        B E E - F#m - G#m  
You're not making this easy


Bridge I:
You're not making this easy (easy, easy, easy...)
 C#m - B - A 


Bridge II:
 C#m B A 
Take my hand and never let me go,
 C#m B A 
Take my hand and never let me go,
 C#m B 
Promise me...
              A 
You'll never let go
              B 
You'll never let go
              A 
You'll never let go
              B 
You'll never let go
Make this last forever


Repeat Chorus

Happy Playing. :D

I Could Never Promise You chords – Don Francisco

 Words and Music by Don Francisco, 1977 (Capo 1st Fret if desired)

 D A 
I could never promise you on just my strength alone
     G D A 
That all my life I'd care for you, and love you as my own
       D A 
I've never known the future, I only see today
  C                  Êm7               A D G A 
Words that last a lifetime would be more than I could say

          D A 
But the love inside my heart today(tonight) is more than mine alone
    G D A 
It never changes, it never fails, never seeks it's own
    D A 
And by the God who gives it, and who lives in me and you
 C Em7 A D            
I know the words I speak today(tonight) are words I'm going to do

(Chorus)

    Bm Em G A 
And so I stand before you now for all to hear and see
 G Em A D 
I promise you in Jesus' name the love He's given me
      Bm Em G A 
And through the years on earth and as eternity goes by
      G Em A 
The life and love He's given us are never going to die

(Interlude)

(Chorus)


    Bm Em G A 
And so I stand before you now for all to hear and see
 G Em A D 
I promise you in Jesus' name the love He's given me
         Bm Em G A 
And through the years on earth and as eternity goes by
       G Em A 
The life and love He's given us are never going to die
       G Em A D 
The life and love He's given us are never going to die

Living Around Tabs by Promise Ring

 Title: Living Around
 Very Emergency
: Kris Johansen - krisjohansen@guitarsrule.com


Intro
             x3               
e------------------------|---------------------------------------------|
B------------------------|---------------------------------------------|
G---7--7--7--7-----------|---4--4--4--4--------------------------------|
D---7--7--7--7--7-7-7-7--|---5--5--5--5--------------------------------|
A---5--5--5--5--7-7-7-7--|---5--5--5--5--------------------------------|
E---------------5-5-5-5--|---3--3--3--3--------------------------------|

Verse 


e--------------------0------3--2--0------------------------------------|
B--3~---------3-2h3----3------------3----------------------------------|
G--2~-------2--------------------------2-------------------------------|
D--0------0-------------------------------0----------------------------|
A----------------------------------------------------------------------|
E----------------------------------------------------------------------|


Pre-chorus "I guess this just fits..."


e----------------------------------------------------------------------|
B----------------------------------------------------------------------|
G---7-7-7-7--6--6--6--6--------------6--6--6--6--7--7--7--7--6--6--6--6|
D---7-7-7-7--7--7--7--7--9--9--9--9--7--7--7--7--7--7--7--7--7--7--7--7|
A---5-5-5-5--7--7--7--7--9--9--9--9--7--7--7--7--5--5--5--5--7--7--7--7|
E------------5--5--5--5--7--7--7--7--5--5--5--5--------------5--5--5--5|

e----------------------------------------------------------------------|
B----------------------------------------------------------------------|
G---4--4--4--4--4--4--4--4---------------------------------------------|
D---5--5--5--5--5--5--5--5---------------------------------------------|
A---5--5--5--5--5--5--5--5---------------------------------------------|
E---3--3--3--3--3--3--3--3---------------------------------------------|


lead

e----------------------------------------------------------------------|
B----------------------------------------------------------------------|
G--7-6--7/9--7--7-6-7/9--7---7--6-7-9-9/11--9--------------------------|
D----------------------------------------------------------------------|
A----------------------------------------------------------------------|
E----------------------------------------------------------------------|

e----------------------------------------------------------------------|
B----------------------------------------------------------------------|
G--7-6--7/9--7--7-6-7/9--7---7--6------------9-------------------------|
D----------------------------------7-7/9--7----------------------------|
A----------------------------------------------------------------------|
E----------------------------------------------------------------------|


e----------------------------------------------------------------------|
B----------------------------------------------------------------------|
G--7-6--7/9--7--7-6-7/9--7---7--6-7-9-9/11--9--------------------------|
D----------------------------------------------------------------------|
A----------------------------------------------------------------------|
E----------------------------------------------------------------------|

e----------------------------------------------------------------------|
B----------------------------------------------------------------------|
G--7-6--7/9--7--7-6-7/9--7---7--6-7-9-9/11--9---7----4-----------------|
D----------------------------------------------------------------------|
A----------------------------------------------------------------------|
E----------------------------------------------------------------------|


Chorus "Its the end of the world today you dropped a bomb..."
       
e-------------------------------------|------------------|-------------|
B-------------------------------------|------------------|---

Is This Thing On Tabs by Promise Ring

 Title: Is This Thing on?
 Nothing Feels Good
: Kris Johansen - krisjohansen@guitarsrule.com

Note: Quite a tough one to transcribe, but I'm generally happy with it. Im a bit 
confused as exactly how to define a verse. Ok let's say a verse is this:

"Delaware are you aware of the air supply and television, delaware 
are you still there is this thing on, im coming down delaware are you aware
of the air supply and television Delaware are you aware of the air supply."



Intro
~ = ring. 
* = play ummm lots.
! = palm mute
/ = slide
& = play 8x

   *                    "Delaware are you aware........"
e----------------------------------------------------------------------|
B--8-------8------8------8---------------------------------------------|
G--7-------7------7------7---------------------------------------------|
D--x--!-!--5---!-!5--!-!-7---------------------------------------------|
A--5--5-5-----5-5----5-5-5---------------------------------------------|
E----------------------------------------------------------------------|

About every four bars play this

e---------|
B---------|
G----7--7~|
D---------|
A----5--5~|
E---------|

2nd verse (each chord 8x)

 Guitar 1                Guitar 2 (way back in the mix)
                         this bit plays through the break as well                               
e-------------------|---------------------------------------------------|
B-------------------|---------------------------------------------------|
G---!--!--!---------|-----12-12-11-11-----------------------------------|
D---7--7--7--!------|-----12-12-12-12-----------------------------------|
A---5--7--5--5------|-----10-10-10-10-----------------------------------|
E---------7--3------|---------------------------------------------------|


break between second and third verses. 
                                         "Delaware are you aware..."        
e----------------------------------------------------------------------|
B----------------------------------------------------------------------|
G---7~-/--9-/-7--11-/-7--11-12-11-9--7---x--x--7--7--------------------|
D----------------------------------------x--x--7--7--------------------|
A---5~-/--7-/-5--9--/-5--9--10-9--7--5---x--x--5--5--------------------|
E----------------------------------------------5--5--------------------|


third verse

    &  &  &  & 
e----------------------------------------------------------------------|
B----------------------------------------------------------------------|
G---!--!--!------------------------------------------------------------|
D---7--7--7--!---------------------------------------------------------|
A---5--7--5--5---------------------------------------------------------|
E---------7--3---------------------------------------------------------|


Chorus Chords 

"Delaware are you aware are you tonight are you..."

    &  &   &   &   &
e-------------------------------------------------------------------------
B----------8---8----------------------------------------------------------
G----7--7--7---7---12-----------------------------------------------------
D----7--7--0---0---12-----------------------------------------------------
A----5--x--x---9---10-----------------------------------------------------
E----5--7--8-------10-----------------------------------------------------
            I'm not so happy with that C9. Sounds ok I guess. Update:        
            try replacing the C9 chord with the one next to it. I think it
                sounds better.


Chorus Lead (it's hard to hear so I'm kinda guessing. Maybe there
ain't that many notes :)

e----------------------------------------------------------------------|
B---3--/--8--7--5-----3/-7-8-5-----3---8-7-5-7-8-7-8-10-8--------------|
G----------------------------------------------------------------------|
D-----------------------------------------------

Happiness Is All The Rage Tabs by Promise Ring V2

 Title: Happiness Is All the Rage
 Very Emergency
: Kris Johansen - krisjohansen@guitarsrule.com

Intro/Chorus

e----------------------------------------------------------------------|
B----------------------------------------------------------------------|
G----------------------------------------------------------------------|
D--7--7--7--7--7--7--7--7--4--4--4--4--2--2--2--2--7--7--7--7----------|
A--4--4--4--4--5--5--5--5--2--2--2--2--0--0--0--0--4--4--4--4----------|
E----------------------------------------------------------------------|

e-------------|---------------|
B-------------|---------------|
G-------------|---------------|
D--7--7--7--7-|-9-9-xx-9-9-9--|
A--5--5--5--5-|-7-7-xx-7-7-7--|
E-------------|---------------|

For the intro, play the whole thing twice, on the second time hold the D chord. In the 
chorus it goes to the E. Get me?

Little bit before singing starts.

e------------------------------------|
B------------------------------------|
G------------------------------------|
D-------------------7-7-7-7-7-7-7-7--|
A--7-7-7-7-7-7-7-7--5-5-5-5-5-5-5-5--|
E--5-5-5-5-5-5-5-5-------------------|

Verse chords

e----|---|----|----|---|---|
B----|---|----|----|---|---|
G----|---|----|----|---|-9-|
D----|-7-|----|--11|-4-|-9-|
A--7-|-5-|--7-|--9-|-2-|-7-|
E--5-|---|--5-|----|---|-7-|

Bridge(of sorts)

   "yeah now it's alright between us"
e----------------------------------------------------------------------|
B----------------------------------------------------------------------|
G----------------------------------------------------------------------|
D--11--4--9------------------------------------------------------------|
A--9---2--7------------------------------------------------------------|
E----------------------------------------------------------------------|


Outro

"happiness is all the rage"  Song ends on the A.

e---------|-------------------------------------------------------------|
B---------|-------------------------------------------------------------|
G---------|-------------------------------------------------------------|
D-----7---|-------------------------------------------------------------|
A--7--5---|--9-9-7-7-5-5-4-4-2------------------------------------------|
E--5------|-------------------------------------------------------------|

             Little descending part

Happy Hour Tabs by Promise Ring

 Title: Happy Hour
 Very Emergency
: Kris Johansen - krisjohansen@guitarsrule.com


Intro

e----------------------------------------------------------------------|
B----------------------------------------------------------------------|
G----8h9--9--9--9-9-9-9------------------------------------------------|
D----9-9--9--9--9-9-9-9------------------------------------------------|
A----7-7--7--7--7-7-7-7------------------------------------------------|
E----------------------------------------------------------------------|


Verse "Hey hey where are we living now, from witching to
a happy hour.."

e----------------------------------------------------------------------|
B----------------------------------------------------------------------|
G----9----6------------------------------------------------------------|
D----9----7------------------------------------------------------------|
A----7----7------------------------------------------------------------|
E----0----5------------------------------------------------------------|

Lead
                    x2        second time through play this as well  
e--------------------------|-------------------------------------------|
B--------------------------|-------------------------------------------|
G---9-8-9-8-9-8h9----------|-------------------------------------------|
D------------------9/11--9-|---13--11----------------------------------|
A--------------------------|-------------------------------------------|
E--------------------------|-------------------------------------------|

Chorus "Where are we living now..."

e----------------------------------------------------------------------|
B----------------------------------------------------------------------|
G---9------------------------------------------------------------------|
D---9---7--9--7--9--7--9-----------------------------------------------|
A---7---7--9--7--7--7--9-----------------------------------------------|
E---0---5--7--5--0--5--7-----------------------------------------------|

Forget Me Tabs by Promise Ring

 Title: Forget Me
 Nothing Feels Good
: Kris Johansen - krisjohansen@guitarsrule.com
Tuning: EGCGCE


Intro/Verse. Slight gain.
    
             x2               x2               x1

e-----------------0--|--------------0--|------------------0--------|
C-----------------0--|--------------0--|------------------0--------|
G--------0--------0--|-----0--------0--|------------------0--------|
C--------0-----------|-----0-----------|-------0-------------------|x3
G---5-5-----5--5-----|-4-4----4--4-----|-------0-------------------|
E--------------------|-----------------|--1-1-------1-1------------|


         x1      "All trees are oaks..."
e-----------------|
C-----------------|
G-----------------|
C---0-0--0-0------|
G---5-5--7-7--12--|
E-----------------|

            F                  E/F        C 
Chorus "but forget me nots and marigolds nothings they 

dont get old they dont get old"
 

     F    E/F     C
e----------------------------------------------------------------|
C----0----0-------7----------------------------------------------|
G----0----0-------0----------------------------------------------|
C---12---12-------7----------------------------------------------|
G---10---9--------5----------------------------------------------|
E----------------------------------------------------------------|


"I married a room"

e-------|---------------------------------------------------------|
C---7---|-4---5---7-----------------------------------------------|
G---0---|-0---0---0-----------------------------------------------|
C---7---|-0---0---0-----------------------------------------------|
G---5---|-5---7---9-----------------------------------------------|
E-------|---------------------------------------------------------|

This little bit above is repeated after the second chorus
a few more times then theres the bit below before the final chorus.

*=16x.

e---------------------------------------------------------------|
C---*----*------------------------------------------------------|
G---0----0------------------------------------------------------|
C---7---12------------------------------------------------------|
G---5---10------------------------------------------------------|
E---------------------------------------------------------------|

All Of My Everything Tabs by Promise Ring

 Title: All of My Everythings 
 Very Emergency
: Kris Johansen - krisjohansen@guitarsrule.com



   Intro           Verse Chords

                   A     Bm    D    G
e--0-----------|---0--|--7--|-----------------------------------------------|
B---0----------|---0--|--7--|-----------------------------------------------|
G----6---------|---6--|--7--|--7--------------------------------------------|
D-----7--------|---7--|--9--|--7----5---------------------------------------|
A------7-------|---7--|--9--|--5----5---------------------------------------|
E-------5------|---5--|--7--|-------3---------------------------------------|


A                   Bm           A  
Dance record from be  fore I was born
         Bm                                    D
on the stereo     etc..... all of my every days

              A     G    
and all of my every every days



Guitar 2 

"Dance record..."

e----------------------------------------------------------------------|
B----------------------------------------------------------------------|
G----------------------------------------------------------------------|
D--------------------------4---2---------------------------------------|
A--0-0-0-0-2-0-0--2/4--2-2--------4/-----------------------------------|
E----------------------------------------------------------------------|

"on the stereo..."
e----------------------------------------------------------------------|
B----------------------------------------------------------------------|
G--------------------------4---2---------------------------------------|
D----------------------------------------------------------------------|
A--0-0-0-0-2-0-0-2/4--2-2---------4/-----------------------------------|
E----------------------------------------------------------------------|

"playing last rights..."
e----------------------------------------------------------------------|
B----------------------------------------------------------------------|
G----------------------------------------------------------------------|
D--------------------------4---2---------------------------------------|
A--0-0-0-0-2-0-0--2/4--2-2--------4/-----------------------------------|
E----------------------------------------------------------------------|

"all of my evenings..."      of my everydays"            
e----------------------------------------------------------------------|
B----------------------------------------------------------------------|
G----------------------------------------------------------------------|
D--------------------------------------2--4~---4/6-4-2--4--0~----------|
A--0-0-0-0-2-0-0-2/4--2-2--2----0--2h4---------------------------------|
E----------------------------------------------------------------------|

Then you play through the first three again but the fourth one
is different as shown below.


"starting on separate days"
e----------------------------------------------------------------------|
B----------------------------------------------------------------------|
G---------------------------------------------2--4/6--4--2-4--0--------|
D--------------------------------------2--4~---------------------------|
A--0-0-0-0-2-0-0-2/4--2-2--2----0--2h4---------------------------------|
E----------------------------------------------------------------------|

Chorus - "why did ever we part"

  
Guitar 1 chords            Guitar 2 fill
e--------------------|--------------------|----------------------------|
B--------------------|--------------------|----------------------------|
G--------------------|--------------------|-6~-------------------------|
D---7---5---5---2----|-------------7------|----------------------------|
A---5---3---2---0----|-----0--7/9-----0---|----------------------------|
E--------------------|--------------------|----------------------------|

then another verse with that fourth guitar 2 bit.

Lead

Emergency Emergency Tabs by Promise Ring

 Title: Emergency! Emergency!
 Very Emergency
: Kris Johansen - krisjohansen@guitarsrule.com

Intro/chorus chords - the chord in brackets is sort of a transition
chord you play on your way from the C# to the E.


  B  A C#  E     B   A   C# D#  E
e----------------------------------------------------------------------|
B----------------------------------------------------------------------|
G----------------------------------------------------------------------|
D-9--7--6--2-----9---7---6--(8)--9-------------------------------------|
A-9--7--4--2-----9---7---4--(6)--7-------------------------------------|
E-7--5-----0-----7---5-------------------------------------------------|
    4x  4x  3x  1x  4x 


Lead thingy. play twice.

e---------------------------------------------------------------------------|
B---------------------------------------------------------------------------|
G--11-11-11-11-11-11-9-8-9------------11-11-11-11-11-11-9-8-9-11-11/13--11--|
D--------------------------9--9/11-9----------------------------------------|
A---------------------------------------------------------------------------|
E---------------------------------------------------------------------------|

Verse chords

    B  A  E   E     - I think 1 guitar plays low E, other high E
e----------------------------------------------------------------------|
B----------------------------------------------------------------------|
G---------1---9--------------------------------------------------------|
D---9--7--2---9--------------------------------------------------------|
A---9--7--2---7--------------------------------------------------------|
E---7--5--0------------------------------------------------------------|


    B               A                B   
Sometimes I wake up early to say goodbye

        A                  B
just in case you dont come back

      A                  B   
and I know the coffee by car

       A                 E 
cos it goes fast really far, then thats where you are


Bridge - "so when I come around 
some lost and some found..."

The colons mean repeat those two phrases :)
                              
e--------------|-----------|--------------------------------------------|
B--------------|-----------|--------------------------------------------|
G--------------|--------9-:|--9-------9--9-----9--9--9------------------|
D--9--7-----4--|--9--7--9--|--9-------9--9-----9--9--9------------------|
A--9--7--7--4--|--9--7--7-:|--7-------7--7-----7--7--7------------------|
E--7--5--4--2--|--7--5-----|--------------------------------------------|


Lead under last singing bit "baby its an s.o.s" - its the same as the 
other lead just an octave lower.

e----------------------------------------------------------------------|
B----------------------------------------------------------------------|
G----------------------------------------------------------------------|
D--4-4-4-4-4-4-2-1-2-1----------4-4-4-4-4-4-2-1-2-4-4/6-4--------------|
A----------------------2-2/4-2-----------------------------------------|
E----------------------------------------------------------------------|

then play the higher version over the chorus chords and your done.

Enjoy!

Electric Pink Tabs by Promise Ring

 Title: Electric Pink
 Electric Pink EP
: Kris Johansen - krisjohansen@guitarsrule.com


Bass line parts for intro and verses
            (Part 1)                                    (Part 2)
e------------------------------------|---------------------------------|
B------------------------------------|---------------------------------|
G------------------------------------|---------------------------------|
D------------------------------------|------------------2-2-2-2-2h-3---|
A---3-3-3-3-0-0-0-0------------------|--3-3-3-3-0-0-0-0----------------|
E-------------------0-0-0-0-0h1-1-1-1|---------------------------------|

                (Part3)
e-------|-----------------------------------------|
B-------|-----------------------------------------|
G-------|-----------------------------------------|
D-3-3-2-|-----------------------------------------|
A-------|--3-3-3-3-----------3-3-3-3--------------|
E-------|-----------3-3-3-3----------3-3-3h5-5-3--|

From start play Part 1, Part 2 (x2), Part 3, Part 2

Guitar cuts in between first and second verse and just
before chorus with the chord in brackets played as well.

e----------------------------------------------------------------------|
B----------------------------------------------------------------------|
G---5--5--------5--5---------------------------------------------------|
D---5--5--5--5--5--5---(5~)--------------------------------------------|
A---3--3--5--5--3--3---(5~)--------------------------------------------|
E---------3--3---------(3~)--------------------------------------------|


Chorus chords - "so yeah, I feel electric...."

e----------|------------------------------------------------------------|
B----------|------------------------------------------------------------|
G--5-----9-|------------------------------------------------------------|
D--5--5--9-|-10-10-10-10-7-7--------------------------------------------|
A--3--3--7-|-8--8--7--7--5-5--------------------------------------------|
E-----5----|------------------------------------------------------------|


Bridge chords - "between a wink and an earthquake there are conversations"

e----------------------------------------------------------------------|
B----------------------------------------------------------------------|
G--7--10---------------------------------------------------------------|
D--7--10-10---3--5-----------------------------------------------------|
A--5--8--7----3--5-----------------------------------------------------|
E-------------1--3-----------------------------------------------------|

In the quiet bit the 2nd guitar just holds a C barre chord 
for the whole thing. Then, I THINK there's this chord under
the end chorus.

e----------------------------------------------------------------------|
B--13------------------------------------------------------------------|
G--12------------------------------------------------------------------|
D--10------------------------------------------------------------------|
A----------------------------------------------------------------------|
E----------------------------------------------------------------------|