Tag: Rain

Rain chords by The Script

[Verse]
Em            A                        D                 G
Woke up this morning, can't shake the thunder from last night
Em            A                        Bm              B7
You left with no warning and took the summer from my life
Em            A                        D               G
I gave you my everything, now my world it don't seem right
Em            A                   D
Can we just go back to being us again
                Em
'Cause when I'm sitting in the bar
         A                            D          G
All the lovers with umbrellas always pass me by
               Em
It's like I'm living in the dark
        A                              Bm             B7
And my heart's turned cold since you left my life
        Em
And no matter where I go
         A                             D           G
Girl, I know if I'm alone, there'll be no blue sky
              Em                A
I don't know what I'm doing wrong
       D
'Cause baby, when you're gone


[Pre-Chorus]
               Em    A     D             G
All it does is rain, rain, rain down on me
             Em    A     Bm             B7
Each drop is pain, pain, pain when you leave
            Em    A                D           G
It's such a shaa-aame we fucked it up, you and me
       Em                A                   D
'Cause baby, when you're gone all it does is rain


[Chorus]
                    Em    A     D       G
And it feels like, oh-oh-oh-oh-oh-oh
Em    A     Bm       B7
Oh-oh-oh-oh-oh-oh
                    Em    A     D      G
And it feels like, oh-oh-oh-oh-oh-oh
       Em                A                   D
'Cause baby, when you're gone all it does is rain


[Verse 2]
Em            A                        D                 G
Tried to find shelter here in the arms of someone new
Em            A                        Bm              B7
But I'd rather be there under the covers just with you
Em                  A                D                   G
'Cause you were my everything, now I don't know what to do
        Em                A             D
Oh, I'm caught up in the storm
       D
'Cause baby, when you're gone


[Pre-Chorus]
               Em    A     D             G
All it does is rain, rain, rain down on me
             Em    A     Bm             B7
Each drop is pain, pain, pain when you leave
            Em    A                D           G
It's such a shaa-aame we fucked it up, you and me
       Em                A                   D
'Cause baby, when you're gone all it does is rain


[Chorus]
                    Em    A     D       G
And it feels like, oh-oh-oh-oh-oh-oh
Em    A     Bm       B7
Oh-oh-oh-oh-oh-oh
                    Em    A     D      G
And it feels like, oh-oh-oh-oh-oh-oh
       Em                A                   D
'Cause baby, when you're gone all it does is rain


[Verse 3]
                Em
'Cause when I'm sitting in the bar
         A                            D          G
All the lovers with umbrellas always pass me by
               Em
It's like I'm living in the dark
        A                              Bm             B7
And my heart's turned cold since you left my life
        Em
And no matter where I go
         A                             D           G
Girl, I know if I'm alone, there'll be no blue sky
              Em                A
I don't know what I'm doing wrong
       D
'Cause baby, when you're gone


[Pre-Chorus]
               Em    A     D             G
All it does is rain, rain, rain down on me
             Em    A     Bm             B7
Each drop is pain, pain, pain when you leave
            Em    A                D           G
It's such a shaa-aame we fucked it up, you and me
       Em                A                   D
'Cause baby, when you're gone all it does is rain


[Chorus]
                    Em    A     D       G
And it feels like, oh-oh-oh-oh-oh-oh
Em    A     Bm       B7
Oh-oh-oh-oh-oh-oh
                    Em    A     D      G
And it feels like, oh-oh-oh-oh-oh-oh
       Em                A                   D
'Cause baby, when you're gone all it does is rain

Penawar Letih chords – The Rain

 The Rain – Penawar Letih




[Intro]  A A D 
berangkat dari pagi buta
     Bm E 
hingga malam datang menyapa
   A D 
namun hilang semua letihku
   Bm E 
melihat senyumanmu itu

          D C#m 
walau terkadang kau juga menyebalkan
           D E 
namun tak mengurangi teguh tatapan

[Chorus]
 A E F#m A 
 tetaplah menjadi
 D A Bm E 
 penawar letihku
 A E F#m A 
 dan aku berjanji
 D E A 
 selalu menjagamu

   A D 
hadapi keras kota ini
   Bm E 
hiruk pikuknya terasa sunyi
   C#m F#m 
namun sapaanmu tetap indah
          Bm E 
mengikis amarah, meluluhkan gundah

[Chorus]
 A E F#m A 
 tetaplah menjadi
 D A Bm E 
 penawar letihku
 A E F#m A 
 dan aku berjanji
 D E A 
 selalu menjagamu

[Interlude]  D Bm A F#m D Bm E  ..

[Chorus]
 A E F#m A 
 tetaplah menjadi
 D A - Bm E 
 penawar letihku
 A E F#m A 
 dan aku berjanji
 Bm          
 menemanimu
 C#m F#m 
 hingga dunia
 Bm E A 
 tak lagi untukku

[Intro]  A A B 
na.. nanana na..
        D A D G G# 
nanana na.. nanana na..
 A B 
na.. nanana na..
        D A D G G# 
nanana na.. nanana na..

 A B 
na.. nanana na..
        D A D G G# 
nanana na.. nanana na..
 A B 
na.. nanana na..
        D A 
nanana na.. nana na.. na..

Untuk Sahabatmu chords – The Rain

 THE RAIN - UNTUK SAHABATMU



[intro]  C G C G G  
Tolong beritahukan sahabatmu itu 
   Em E Am  
Senyumnya tlah merubah mimpiku 
   D C Bm Em  
Sapaannya lebih merdu dari semua lagu 
    Am D C Bm Em  
Oh bahkan lagu kesayanganku 
   Am Cm  
atau sepertinya aku yang gila 

 G  
Tolong beritahukan sahabatmu itu 
  Em E Am  
Aku bersedia tuk menunggu 
     Am D C Bm Em  
Karena di setiap ku tatap matanya 
       Am D G  
Ku bersumpah ada aku di sana 

     Bb F Gm F C F  
Dan jika nanti aku tenggelam di hatinya 
    Bb F Gm F C D  
Oh biarkanlah aku tenggelam selamanya 


 G     
Tolong beritahukan sahabatmu itu 
   Em E Am  
Tawanya adalah semangatku 
     D C Bm Em  
Dan meski aku tahu banyak yang menginginkannya 
       Am D G  
Ku takkan menyerah begitu saja 


[solo]  Em B D A Am D G  
Tolong beritahukan sahabatmu itu 
  Em E Am  
Aku bersedia tuk menunggu 
     Am D C Bm Em  
Karena di setiap ku tatap matanya 
       Am D G  
Ku bersumpah ada aku di sana 

     Bb F Gm F C F  
Dan jika nanti aku tenggelam di hatinya 
    Bb F Gm F C D  
Oh biarkanlah aku tenggelam selamanya 
     D C Bm Em  
Dan meski aku tahu banyak yang menginginkannya 
       Am             
Ku takkan menyerah  
       D G  
Ku takkan menyerah begitu saja 

[outro]  G G

Have You Ever Seen The Rain chords – Creedence Clearwater Revival V10

 Intro =  Am F C G C G 

Verse 1
 C 
Someone told me long ago 
 C 
There's a calm before the storm
   G C G 
I know it's been coming for some time
 C  
When it's over so they say it'll rain a sunny day  
   G C  
I know shinin' down like water 

Chorus
 F G C C/B Am Am/G 
I wanna know have you ever seen the rain
 F G C C/B Am Am/G  
I wanna know have you ever seen the rain
 F G C G 
Comin' down on a sunny day
 
Verse 2
 C 
Yesterday and days before
 C  
Sun is cold and rain is hard 
   G C G 
I know been that way for all my time
 C 
'Til forever on it goes 
 C 
Through the circle fast and slow 
   G C  
I know it can't stop I wonder

Chorus
 F G C C/B Am Am/G 
I wanna know have you ever seen the rain
 F G C C/B Am Am/G  
I wanna know have you ever seen the rain
 F G C    
Comin' down on a sunny day

Chorus
 F G C C/B Am Am/G 
I wanna know have you ever seen the rain
 F G C C/B Am Am/G  
I wanna know have you ever seen the rain
 F G C G C 
Comin' down on a sunny day



Dairybeat – Wholl Stop The Rain – Creedence Clearwater Revival – Cover chords

 DAIRYBEAT: WHO'LL STOP THE RAIN (J. C. Fogerty) (124 - 4/4)

|./.    |: Repeat the previous Chord and/or Measure of 4-Counts.


Intro: | D     |./.    A | Bm     |./.    A | D     |./.   |

Verse 1:

 D            |./.        | G                  | D     |
LONG AS I RE-MEMBER, THE RAIN'S BEEN COMIN' DOWN. 

./.              | F#m          | G             | D      |
CLOUDS OF MYST'RY POURIN', CON-FUSION ON THE GROUND.

 G                    | D     | G                    | D     |
GOOD MEN THROUGH THE AGES,   TRYIN' TO FIND THE SUN;

 G             | A               | Bm              | D     |./.   |
AND I WONDER, STILL I WONDER, WHO'LL STOP THE RAIN.

Verse 2:

 D               |./.           | G                | D     |
I WENT DOWN VIR-GINIA, SEEKIN' SHELTER FROM THE STORM.

./.             | F#m       | G                 | D     |
CAUGHT UP IN THE FABLE,  I WATCHED THE TOWER GROW.

 G                   | D          | G                   | D      |
FIVE YEAR PLANS AND NEW DEALS,   WRAPPED IN GOLDEN CHAINS.

 G             | A                | Bm              | D     |
AND I WONDER, STILL I WONDER,  WHO'LL STOP THE RAIN.

Interlude:

 D     |./.   | G D   | A     | Em G   | Bm A | D     |./.   |

Verse 3:

 D                 |./.      | G                  | D      |
HEARD THE SINGERS PLAYIN',  HOW WE CHEERED FOR MORE.

   |./.                 | F#m     | G              | D     |
THE CROWED HAD RUSHED TO-GETHER, TRYIN' TO KEEP WARM.

 G                   | D        | G             | D     |
STILL THE RAIN KEPT POURIN', FALLIN’ ON MY EARS;

 G             | A               | Bm              | D     |
AND I WONDER, STILL I WONDER, WHO'LL STOP THE RAIN.

Outro:
                                    / (Break)
 D     |./.    A | Bm     |./.    A |: 3x >  D 


Tab by: DAIRYBEAT (André H. Hofman, Purmerend, Netherlands).
FREE* Dairybeat ORIGINALS, COVERS and BACKING TRACKS on:
http://www.soundclick.com/bands/default.cfm?bandID=137360&content=music

https://www.youtube.com/user/Dairybeat

Rain Dance chords – Melanie Safka V2

 Melanie Safka - Rain Dance
 
 
NOTE: G* = 320033
 
 
CAPO: 4th Fret
 
 
INTRO:   G  G*  C G  G*  C G  G*  C G  G*  G Em 
I'd like to be clear, but the words are old
              C D G      G*  G 
First person songs about second hand roles
                                                   Em 
I'd like to play you one this time, I'd like to explain
                 C D 
But all I do is play my heart and soul out
                    G     G*   G 
And do a dance for rain
 
 
CHORUS:
        Em 
Let it rain, rain, rain
        G     G*   G 
Let it rain
             C D 
All I do is play my heart and soul out
                    G     G*   G 
And do a dance for rain
 
 
                                                             Em 
You know they looked at my heart and then they looked at my head
                C D G     G*   G 
They pulled my worlds apart and they left them for dead
                                                              Em 
But I'd like to give you one this time, I'd really like to explain
                 C D 
And all I do is play my heart and soul out 
                     G               G*     G 
And do a dance, and do a dance for rain
 
 
CHORUS:
            Em 
So, let it rain, rain, rain
          G   G*   G 
Let it rain
             C D 
All I do is play this heart and soul out
                    G     G*   G 
And do a dance for rain
 
 
INSTRUMENTAL:    (## Key change - up 2 semitones ##)
                A F#m D Em A Asus4 A 
 
 
I'd like to give you one this time
                      F#m 
I'd really like to explain
                 D E 
But all I do is play my heart and soul out
                    A Asus4 A 
And do a dance for rain
 
 
CHORUS:
            F#m 
Oh, let it rain, rain, rain
         A Asus4 A D 
Let it rain
                               E 
All I do is play my heart and soul out
               A Asus4 A             
And do a dance, and do a dance for rain
 
 
CHORUS:
        F#m 
Let it rain, let it rain, let it rain, 
        A Asus4 A 
Let it rain
             D E 
All I do is play this heart and soul out
                    A Asus4 A 
And do a dance for rain
 
 
OUTRO:    (## fade to end ##)
        F#m A F#m    
Let it rain
        A F#m 
Let it rain, let it rain
        A F#m 
Let it rain, oh
 A F#m A F#m A F#m 
Da da da da da   etc., etc.

Dairybeat – Have You Ever Seen The Rain – Creedence C R – Cover chords

 DAIRYBEAT: HAVE YOU EVER SEEN THE RAIN (J. Fogarty) 4/4 - 116

|./.    |: Repeat the previous Chord and/or Measure of 4-Counts.


Intro: | Em     | C     | G     | D     | G     |./.    |

Verse 1:

 G                 |./.      |./.                  |./.
  SOMEONE TOLD ME LONG AGO,     THERE'S A CALM BE-FORE THE STORM.

 | D          |./.                 | G         | Em D   |
I KNOW   AND IT'S BEEN COMING FOR SOME TIME.

 G                |./.         |./.             |./.
  WHEN IT'S OVER SO THEY SAY,     IT'LL RAIN A SUNNY DAY.

 | D     |./.                 | G     |./.    |
I KNOW,    SHINING DOWN LIKE WATER.

Chorus:

 C         | D              | G Bm       | Em     | C         | D   
  I WANNA KNOW, HAVE YOU EVER SEEN THE RAIN.    I WANNA KNOW,

        | G Bm       | Em     | C        | D            | G     |./.   |
HAVE YOU EVER SEEN THE RAIN,    COMING DOWN A SUNNY DAY.

Verse 2:

 G               |./.         |./.                |./.
  YESTERDAY AND DAYS BEFORE,     SUN IS COLD AND RAIN IS HARD.

  | D       |./.              | G           |./.   |
 I KNOW,   BEEN THAT WAY FOR ALL MY TIME.

 G             |./.        |./.                |./.
 'TIL FOREVER ON IT GOES,     THRU THE CIRCLE FAST AND SLOW.

 | D          |./.            | G      |./.    |
I KNOW   AND IT CAN'T STOP I WONDER.

Chorus:

 C         | D              | G Bm       | Em     | C         | D   
  I WANNA KNOW, HAVE YOU EVER SEEN THE RAIN.    I WANNA KNOW,

        | G Bm       | Em     | C        | D            | G     |./.   |
HAVE YOU EVER SEEN THE RAIN,    COMING DOWN A SUNNY DAY.

 C         | D              | G Bm       | Em     | C         | D   
  I WANNA KNOW, HAVE YOU EVER SEEN THE RAIN.    I WANNA KNOW,
                                                                 / (Break)
        | G Bm       | Em     | C        | D            | G     |./.   | G 
HAVE YOU EVER SEEN THE RAIN,    COMING DOWN A SUNNY DAY.


Tab by: DAIRYBEAT (André H. Hofman, Purmerend, Netherlands).
FREE* Dairybeat ORIGINALS, COVERS and BACKING TRACKS on:
http://www.soundclick.com/bands/default.cfm?bandID=137360&content=music

https://www.youtube.com/user/Dairybeat

Across The Universe chords – Beatles V11

 Across The Universe
The Beatles
Key: C

Original key is D but I play it in this key because it fits my range slightly better. 
Each line is 2 bars, so the lines that stop halfway or a quarter represent when there are extra bars


Intro:
 C Em                                                   
. . . . . . . . . . . . . .  . . . . . . . . . . . . . . . . . . . . . . . . . . . . . . 
 G                                                    
. . . . . . . . . . . . . . . . . . . . . . . . . . 

Verse 1:
 C Am Em                                 
Words are flowing out like endless rain  into  a  paper  cup,   they 
 Dm7 G7                             
slither  while  they  pass  they  slip away,    across  the   universe
 G7               
. . . . . . . . 
 C Am Em                                    
pools  of  sorrow waves of joy  are drifting through my open mind,  po - 
 Dm7 Fm                                            
ssessing  and  caressing me. . . . . . . . . . . . . . . . .  

Chorus:
 C C                                     
Jai            Guru. . . . . . . . . . . . . .  De- - - - - - - - - - - - - - - - va 
 G7                                                   
Om. . . . . . . . . . . . . . . . . . . . . . . . . 
 G7 G7                                              
Nothing's   gonna   change my world. . . . . . . . . . . . . . . . . . . . . . . 
 F C                                               
Nothing's   gonna   change my world. . . . . . . . . . . . . . . . . . . . . . . 
 G7 G7                                              
Nothing's   gonna   change my world. . . . . . . . . . . . . . . . . . . . . . . 
 F C                                               
Nothing's   gonna   change my world. . . . . . . . . . . . . . . . . . . . . . . 

Verse 2:
 C Am Em                                
Images      of     broken light which dance before me like  a  million 
 Dm7 G7                          
eyes,   they  call  me  on  and  on  across   the   uni  -  verse

 C Am Em                                 
Thoughts meander like a  restless wind inside a letter  box,   they 
 Dm7 G7                            
tumb - le blindly as they make their way across  the  uni - verse
 G7                  
. . . . . . . . . .

Chorus:
 C C                                     
Jai            Guru. . . . . . . . . . . . . .  De- - - - - - - - - - - - - - - - va 
 G7                                                   
Om. . . . . . . . . . . . . . . . . . . . . . . . . 
 G7 G7                                              
Nothing's   gonna   change my world. . . . . . . . . . . . . . . . . . . . . . . 
 F C                                               
Nothing's   gonna   change my world. . . . . . . . . . . . . . . . . . . . . . . 
 G7 G7                                              
Nothing's   gonna   change my world. . . . . . . . . . . . . . . . . . . . . . . 
 F C                                               
Nothing's   gonna   change my world. . . . . . . . . . . . . . . . . . . . . . . 

Verse 3:
 C Am Em                                  
Sounds of laughter shades of light are ringing through my open ears, in - 
 Dm7 Fm                                                  
citing   and     in   -  viting me . . . . . . . . . . . . . . . . . . . . .

 C

Velvet Mornings chords – Demis Roussos

 Capo II 

      D C G D C G  
La la la la la la la la la la la la la la la la la la la la la la la la la la la  

 G C G  
Velvet mornings will come every new day 
 G C Am                                
Golden sunrise and the scent of rain 
         D                    
Whisper softly a melody  
    C 
of love words In ecstasy
     G D C G     
as you lie so very close to me 
 
       D C G D C G  
La la la la la la la la la la la la la la la la la la la la la la la la la la la  

 C G                                      
Triki, triki, triiiiiki, triiiki, triki, Mon Amour, triki, triki, triki, triiiiii 
 C G  
Triki, triki, triiiiiki, triiiki, triki, Mon Amour, triki, triki, triki, triiiiii 
 Am G  
Triki, triki, triiiiiki, triiiki, triki, Mon Amour, triki, triki, triki, triiiiii 
 Am F# D7  
Triki, triki, triiiiiki, triiiki, triki, Mon Amour, triki, triki, triki, triiiiiiiiiiiiiii
 
 G C G  
Velvet mornings gently touching my face 
 G C Am                                
Come and find me in your warm embrace 
        D                            
As you wake up and smile to me 
     C                
you make real my reverie
     G D C G                      
and I know my day begins and ends with you 

       D C G D C G  
La la la la la la la la la la la la la la la la la la la la la la la la la la la   
 
 C G                                      
Triki, triki, triiiiiki, triiiki, triki, Mon Amour, triki, triki, triki, triiiiii 
 C G  
Triki, triki, triiiiiki, triiiki, triki, Mon Amour, triki, triki, triki, triiiiii 
 Am G  
Triki, triki, triiiiiki, triiiki, triki, Mon Amour, triki, triki, triki, triiiiii 
 Am F# D7 G 
Triki, triki, triiiiiki, triiiki, triki, Mon Amour, triki, triki, triki, triiiiiiiiiiiiiii

The Wind The Rain chords – Neal Morse

 C#m7 
The wind and the rain
 Amaj7 
Fiercely fall
 Ebm Fm7 
Pounding on my roof and walls
 F# 
Feeling nothing like
 F#7/A# 
What I thought it might
 Eb7 E 
When I felt the storm begin tonight

 C#m7 
I knew it would
 Amaj7 
Eventually
 Ebm Fm7 
Point it's cloudy finger at me
 F# 
Making me drift behind
 F#7/A# 
Sadly back in time
 Eb7 D 
'Til I heard a voice from somewhere inside


                        Gmaj7 F#m7 B 
        "Just let the wind and the rain roll off your back
                        Gmaj7 F#m7 B 
        You can do anything but you can't go back
                        Gmaj7 F#m7 
        So when you're feeling pain
                     F Am7/E 
        It ain't no ball and chain
                       D9 
        It's just the wind and the rain"

 C#m7 
The wind and the rain
 Amaj7 
let you know
 Ebm Fm7 
You are always vulnerable
 F# 
So if it starts to pour
 F#7/A# 
And what's enough cries for more
 Eb7 D 
Don't pull the shades and lock the door

                        Gmaj7 F#m7 B 
        "Just let the wind and the rain roll off your back
                        Gmaj7 F#m7 B 
        You can do anything but you can't go back
                        Gmaj7 F#m7 
        So when you're feeling pain
                     F Am7/E 
        It ain't no ball and chain
                       D9 
        It's just the wind and the rain"

If Rain Is What You Want Tabs – Slipknot

 


SLIPKNOT 

IF RAIN IS WHAT YOU WANT


B-F#-B-E-G#-C#


 andherembrace





0:17

-----------------------------------------------------------------------------------------|
-----------------------------------------------------------------------------------------|
----14---14-15-14---14----14---14-15-14---14----14---14-15-14---14----14---14-15-14---15-|
-----------------------------------------------------------------------------------------|
-12----12--------12----12----12--------12----13----13--------13----13----13--------13----|
-----------------------------------------------------------------------------------------|


-----------------------------------------------------------------------------------------|
-----------------------------------------------------------------------------------------|
----14---14-15-14---14----14---14-15-14---14----14---14-15-14---14----14---14-15-14---15-|
-----------------------------------------------------------------------------------------|
-12----12--------12----12----12--------12----13----13--------13----13----13--------13----|
-----------------------------------------------------------------------------------------|


-----------------------------------------------------------------------------------------|
-----------------------------------------------------------------------------------------|
----14---14-15-14---14----14---14-15-14---14----14---14-15-14---14----14---14-15-14---15-|
-----------------------------------------------------------------------------------------|
-12----12--------12----12----12--------12----13----13--------13----13----13--------13----|
-----------------------------------------------------------------------------------------|


0:40


L
-----------------------------------------------------------------------------------------|
-----------------------------------------------------------------------------------------|
----14---14-15-14---14----14---14-15-14---14----14---14-15-14---14----14---14-15-14---15-|
-----------------------------------------------------------------------------------------|
-12----12--------12----12----12--------12----13----13--------13----13----13--------13----|
-----------------------------------------------------------------------------------------|

R
-------------------------------------------------------------------------------------|
-------------------------------------------------------------------------------------|
---7-----7-8-7-----7------7-----7-8-7----7-----7-----7-8-7----7-----7-----7-8-7-----7|
-------------------------------------------------------------------------------------|
5-----5---------5-----5------5--------5-----6-----6--------6-----6-----6---------6---|
-------------------------------------------------------------------------------------|



L
-----------------------------------------------------------------------------------------|
-----------------------------------------------------------------------------------------|
----14---14-15-14---14----14---14-15-14---14----14---14-15-14---14----14---14-15-14---15-|
-----------------------------------------------------------------------------------------|
-12----12--------12----12----12--------12----13----13--------13----13----13--------13----|
-----------------------------------------------------------------------------------------|


R
-------------------------------------------------------------------------------------|
-------------------------------------------------------------------------------------|
---7-----7-8-7-----7------7-----7-8-7----7-----7-----7-8-7----7-----7-----7-8-7-----7|
-------------------------------------------------------------------------------------|
5-----5---------5-----5------5--------5-----6-----6--------6-----6-----6---------6---|
-------------------------------------------------------------------------------------|



L
-----------------------------------------------------------------------------------------|
--

Rain Tabs – Pay Money To My Pain

 Intro:

(clean or low distortion)
(3x)
D|-----0-----------------------------------------0-------------------------------------|
A|-------0-----------0---------------0---------4---4-----------------------------------|
F|---------2-------2---2---2-------4---4-----4-------4---------------------------------|
C|---2-----------2-------2-------4-----------------------------------------------------|
G|-0---------------------------------------4-------------------------------------------|
D|-----------2-----------------4-------------------------------------------------------|

D|-----0---------------------------------0---------------------------------------------|
A|-------0-----------0---------------0---4---------------------------------------------|
F|---------2-------2---2---2-------4-----4---------------------------------------------|
C|---2-----------2-------2-------4-------0---------------------------------------------|
G|-0-------------------------------------4---------------------------------------------|
D|-----------2-----------------4-------------------------------------------------------|

(distorted)
D|-------------------------------------------------------------------------------------|
A|-10-10-9-9-----10-10-9-9-----12-12-10-10-9-9-10-10-9-9-------------------------------|
F|-----------9-9-----------9-9---------------------------9-9-11-11-9-9-8-8-9-9---------|
C|-------------------------------------------------------------------------------------|
G|-------------------------------------------------------------------------------------|
D|-------------------------------------------------------------------------------------|

D|---------------------------------------------12-12-11-11-----------------------------|
A|-10-10-9-9-----10-10-9-9-----12-12-10-10-9-9-------------12-12-14-14-----------9-9---|
F|-----------9-9-----------9-9-----------------------------------------9-9-11-11-------|
C|-------------------------------------------------------------------------------------|
G|-------------------------------------------------------------------------------------|
D|-------------------------------------------------------------------------------------|

D|-------------------------------------------------------------------------------------|
A|-10-10-9-9-----10-10-9-9-----12-12-10-10-9-9-10-10-9-9-------------------------------|
F|-----------9-9-----------9-9---------------------------9-9-11-11-9-9-8-8-9-9---------|
C|-------------------------------------------------------------------------------------|
G|-------------------------------------------------------------------------------------|
D|-------------------------------------------------------------------------------------|

D|---------------------------------------------12-12-11-11-12--------------------------|
A|-10-10-9-9-----10-10-9-9-----12-12-10-10-9-9-----------------------------------------|
F|-----------9-9-----------9-9---------------------------------------------------------|
C|-------------------------------------------------------------------------------------|
G|-------------------------------------------------------------------------------------|
D|-------------------------------------------------------------------------------------|

Verse:

(distorted)
(3x)
D|-----0---------------------------------------0-----0---------------------------------|
A|-------0-------0-----0-------------0-------4---4-----4-------------------------------|
F|-------------2---2-----2---------4---4---4-------4-----4-----------------------------|
C|---2---------------4-----4-----4-----------------------------------------------------|
G|-0-------------------------------------4---------------------------------------------|
D|---------0-------------------4-------------------------------------------------------|

D|-----0-------------------------------------------------------------------------------|
A|-------0-------0-----0----------------------------------------------------------

Hard Rain Coming Down On Me chords – Tom Waits

 Thanks to Pillze on YouTube for the Lyrics!
Enjoy, zeg ik altijd!

Lyrics:
[spoken intro]
All right now, come on kids. Hey, listen, I'm tired of this bullshit playing around the town, 
you know what I mean? ... And I told him, I said, 'listen!' I said, 'don't fuck with me, man! 
Because, you know what I mean? Like, I'm a real motherfucking cowboy, you know what I mean? Hahah! 
[end intro]

One, two, three, four.

 C 
Hard rain coming down on me
 F 
Trying to start a fire on the muddy banks
                C G             
Of the Mississippi, in the rain
 F C 
  Baby life is strange
         Am 
Now he reaches for a quarter
And he stands in the corner
And he screams out for some change.
     C 
And nobody looks, but everybody sees
And everybody feels the shame.
         Am       
And the rain rolls over,
And the dog rolls over,
And he rolls his hands to the sky.
         C 
And the nuns in numbers knock their nails in
Like a blackbird in a blackberry pie.
 F G Am 
  Says, 'Son, it happens every day.
 F G C 
  We call it running from the rain.'

 Am 
Well, it's a rain of thunder,
It's a rain of fear,
It's a busted-open bottle of Rainier beer,
        
    C 
It reaches from the sky
Like a blackbird in a blackberry pie, that's why

     Am 
And everybody is runnin'
And umbrellas are poppin'
And reflections take over the streets
         C 
And the blood is free now
And it flows to the sea now
And the man says, 'I'll see him again.'
 F G Am 
Said, 'Son, it happens every day.
 F G C 
We call it running from the rain.'


           Am 
Well, she turned her back
As he spackles the crack
And the pain just peals away.
          C 
And she thought she knew him
But an Autumn leaf blew in
And it blew what she knew of him away.
           Am 
And she's countin' numbers
But she lost the light
So now she thaws out cubed steak
With a red flashlight
 C 
Heads turning like a doorknob,
Eyes burning like a camp log,
What do you think of that?
 F G Am         
Said, 'Son, it happens every day.
 F G C 
We call it running from the rain.'

       C 
She's gone for good,
You should know by now.
 F 
   She ain't coming back anyhow.
                 C        
And a love to her
                                G 
Is a love that's thrown away.
              C 
And it's over.

Make It Rain chords – Tom Waits V2

 Bm 
 She took all my money...and my best friend
               E7 Bm 
 You know the story...here it comes again
             F#7 E7    
 I have no pride...I have no shame
                  Bm              
You gotta make it rain...make it rain!

  Bm 
Since you're gone...deep inside it hurts
 E7 Bm 
I'm just another sad guest on this dark earth(1)
           F#7 E7 
I want to believe...in the mercy of the world again(2)
 Bm 
Make it rain...make it rain!


 E7 Bm 
The nite's too quiet...stretched out alone
                      F#7 Bm 
I need the whip of thunder...and the wind's dark moan
 E7 Bm 
I'm not Able...I'm just Cain(3)
 C#7 F#7 
Open up the heavens...make it rain!


 Bm 
I'm close to heaven...crushed at the gate
They sharpen their knives...on my mistakes
What she done...you can't give it a name
You gotta just make it rain...make it rain, yeah!

Without her love...without your kiss
Hell can't burn me...more than this
I'm burning...with all this pain
Put out the fire...make it rain!

I'm born to trouble...I'm born to fate
Inside a promise...I can't escape
It's the same old world...but nothing looks the same
Make it rain!...Make it rain!

Got to make it rain
Make it rain
You got to make it rain
Got to make it rain
You got to...

I stand alone here!
I stand alone here!
Sing it:
Make it rain!
Make it rain!
Make it rain!

Glass House Tabs by Blackfield V2

 -----------------------------------------------------------------------------
                                          Artist - Blackfield
                                         *********************
                                          Song - Glass House 
                                         ********************
                                       Album - Welcome To My DNA 
                                      ***************************
                                          - Ayreon77
                                        **********************  
                    
-----------------------------------------------------------------------------
       There are 2 versions of this song on here,
         and i think that they both sound wrong
            Hopefully this is an improvment.

VERSE 1
********
D     
Goodbye old friend, my paranoid
      G  
We'll meet again someday
F#m             B
Life is running out
  D           G                    Em  
I guess I had enough, I need to go now


----------------------------------------------
Small Solo
***********
   Em            Cm Bb   Em            Cm Bb
e|---------br----------|---------br----------|
B|-12-----12-----------|-12-----12-----------|
G|------------12-12-10-|------------12-12-10-|
D|---------------------|---------------------|
A|---------------------|---------------------|
E|---------------------|---------------------|


----------------------------------------------
VERSE 2
********
  D   
I used to live in a house of glass
      G
Where no one comes or goes
F#m           Bb         
Watching life outside
  D               
I used to stand behind the door
    G 
And hope the wind won't blow
    F#m           B
And mess my fears around
   D                  G                      Em 
It took me so long to find out where they're hiding.


----------------------------------------------
Small Solo
***********
   Em            Cm Bb   Em            Cm Bb
e|---------br----------|---------br----------|
B|-12-----12-----------|-12-----12-----------|
G|------------12-12-10-|------------12-12-10-|
D|---------------------|---------------------|
A|---------------------|---------------------|
E|---------------------|---------------------|


----------------------------------------------
BRIDGE
*******
Fm
Music like rain
     Cm    
Over my deepest feelings
           Bb
Are you're faking that
Fm
Music like rain
     Cm    
Over my deepest feelings
           Bb         
Are you're faking that
Cm     Em            
Faking that.


----------------------------------------------
Small Solo
***********
   Em            Cm Bb   Em            Cm Bb
e|---------br----------|---------br----------|
B|-12-----12-----------|-12-----12-----------|
G|------------12-12-10-|------------12-12-10-|
D|---------------------|---------------------|
A|---------------------|---------------------|
E|---------------------|---------------------|

D Cm G F#m Em B(X2)
  
----------------------------------------------
VERSE 3
********
D     
Goodbye old friend, my paranoid
      G  
We'll meet again someday
F#m             B
Life is running out
  D           G                    Em  
I guess I had enough, I need to go now


----------------------------------------------
Small Solo
***********
   Em            Cm Bb   Em            Cm Bb
e|---------br----------|---------br----------|
B|-12-----12-----------|-12-----12-----------|
G|------------12-12-10-|------------12-12-10-|
D|---------------------|---------------------|
A|---------------------|---------------------|
E|---------------------|---------------------|



ENJOY.......

Trust Meim A Genius intro Tabs by The Family Rain

 ----------------------------------------------------------------- 
TRUST ME...I'M A GENIUS - The Family Rain      
----------------------------------------------------------------- 
: Jack Reese Email: jack.reese@ntlworld.com Tuning:standard

e|-7-----7-----7-----7-------------------------------------------|
B|-8-x8--8-x8--8-x8--8-x8----------------------------------------|
G|-9-----8-----7-----6-------------------------------------------|
D|---------------------------------------------------------------|
A|---------------------------------------------------------------|
E|---------------------------------------------------------------|

Break Away Speed chords – Kim Richey

 -------------------------------------------------------------------------------
                       BREAKAWAY SPEED - Kim Richey
-------------------------------------------------------------------------------
: rdcoons
 gnr123
Tuning: Half-Step Down

Intro: A
[Verse 1]
 A D A 
She could've made a river, but she had to make rain
                                  D A 
Once it started falling, it was never the same
 E D A 
Forty days running, forty nights long
 E D A E 
Water kept on coming till the valleys were gone... gone

[Chorus]
     D A E 
She said it's alright, took me where she left me
  A E F#m 
Turned around, went away, breakaway speed
   D A E 
Never looked back, said she won't forget me
  A E F#m 
Turned around, went away, breakaway speed
  D A 
Breakaway speed

[Verse 2]
 ( A )                          D A 
Would've come running but I couldn't keep up
                                  D A 
She counted all her blessings but it wasn't enough
            E D A 
They were hiding in the shadows where it's never quite clear
 E D A 
She wants something better that she couldn't find here
          E 
Couldn't find here

[Chorus]
     D A E 
She said it's alright, took me where she left me
  A E F#m 
Turned around, went away, breakaway speed
   D A E 
Never looked back, said she won't forget me
  A E F#m 
Turned around, went away, breakaway speed
  D A 
Breakaway speed

[Solo]
 A D A  x2

[Bridge]
   E A E A 
I think of her, when the sun goes down
      E A D E 
and falls behind, the edge of town

 D E  x2

[Chorus]
     D A E 
She said it's alright, took me where she left me
  A E F#m 
Turned around, went away, breakaway speed
   D A E 
Never looked back, said she won't forget me
  A E F#m 
Turned around, went away, breakaway speed
  D A 
Breakaway speed
  D A 
Breakaway speed
  D A 
Breakaway speed

 D A 


-------------------------------------------------------------------------------
                       BREAKAWAY SPEED - Kim Richey
-------------------------------------------------------------------------------
Tuning: Standard 
Capo 4

Intro:  E 
[Verse 1]
 E A E 
She could've made a river, but she had to make rain
                                  A E 
Once it started falling, it was never the same
 B A E 
Forty days running, forty nights long
 B A E B 
Water kept on coming till the valleys are gone... gone

[Chorus]
     A E B 
She said it's alright, took me where she left me
  E B C#m 
Turned around, went away, breakaway speed
   A <spa

You Put The Hurt On Me chords – The Steeldrivers

 G                                                                
Theres a light on in the kitchen, and I've been losing sleep
 C G    
It seems to me, since you've been gone the dark is twice as deep
 G C        
My mind trys to forget you, but my heart comes back for more
 C D G C G D G 
Cause you put the   hurt on   me   like  I   never   felt    before


 G                                                                
Don't need a guilty conscience to follow me around 
 C G        
Don't need no one to tell me why the rain keeps pouring down
 G C        
Don't need another dark cloud hanging round outside my door
 C D G C G D G 
Cause you put the    hurt on  me    like I never   felt before


 D G                            
The flames turned to ashes, there's still some embers left
 D C D          
Missing you is hard than this whiskey on my breath
 G C        
I never had a memory cut, a path as wide as yours
 C D G C G D G 
Cause you put the    hurt on  me like I never felt before

 D G                                
The flames turned to ashes, there's still some embers left
 D C D           
Missing you is hard than this whiskey on my breath
 G C        
I never had a memory cut, a path as wide as yours
 C D G C G D G 
Cause you put the     hurt on  me      like I never felt before         
 C D G C G D G      
Cause you put the     hurt on  me      like I never felt before

Stormy Days chords – Jacob Whitesides

 Intro:  Gm7 C F  Am5+ 
        Gm7 C F F7 Gm7 C 
    A side is getting gray
              F                     Am5+
    But baby, that don't mean anything
 Gm7 C 
    So why don't you come over

    And I'll show you 
 F                     Am5+
    What a lazy day means
           Gm7                  Am5+
    In my arms, holding your heart
                  Gm7 
    Beat to the rain
                     C              
    Dancing on the window pain


                  Gm7 C 
    Stormy days with my love
                           F       Am5+
    Will warn I've been dreaming up
                Gm7 C 
    Oh how the time it flies 
                   F       Am5+
    With you here by my side 
          Gm7 
    The weather can change 
            Am5+
    But my feelings stay the same
                        C 
    'Cause you are my sunshine
      C F F7 
    Even on a stormy day


     Gm7 C F                   Am5+
    My oh my, all of this rain falls from the sky
        Gm7 C F    Am5+
    As we lie on bed watching C.S.I
        Gm7 C F                     Am5+
    Oh I can't help falling in love with everything thing you do
         Gm7 C F F7 
    Suppose to take shelter but my shelters with you
     

           Gm7                  Am5+
    In my arms, holding your heart
                  Gm7 
    Beat to the rain
                     C            
    Dancing on the window pain
                  Gm7 C 
    Stormy days with my love
                           F       Am5+
    Will warn I've been dreaming up
                 Gm7 C 
    Oh how the time it flies 
                   F       Am5+
    With you here by my side 
          Gm7 
    The weather can change 
            Am5+
    But my feelings stay the same
                        C 
    'Cause you are my sunshine
      C F F7 
    Even on a stormy day
                        C 
    'Cause you are my sunshine
                       F 
    Even on a stormy day

Jacob Whitesides Official Website: www.jacobwhitesidesmusic.com

Lead Me Home chords – Fm Radio

 Such a simple yet beautiful song. Melancholic yet peaceful. Song follows an almost hymnal pattern.

Key:  G G           
Let the rain come wash away
             C G 
Trembling fears and toiling days
         C G 
Let the river overflow
              D7 
And lead me home
          G 
Lead me home


            G 
I am the sweet hush morning calm
       C G 
I am heavens open arms
         C G 
I am a thousand winds that blow
          D7 
Lead me home
         G 
Lead me home


            Em C G 
All these roads I've traveled on
          Em C G 
Lead me back to where I've come
        Em C G 
And I know I'm not alone
               D7 
They lead me home
          G 
Lead me home


         G 
I will give my love to you
                 C G 
Like fields of flowers sweet perfume
                C G 
And like the gleam of fallen snow
          D7 
Lead me home
          G 
Lead me home


         G  
Do not weep, I am not gone
         C G 
Feel me in the rising sun
              C G 
Through the valleys wide and low
          D7 
Lead me home
          G 
Lead me home


           Em C G  
When the darkness overcomes
         Em C G 
Just remember all my love
               Em C G  
And when you know it's time to go
                D7 
I'll lead you home
           G 
Lead you home


          G 
We all exist in everyone
          C G 
Memories of the world we spun
        C G 
I am ready, rock me slow
              D7 
And lead me home
          G 
Lead me home