Tag: raising

Raising Hell Tabs by Bullet For My Valentine V2

 : Connor Ford

  Bullet for My Valentine
Song:  Raising Hell
 ? (2013)


Tuning: D Tuning (D, G, C, F, A, D)
(Tune all string down one whole step)



Please rate, comment, correct, anything that will help :)


Hammer on:        h
Pull off:         p
Slide up:         /
Slide down:       \
Bend up:          BU(?)
Tapped note:      T
Vibrato:          ~~~
Pinch Harmonic:   PH
Natural Harmonic: NH
After Muting:     M
Pick slide:       X\\\ ('\' indicated duration)
Dive Bomb:        DB

‘/’ before DB indicates a raise into the dive bomb
‘\’ after DB indicates a lower of the Floyd rose bar

Guitar 1:        Matt Tuck
Guitar 2:        Michael Padge
Guitar 3:        Michael Padge (Additional harmonies)


________________________________________________________________________________



Intro
Guitar 1
|---------------------------------|---------------------------------|
|---------------------------------|---------------------------------|
|---------------------------------|---------------------------------|
|-2-------------------------------|-3-------------------------------|
|-2-------------------------------|-1-----------------------1-111-1-|
|-0-------------------------------|-------------------------1-111-1-|
|
|Guitar 2
|---------------------------------|---------------------------------|
|---------------------------------|---------------------------------|
|-4NH-DB\\\\\---------------------|---------------------------------|
|---------------------------------|---------------------------------|
|---------------------------------|-7NH-DB\\\\\---------------------|
|---------------------------------|---------------------------------|

Guitar 1
|---------------------------------|---------------------------------|
|---------------------------------|---------------------------------|
|---------------------------------|---------------------------------|
|-2-------------------------------|-3---------------5---------------|
|-2-------------------------------|-1---------------3---------------|
|-0-------------------------------|---------------------------------|
|
|Guitar 2
|---------------------------------|---------------------------------|
|---------------------------------|---------------------------------|
|-5NH-////DB------5\/5\/5\(5\\\---|-5NH-DB\\\\\---------------------|
|---------------------------------|---------------------------------|
|---------------------------------|---------------------------------|
|---------------------------------|---------------------------------|


________________________________________________________________________________


Pre-verse 1
Guitar 1
||-----------------------------------------------------------------||
|o-----------------------------------------------------------------o|
||-----------------------------------------------------------------||
||-----------------------------------------------------------------||
|o-----------------------------------------------------------------o|
||-6p0-0-0-0-0-0-0-6p0-0-0-0-0-0-0-6p0-0-0-0-0-0-0-6p0-5p0-3p0-5p0-||
|
|Guitar 2
||-----------------------------------------------------------------||
|o-----------------------------------------------------------------o|
||-----------------------------------------------------------------||
||-2---------------------------------------------------------------||
|o-2---------------------------------------------------------------o|
||-0---------------------------------------------------------------||

Both guitars
|-----------------------------------------------------------------|
|-----------------------------------------------------------------|
|-----------------------------------------------------------------|
|-----------------------------------------------------------------|
|-----------------------------------------------------------------|
|-6p0-0-0-0-0-0-0-6p0-0-0-0-0-0-0-6p0-0-

Raising Hell Tabs by Bullet For My Valentine

 ----------------------------------------------------------------------------
                            Raising Hell
                        Bullet For My Valentine
----------------------------------------------------------------------------

I’ll be honest, I was a little scared that BFMV might have lost their mojo when 
Temper Temper came out. But “Raising Hell” puts my mind at ease (ok, not my best 
play-on-words). Enjoy!

Username: dkm817 (same on X box live)
Youtube Cover: https://www.youtube.com/watch?v=WeNqP04zfL0
Email: guitardrums@rockfan.com

Guitar 1 Rhythmic (D G C F A D)
Guitar 2 Lead     (D G C F A D)
Guitar 3 Lead     (D G C F A D)

NOTE: This was exported off of guitar pro.


Guitar 1

     W                   W                   W                 
D||-------------------|-------------------|-------------------|
A||-------------------|-------------------|-------------------|
F||-------------------|-------------------|--3----------------|
C||--2----------------|--L----------------|--2----------------|
G||--2----------------|--L----------------|--1----------------|
D||--0----------------|--L----------------|-------------------|


           PM PM PM PM PM                                          
  H        E  S  S  E  E     W                   W                 
--------------------------|-------------------|-------------------|
--------------------------|-------------------|-------------------|
--L-----------------------|-------------------|-------------------|
--L--------2--2--2--2--3--|--2----------------|--L----------------|
--L--------2--2--2--2--3--|--2----------------|--L----------------|
-----------0--0--0--2--3--|--0----------------|--L----------------|


  W                   W                 
-------------------|-------------------|
-------------------|-------------------|
--3----------------|--3----------------|
--2----------------|--2----------------|
--1----------------|--3----------------|
-------------------|-------------------|


      PM PM PM PM PM PM     PM PM PM PM PM PM  
  S S S  S  S  S  S  S  S S S  S  S  S  S  S   
----------------------------------------------|
----------------------------------------------|
----------------------------------------------|
----------------------------------------------|
----------------------------------------------|
--6-0-0--0--0--0--0--0--6-0-0--0--0--0--0--0--|


      PM PM PM PM PM PM                  
  S S S  S  S  S  S  S  S S S S S S S S  
----------------------------------------|
----------------------------------------|
----------------------------------------|
----------------------------------------|
----------------------------------------|
--6-0-0--0--0--0--0--0--6-0-5-0-3-0-5-0-|


      PM PM PM PM PM PM     PM PM PM PM PM PM  
  S S S  S  S  S  S  S  S S S  S  S  S  S  S   
----------------------------------------------|
----------------------------------------------|
----------------------------------------------|
----------------------------------------------|
----------------------------------------------|
--6-0-0--0--0--0--0--0--6-0-0--0--0--0--0--0--|


      PM PM PM PM PM PM                  
  S S S  S  S  S  S  S  S S S S S S S S  
----------------------------------------|
----------------------------------------|
----------------------------------------|
----------------------------------------|
----------------------------------------|
--6-0-0--0--0--0--0--0--6-0-5-0-3-0-5-0-|


      PM PM PM PM PM PM     PM PM PM PM PM PM  
  S S S  S  S  S  S  S  S S S  S  S  S  S  S   
----------------------------------------------|
----------------------------------------------|
----------------------------------------------|
----------------------------------------------|
----------------------------------------------|
--6-0-0--0--0--0--0--0--6-0-0--0--0--0--0--0--|


      PM PM PM PM PM PM                  
  S S S  S  S  S