Tag: ready

Barbara Mason – Yes Im Ready chords

 Yes I'm Ready:Barbara Mason.
#2 on R&B Charts and #5 on BB Hot 100
on ARCTIC Records in 1965.


INTRO:  Abm7 Gb Abm7 Gb Abm7 Gb Gb Abm7 Gb Abm7 
(Are you ready?)..Yes, I'm ready..
          Abm7 Gb Abm7 
(Are you ready?)..yes, I'm ready.

#1.
 Gb Abm7 Gb Bbm Abm7 Gb 
I don't even know how  to love you..just the 
     B Gb 
way you want me to.
 Abm7 Ebm 
But I'm ready (ready) to learn (to learn.)
          Abm7 Ebm Bbm 
Yes, I'm ready (ready) to learn (to learn.)
    Abm7 Bbm Abm7 Bbm Abm7 B 
To fall in  love, to fall in love, to fall 
 Db Abm7 Gb B 
in love with you.....

#2.
 Gb Abm7 Gb Bbm Abm7 B  
I don't even know how  to hold your hand....
         Gb B Gb 
just to make you understand.
         Abm7 Bbm 
But I'm ready (ready) to learn (to learn.)
          Abm7 Bbm 
Yes, I'm ready (ready) to learn (to learn.)
    Abm7 Bbm Abm7 Bbm Abm7 
To hold your hand, make you understand.
         Bbm Abm7 Db Gb 
To hold your hand, right now.

#3.
         Abm7 Bbm Abm7 Gb 
I don't even know how to kiss your lips..(kiss 
      Abm7 Bbm B Abm7 Db 
your lips) at a moment like this.
     Gb Abm7 Gb Bbm Abm7 
But I'm going to learn how to do-oo-oo-oo...all 
     Gb Db Gb 
the things you want me to.

CHORUS:
  Gb Abm7 Bbm 
(Are you ready?)..Yes, I'm ready..
  Db Abm7 Bbm 
(Are you ready?)..yes, I'm ready.
 Abm7 Bbm Abm7 Bbm Abm7 Bbm 
To   fall in love, to fall in  love, to fall in 
 Abm7 Db Gb 
love, right now.

OUTRO:
  Gb Abm7 Gb Abm7 
(Are you ready?)..Yes, I'm ready..
  Db Abm7 Gb Abm7 
(Are you ready?)..yes, I'm ready.
  Db Abm7 Gb Abm7 
(To kiss me?)..Yes, I'm ready..(Fade.)



A sixties smash from Kraziekhat.

Are You Ready chords – Hazen Street

 Hazen Street
Are You Ready
Hazen St.
2004
Submitted by: jeremyunderground41

Key: G, F

Tuning: Standard EADGBe

Chords used:
 Em  - 022000
 F  -  133211
 G  -  320003
 Bb  - x13331
 Gm  - 355333
 A  -  x02220
 C  -  x32010


Intro: Em--F-G--D--F-Em-- x4 Em(hold)


Verse 1:
 Em F 
  You talk about it
 Gm Bb A 
  Now be about it
 Em F 
  It's not so hard
     G 
to scream and shout
 Bb A Em 
it  Everybody is so
 F 
down when it's
 G Bb A 
safe and sound
     Em 
You wanna prove
 F G Bb A 
something?
            Bb 
Well Do it now
Are you ready
    Gm Bb Gm 
to die for us?
 Bb 
  Are you willing
    C 
to lose your freedom?


Chorus 1:
 Em F G 
  Are you ready?
 D F Em 
  Are you with
       Em 
me or not?
          F G 
Cause I'm  going
     D F 
all out so show
 Em 
me what you got
 Em F G 
  So Are you ready?
 D F Em 
  Are you with
       Em 
me or not?
          F G 
Cause I'm  going
     D F 
all out so show
Em          Em(hold)
me what you got


Verse 2:
 Em F 
  We do or die on
     Gm Bb A 
the front lines
 Em F 
  So when it's time
 Gm Bb 
   you better make
    A Em 
up your mind
       F 
Walk around
         Gm 
talking loud
      Bb A 
in a crowd
     Em 
You wanna prove
 F Gm Bb A 
something?
              Bb 
Well show me now
Are you ready
    Gm Bb Gm 
to die for us?
 Bb 
  Are you willing
    C 
to lose your freedom?


Chorus 2:
 Em F G 
  Are you ready?
 D F Em 
  Are you with
       Em 
me or not?
          F G 
Cause I'm  going
     D F 
all out so show
 Em 
me what you got
 Em F G 
  So Are you ready?
 D F Em 
  Are you with
       Em 
me or not?
          F G 
Cause I'm  going
     D F 
all out so show
 Em 
me what you got


Bass Solo: Em-D-F-D-F-G- x2


Bridge:
Show me
          Em D F D F G Em D F D 
what you got
 F 
Show me
 G Em D F D F G Em D F D F G 
what you got


Verse 3:
 Em F 
  You talk about it
 Gm Bb A 
  Now be about it
 Em F 
  It's not so hard
     G 
to scream and shout
 Bb A Em 
it  Everybody is so
 F 
down when it's
 G Bb A 
safe and sound
     Em 
You wanna prove
 F C 
something?
Do

Joy In Leeuwarden We Are Ready chords – Half Man Half Biscuit

 (intro  F C ,  F C )

 F C 
Can you hear the bells-a-ringing, Alice van der Meer?
 F C 
Are you wondering what the hue and cry's about my dear?
 F C 
Hurry now and run along to the public square
 G 
Break off from grouting Willy

Lay down your puzzle Jan.
 C F C 
Korfball's coming to town
         F C 
In your diary write it down
           F C 
Roll on October, hip hip hooray!
 G C 
Joy in Leeuwarden for sure.
 F C 
Serbians, Hungarians, Germans everywhere
 F C 
Dobrodosli, Isten hozta, Willkommen, Mein Herr!
 F C 
Netherlands are strong again, dreaming of success
     G 
And Uncle Rudi has a smile upon his face.
 C F C 
Korfball's coming to town
         F C 
In your diary write it down
           F C 
Roll on October, hip hip hooray!
 G C         (Instr as chorus  C F C ,  F C ,  F C ,  G C )
Joy in Leeuwarden for sure.
 Am C 
Sixteen teams are taking part
 Am C 
Sixteen camps of hope
 Am C 
Some contain top, top players
 G C 
Some are just a crock of shit.
 F C 
Take me where the horns are honking long and loud and true
 F C 
Paint my face with the red and white and blue
 F C 
Rotterdam is cock-a-hoop they have the final there
             G 
But there's often more intrigue in the pool games.
 C F C 
Korfball's coming to town
         F C 
In your diary write it down
           F C 
Roll on October hip hip hooray!
 G C 
Joy in Leeuwarden for sure.
 G C 
Joy in Leeuwarden for sure
 G C 
Joy in Leeuwarden, joy in Leeuwarden, joy in Leeuwarden for sure.

Perth Ready For The Flood Live Tabs by Daughter

 Drop D Tuning

-x---x---x---x--            -x---x---x--x---x--
-x---x---x---x--            -x---x---x--x---x--
-4---7---2---4--   Verse    -4---11--7--6---4--   Chorus
-x---x---x---x--            -x---x---x--x---x--
-x---x---x---x--            -x---x---x--x---x--
-5---9---0---5--            -5---12--9--7---5--
 G   Bm  D   G               G   D  Bm  A   G

Intro (same as verse) - x2

Verse - x4

Chorus - x2

Verse - x4

Chorus - x2

Verse - x2

Chorus - x2

Verse - x2

Get Ready chords – Reggie Watts

 INTRO & VERSE
--------------------
 G Dmaj7 G A  (intro x2 - verse x4)


BRIDGE
--------------------
 F Dmaj7  x3  Em A A 


REFRAIN
--------------------
 Dmaj7 Bm A G Gm  x2


-----------------------------------------------------------------------------

LYRICS
--------------------
[Verse 1]
I've been here a long time
I dig what you do
I'd like to spend some time with you
(Would you like that baby?)

I'm trying to stand strong
Ever since I met you
It seems so hard
And I want to do whatever it takes
To get you in my life

[Bridge]
Seems like I've not seen you in days
I'm sending all my love on down your way
I hope you get it soon so we can play
I'm waiting baby

[Refrain]
Get ready I'm terrified and I know you are too
Sounds crazy but I'm falling in love with you
Get ready I'm mortified but I know that it's true
So happy cuz I'm falling in love with you

[Verse 2]
There has been so much static getting in the way
But I've seen so much harder circumstances
Now we can make it through

Figured you might be around
The place where I met you
Let's talk for a while try and make it good
Ain't nothing left to lose

[Bridge]

[Refrain x2]

-----------------------------------------------------------------------------

That is all.

Listen to the song to find more information. It can be found on youtube.

Have a nice day.

Are You Ready chords – Kate Miller-heidke

 Hey everyone, this is a great song and I couldn't find it anywhere so I wanted to 
share so here it is: Kate Miller-Heidke and Keir Nuttall's Are You Ready. This is 
based off the music video version... please watch the video, it's very 
interesting. The chords sound correct besides some voicing issues. 

Capo 1
Tuning: Standard

Weird chords: 
 E6 : 422100 or XX100

 A D Dsus2  (x2)

 A 
Are you all ready
( A )
Are you ready get set
 D Dsus2 
Are you ready get set 
      A 
Are you ready?

 A 
Are you all ready
 A 
Are you ready get set
 D Dsus2 
Are you ready get set
    A 
let’s go

           D 
Does your hair look right?
         A 
Is your fly done up?
          E6 
Have you popped your pimples?
          D 
Have you got your coat?
          A 
And some lippy on?
      E6 
Just keep it simple
         D 
Are you all cashed up?
       A 
I can lend you some?
      E6 
Well I’d be glad to
          D 
Have you had a think
       A 
And a warm up drink
 G 
Now! Now! Now! Now!


 A 
Are you all ready
( A )
Are you ready get set
 D Dsus2 
Are you ready get set 
      A 
Are you ready?

 A 
Are you all ready
 A 
Are you ready get set
 D Dsus2 
Are you ready get set
    A 
let’s go


        D 
Is the cat put out?
        A 
Is the iron off?
          E6 
We don’t wanna come home to a fire
          D 
Have you trimmed your beard?
          A 
Are your sandals shined?
        E6 
Do you look like a hipster messiah?
          D 
Have you got your keys?
          A 
Have you got ID?
         E6 
Did you bring a comb for Gary?
          D 
Have you had a think
       A 
And a warm up drink?
 G 
Now! Now! Now! Now!

Instrumental:
 A D Dsus2  (x2)

 A 
Are you all ready
( A )
Are you ready get set
 D Dsus2 
Are you ready get set 
      A 
Are you ready?

 A 
Are you all ready
 A 
Are you ready get set
 D Dsus2 
Are you ready get set
    A 
let’s go

 D 
Leave your book
     A 
And leave the mirror
       E6 
Cause you’re already stunning
     D 
The sky above
     A 
Was never clearer
 E6 
And the engine’s running
    D 
So cast aside
      A 
Your novelty ties
     E6 
And bury your vendettas
 D 
Life is short
 A G 
But tonight your ass is mine!
( G )
Mine! Mine! Mine!


 A 
Are you all ready
( A )
Are you ready get set
 D Dsus2 
Are you ready get set 
      A 
Are you ready?

 A 
Are you all ready
 A 
Are you ready get set
 D Dsus2 
Are you ready get set
    A 
let’s go


 D 
Leave your book
     A 
And leave the mirror
       E6 
Cause you’re already stunning
     D 
The sky above
     A 
Was never clearer
 E6 
And the engine’s running
          D 
Well the end is nigh and
         <s

Are You Ready Tabs by Washya

 -----------------------------------------------------------------------------
                             Are You Ready ? - Washya
-----------------------------------------------------------------------------
Tuning: Drop D (EBGDAD)
Intro/Chorus
E|---------------------------------------------------|
B|---------------------------------------------------|
G|---------------------------------------------------|
D|---------5p4-------------5p4-----5p4-----5p4-----3-|
A|-5h7-7-7-----7p5-5h7-7-7-----7p5-----7p5-----7p5p3-|
D|-------------------------------------------------3-|x3


Verses
E|----------------------------------------------------|
B|----------------------------------------------------|
G|--------------5-5--------------3-3------------------|
D|--------------5-5--------------3-3--------------3-3-|
A|--------------3-3--------------1-1--------------3-3-|
D|-000000000000-----555555555555-----333333333333-3-3-|
PM ************     ************     ************ 

Soular Flares chords – The Ready Set V3

 Great song by a great artist! This one is for people who hate Bm (like me) so I 
 it's a very fun song to play.

Chords:
 G : 320003
 C : x32010
 Am : x02210

CAPO 4
 C G 
I've been thinking that the stars are all aligned, 
    Am G 
I'm young but I am bright enough to read solar signs. 
 C G 
So, is it cool if i call you around 8 or 9?
       Am G 
we'll talk a real long time about the days when we were young, we're still young. 
(we're still young, we're still)

 Am G 
I told you that your heart's quite big and I like it, but you were skeptical, skeptical. 
 Am G 
Oh, can you feel me in the sunrise, or in the daytime? 
i like your night eyes.
 Am G 
And you are beautiful in every single way, I would like to see your shining face every day. 
        Am 
if I'm lying may the lightning strike me down to the ground, 
        G 
'cause I don't need electric currents when you're around.

 C G 
I'll contrive a way to find you diamond rings, 
      Am G 
I'll sell all of my things or rob a jewelry store, but what good could that 
 C 
do?                          G 
love is something that just cant be bought or sold, 
    Am G 
it wont come when it's told it only comes from the soul. so do you got 
 Am 
soul?           G 
Because you've got me so wrapped up in you.
 Am G          
So darling do you know (Darling do you know?) do you know how you got so lovely? 
 Am G 
Was it self-taught, learned from life? You've got skills making boys go crazy, 
 Am G 
And i've been running down the stairs again, I think you're in my head girl, 
I think I'm freaking out girl.
 Am G 
Sometimes i wonder if you're even real, if not it's cool, 
I don't wanna go back to the way that it was,
I don't wanna go back 'cause i think i may be (in love)

 C G 
I'll contrive a way to find you diamond rings, 
      Am G 
I'll sell all of my things or rob a jewelry store, but what good could that 
 C 
do?                          G 
Love is something that just cant be bought or sold, 
    Am G 
It wont come when it's told it only comes from the soul.

 C 
Real relationships come and go, 
     G Am 
but what makes a difference is how you take advantage of the flirting eyes, 
                  G 
lips and thighs, romance and regrets, this is a ship wreck.
 C 
Real relationships come and go, 
     G Am 
but what makes a difference is how you take advantage of the flirting eyes, 
                  G 
lips and thighs, romance and regrets, this is a ship wreck.
 C G 
I'm the one who fell in love and stayed that way. 
 Am G 
I'm the one who fell in love and stayed that way.
 C 
So take my advice, 
 G Am G C 
love with your head, love with your heart, love with all you have. 

 C G 
I'll contrive a way to find you diamond rings, 
      Am G 
I'll sell all of my things or rob a jewelry store, but what good could that 
 C 
do?                          G 
Love is something that just cant be bought or sold, 
    Am G 
it wont come when it's told it only comes from the

Ready chords – Third Day V3

 READY – Third Day

Intro:  Em A C D Em A C Em A C 
   I’m ready for the winds to change
                   D                        
   I’m ready for a brighter day
 Em A C 
   I’m ready for the sun to shine down on me
 Em A C 
   I’m waiting for a song to sing
                     D Em 
   I’m looking for a brand new thing
 Em A C                           
I’m ready now to live a life that I believe

CHORUS:
            C G     
I want the world to turn because of love
     Em D     
and mercy to find each of us
 C G D 
doing what we can to just believe
            C G 
I want the world to know that you’re the one
       Em D 
who fills me up and gives me hope
       C G D                 
and brings about this change that’s in me
  D C G D C G D   
oh yeah, I’m ready yeah  you know I’m ready now


I’m ready for the truth to be
something that can set us free
does anybody still believe we’ll make it through
I’m ready now to take a stand
to live life for more than myself
tell me now my friend are you ready too

(CHORUS)

 C G B7 Em           
I can’t sit around waiting for it all to change
            C G D       
it’s gonna take every single one of us doing what we can
 C G B7                 
there’s lots of fighting in this world but there’s so 
            Em 
much loving too
       C G B7 
so take my hand I’m ready now for you

(CHORUS)
               C G D 
Lord knows I’m ready
    D C G D           
you know I’m ready
 Em C G 
I’m ready for the winds to change
                D Em 
I’m ready for a brighter day

Ready The Way chords – Praise And Worship

 Intro:   D - G - A - D - G - A - D - G - A - A#dim7 - E - D 

CHORUS
 D G A D G A 
READY THE WAY, READY THE WAY, READY THE WAY OF THE LORD
            D G A A#dim7 E D 
READY THE WAY, READY THE WAY, READY THE WAY OF THE LORD

VERSE 1
 D G A D G A 
MAKE STRAIGHT THE ROAD,  RAISE THE VALLEYS, AND MOUNTAINS MADE LOW
 D A#dim7 D G A D 
TURNING FROM SIN, LET BROKEN BE WHOLE, AND READY THE WAY OF THE LORD

VERSE 2
 D G A D G A 
AS WE WAIT FOR YOU, GIVE US THE STRENGTH TO WALK IN YOUR TRUTH
            D A#dim7 D G A D 
SO WE MAY LOVE, MORE LIKE YOU AND READY THE WAY FOR YOU, LORD

VERSE 3
 D G A D G A 
LET US SEE YOUR FACE;IN OUR HEARTS WE PREPARE A PLACE 
                   D A#dim7 D G A D 
COME BRING THIS WORLD YOU MERCY AND GRACE, AS WE READY THE WAY FOR YOU LORD

CHORUS
 D G A D G A 
READY THE WAY, READY THE WAY, READY THE WAY OF THE LORD
            D G A A#dim7 E D 
READY THE WAY, READY THE WAY, READY THE WAY OF THE LORD

Ready For Repair Tabs by Secrets

 Drop B

Intro =

Chorus =

B |-------------------|-------------------|
F#|-------------------|-------------------|
B |-------------------|-------------------|
E |-7-7-7--10~-10-5-3-|3-3--0~---10-------|
G#|-7-7-7--10~-10-5-3-|3-3--0~---10-------|
C#|-7-7-7--10~-10-5-3-|3-3--0~---10-------|

|-------------------|-------------------|
|-------------------|-------------------|
|-------------------|-------------------|
|-7-7-7--10~-10-5-3-|3-3-3-3-3-3--2-2---|
|-7-7-7--10~-10-5-3-|3-3-3-3-3-3--2-2---|
|-7-7-7--10~-10-5-3-|3-3-3-3-3-3--2-2---|

Verse =

|-------------------|-------------------|
|-------------------|-------------------|
|-------------------|-------------------|
|-------------------|-------------------|
|-------------------|-------------------|
|7-7-7-7-7-10-7-7-7-|7-7-3-3-3-3-3-3-3-3|

|-------------------|-------------------|
|-------------------|-------------------|
|-------------------|-------------------|
|-------------------|-------------------|
|-------------------|-------------------|
|-3-3-2-7-7-7-7-7-10|-7-7-7-7-7-3-3-3-3-|

|-------------------|-------------------|
|-------------------|-------------------|
|-------------------|-------------------|
|---------------7---|-5-----10-----5----|
|---------------7(x4|-5(x2)-10(x4)-5(x2)|
|3-3-3-3-3-3-2--7---|-5-----10-----5----|

|-------------------|-------------------|
|-------------------|-------------------|
|-------------------|-------------------|
|-3-----2------7----|-5-----10-----5----|
|-3(x8)-2(x2)--7(x4)|-5(x2)-10(x4)-5(x2)|
|-3-----2------7----|-5-----10-----5----|

|-------------------|-------------------|
|-------------------|-------------------|
|-------------------|-------------------|
|-3------3~----0~---|-------------------|
|-3(x8)--3~----0~---|-------------------|
|-3------3~----0~---|-10-10-10-10-------|

Return To Chorus(x2)

Verse 2 =

|-------------------|-------------------|
|-------------------|-------------------|
|-------------------|-------------------|
|-------------------|-------------------|
|-------------------|-------------------|
|7-7-7-7-7-10-7-7-7-|7-7-3-3-3-3-3-3-3-3|

|-------------------|-------------------|
|-------------------|-------------------|
|-------------------|-------------------|
|-------------------|-------------------|
|-------------------|-------------------|
|-3-3-2-7-7-7-7-7-10|-7-7-7-7-7-3-3-3-3-|

|-------------------|-------------------|
|-------------------|-------------------|
|-------------------|-------------------|
|------------------7|------3------0-----|
|------------------7|(x5)--3(x5)--0(x5)-|
|3-3-3-3-3-3-2-----7|------3------0-----|

|-------------------|-------------------|
|-------------------|-------------------|
|-------------------|-------------------|
|-2------7------3---|--0------2-----3~--|
|-2(x5)--7(x5)--3(x5|--0(x5)--2(x5)-3~--|
|-2------7------3---|--0------2-----3~--|

|-------------------|
|-------------------|
|-------------------|
|-----------0-------|
|-----------0-------|
|-5-5-5-5-5-0-------|

Return To Chorus(x2)

Bridge =

|-------------------|-------------------|
|-------------------|-------------------|
|-------------------|-------------------|
|--------3~---------|7~--2~-------------|
|--------3~---------|7~--2~-------------|
|3-3-3-3-3~-7-7-7-7-|7~--2~--9-10--3-3-3|

|-------------------|-------------------|
|-------------------|-------------------|
|-------------------|-------------------|
|---3~---------7~---|-----2---------3~--|
|---3~---------7~---|-----2---------3~--|
|-3-3~-7-7-7-7-7~---|9-10-2-3-3-3-3-3~-7|

|-------------------|-------------------|
|-------------------|-------------------|
|-------------------|-------------------|
|-------7~-2~-------|--------3~---------|
|-------7~-2~-------|--------3~---------|
|-7-7-7-7~-2~-10-9--|3-3-3-3-3~-7-7-7-7-|

|-------------------|-------------------|
|-------------------|-------------------

Not Ready To Die solo Tabs by Avenged Sevenfold

 Not Ready To Die Solo
by Avenged Sevenfold
Tuning: D A D G B E low to high

E-12/17--17--17h18--17b--16/12--12--14--15-----15--17--18--17--15--13--------|
B--------------------------------------------15----------------------15------|
G------------------------------------------15--------------------------14-15-|
D----------------------------------------------------------------------------|
A----------------------------------------------------------------------------|
D----------------------------------------------------------------------------|

E---17b--13--------------18--17--16/12--12--16--17----------------------------|
B-15-------15-------------------------------------14b--15--14--15--15v----13--|b
G------------14--14b---14-----------------------------------------------------|
D--------------------15-------------------------------------------------------|
A-----------------------------------------------------------------------------|
D-----------------------------------------------------------------------------|

E-10--12--13--10--12\ /12--14--15\ /15--17--18--17--15--17--13---------|
B-------------------------------------------------------------15----15-|
G---------------------------------------------------------------14-15--|
D----------------------------------------------------------------------|
A----------------------------------------------------------------------|
D----------------------------------------------------------------------|

E-17-18-17-13-17-13--17-18-17-13-17-13--17-18-17-15-13------------------|
B------------------------------------------------------15--13h15p13--15-|
G--------------------------------------------------------15--------15---|
D-----------------------------------------------------------------------|
A-----------------------------------------------------------------------|
D-----------------------------------------------------------------------|

E-16-12-13-16-13-12-------------------------------------------12-17-13-|
B------------------13-12-9-10-12-10-9--12p9----12-9-10-12-10-9---------|
G------------------------------------------10-9------------------------|
D----------------------------------------------------------------------|
A----------------------------------------------------------------------|
D----------------------------------------------------------------------|

E----------------------------------------------------------------------|
B-17-15-14-15-17-15-14-17-14-15--14h17p14-------14---------------------|
G------------------------------14--------14--14(18)14------------------|
D------------------------------------------14--------15-14-15-17-15-14-|
A----------------------------------------------------------------------|
D----------------------------------------------------------------------|

E----------------------------------------------------------------------|
B----------------------------------------------------------14-15-16-17-|
G----------------------------------14-15-17-15-14--14-15-17------------|
D-12-11-12-14-12-11--------14-15-17--------------17--------------------|
A------------------14-11-16--------------------------------------------|
D----------------------------------------------------------------------|

E-14-15-16-17v-|
B--------------|
G--------------|
D--------------|
A--------------|
D--------------|

Key:
v    =   vibrato
b    =   bend
\ /  =   slide the note up and then back down the neck to the same note
/    =   slide the note
h    =   hammer on
p    =   pull off
(18) =   alternate note on G string in place of 14 on B string

Notes:
Vibratos are usually two quick bends.
Bends are small bends - listen to the song to figure out what degree to bend it too.