Tag: Reason

You Are The Reason Acoustic chords by Calum Scott

[Intro]
C Am F G C

[Verse 1]
              C
There goes my heart beating
                  Am
Cause you are the reason
              F      G
I'm losing my sleep
                 C
Please come back now

[Verse 2]
              C
There goes my mind racing
                Am
And you are the reason
               F         G
That I'm still breathing
             Am
I'm hopeless now

[Chorus]
                F          G
I'd climb every mountain
                Am         
And swim every ocean
           F            G
Just to be with you
                  C      G
And fix what I've broken
          Am G   C   G   F    Fm
Oh, cause I need you to see
                    C
That you are the reason

[Verse 3]
              C
There goes my hands shaking
                Am
And you are the reason
               F         G
My heart keeps bleeding
           C
I need you now

[Verse 4]
           C
If I could turn back the clock
                  Am
I'd make sure the light defeated the dark
                F              G
I'd spend every hour, of every day
            Am
Keeping you safe

[Chorus]
                F         G
I'd climb every mountain
               Am        
And swim every ocean
           F         G
Just to be with you
                  C      G
And fix what I've broken
          Am G   C   G   F   Fm
Oh, cause I need you to see
                 F      G    Am
That you are the reason
            F      G    Am
You are the reason
  C           G       F       G
I need you to hold me tonight..

[Outro]
                F         G
I'd climb every mountain
               Am      
And swim every ocean
           F        G
Just to be with you
                  C     
And fix what I've broken
      Am G   C   G  F    Fm
Cause I need you to see
                 C
That you are the reason

This Time I Got A Reason intro Tabs – Fuzz

 -------------------------------------------------------------------------------
                     This Time I Got A Reason - Fuzz
-------------------------------------------------------------------------------

Tuning: Standard

e|-------3-3-3--5-5-5-5-5----------------------------------------------------|
B|-------5-3-3--5-5-5-5-5----------------------------------------------------|
G|--1-1--5-4-4--6-6-6-6-6--7b------------------------------------------------|
D|--2-2--5-5-5--7-7-7-7-7----------------------------------------------------|
A|--2-2--3-5-5--7-7-7-7-7----------------------------------------------------| 4x
E|--0-0--3-3-3--5-5-5-5-5----------------------------------------------------|

e|--8--8--8--8---10--5---8--8--8--8---3--5--8--8--8--8---10--5---3-3-3-3-3---------------|
B|--8--8--8--8---10--5---8--8--8--8---3--5--8--8--8--8---10--5---3-3-3-3-3---------------|
G|--9--9--9--9---11--6---9--9--9--9---4--6--9--9--9--9---11--6---4-4-4-4-4---------------|
D|--10-10-10-10--12--7---10-10-10-10--5--7--10-10-10-10--12--7---5-5-5-5-5---------------|
A|--10-10-10-10--12--7---10-10-10-10--5--7--10-10-10-10--12--7---5-5-5-5-5---------------|
E|--8--8--8--8---10--5---8--8--8--8---3--5--8--8--8--8---10--5---3-3-3-3-3---------------|

e|-------3-3-3--5-5-5-5-5----------------------------------------------------|
B|-------5-3-3--5-5-5-5-5----------------------------------------------------|
G|--1-1--5-4-4--6-6-6-6-6--7b------------------------------------------------|
D|--2-2--5-5-5--7-7-7-7-7----------------------------------------------------|
A|--2-2--3-5-5--7-7-7-7-7----------------------------------------------------| 4x
E|--0-0--3-3-3--5-5-5-5-5----------------------------------------------------|

The Reason Why chords – Lorenzo Fragola V2

 This is the same tab Lorenzo uses, I think it's the most accurate. Enjoy :)

INTRO:  F#m D A Asus2 F#m D A Asus2 
You say, you say that all is going great
 F#m D A Asus2 
but i just can’t get away
 F#m D A Asus2 
and i know, i know, it’s not enough
 F#m D A Asus2 
cause i’ve been falling in love
          Bm F#m 
and you say your love is far away
                           A 
do you think of him everyday
                            E 
or you worried you’ll forget his name
             Bm                   
and i don’t care
                 F#m 
you see me as a friend
                         A 
but please just keep on dancing
                E 
forever always ends you know

 Bm F#m E 
fall in love you and I
 Bm F#m E 
Can’t afford to waste our time
 Bm F#m E 
sun is up in the sky
 Bm F#m E 
and we don’t even know the reason why

 F#m D                       
so high, so high
 A Asus2 
we were so blind
 F#m D A Asus2 
because we got high one night
 F#m D   
And i know i’m wrong
 A Asus2 
that i just don’t care at all
 F#m D A Asus2 
i’ll catch you when you fall

             Bm                   
and i don’t care
                 F#m 
you see me as a friend
                         A 
but please just keep on dancing
                E 
forever always ends you know

 Bm F#m E 
fall in love you and I
 Bm F#m E 
Can’t afford to waste our time
 Bm F#m E 
sun is up in the sky
 Bm F#m E 
and we don’t even know the reason why

           Bm F#m 
And i don’t know what makes him be so fly
             E 
maybe he’s got game and you’re hypnotized
           Bm F#m 
but i can be a slave in heaven or a king in hell
           E 
but i prefer the flames coz red i rock well

 (no chords)
one day we'll be mine

 Bm F#m E 
fall in love you and I
 Bm F#m E 
Can’t afford to waste our time
 Bm F#m E 
sun is up in the sky
 Bm F#m E 
and we don’t even know the reason why

 F#m D A Asus2 
You say, you say that all is going great
 F#m D A                
but i just can’t get away

All Along The Watchtower chords – Jimi Hendrix V3

 
Intro:  (  Bb Cm Bb Ab  ) x4  

 Bb Cm Bb Ab Bb Cm Bb Ab  
   "There must be some kind of way out of here,"  said the joker to the thief
 Bb Cm Bb Ab Bb Cm Bb Fm    
    "There's too much confusion,      I can't get no relief
 Bb Cm Bb Ab Bb Cm Bb Ab    
     Businessmen, they drink my wine,   plowmen dig my earth
 Bb Cm Bb Ab Bb Cm Bb Ab   
     None will level on the line,     nobody of it is worth"

Solo: (  Bb Cm Bb Ab  ) x4 

 Bb Cm Bb Ab Bb Cm Bb Ab 
    "No reason to get excited,"   the thief, he kindly spoke
 Bb Cm Bb Ab Bb Cm Bb Fm 
    "There are many here among us,   who feel that life is but a joke
 Bb Cm Bb Ab Bb Cm Bb Ab 
    But you and I, we've been through that,  and this is not our fate
 Bb Cm Bb Ab Bb Cm Bb Ab     
    So let us not talk falsely now,    the hour's getting late" hey

Solo: (  Bb Cm Bb Ab  ) x16

 Bb Cm Bb Ab Bb Cm Bb Ab  
   All along the watchtower,   princess kept the view
 Bb Cm Bb Ab Bb Cm Bb Fm 
    While all the women came and went,  barefoot servants, too, well
 Bb Cm Bb Ab Bb Cm Bb Ab  
   Outside in the cold distance,    a wildcat did growl
 Bb Cm Bb Ab Bb Cm Bb Ab    
     Two riders were approaching,   and the wind began to howl, hey

Solo: (  Bb Cm Bb Ab  )  (repeat fade)

If I Believed chords – Starkid

 Intro:  D D 
If I believed in wishes
 G/D 
As silly as it seems.
 E 
I'd find that hidden cave,
Turn back the sands of time
      C/E C#dim/E 
And save you.
 D 
If I believed in dreams

 D 
If I believed in magic
 G/D 
If I believed in good
 E 
I'd be the best vizier,
I'd make our troubles disappear
    C/E C#dim/E  
If I believed I could.

 Bmin/D 
But wishes are dreams
And dreams are pretend
 C Cm 
So science and reason win out in the end.

 Em C#dim/E 
Science says you're dead and gone forever,
 D Bmin/D 
Reason says I'm talking to the air,
 Em 
But something in my heart
 C#dim/E 
Some secret hidden part
F#min                             C#dim/E 
Illogically insists that you are there.
 A/E 
Somewhere.

 D 
If I believed in wishes
 G/D 
If I can find the key
 E 
Perhaps it's not to late
To change the course of fate
 C/E C#dim/E 
Cause after all I must be pretty great
 D 
If you believed in me.

David Meece chords – We Are The Reason

 We Are the Reason
David Meece

Capo 5

 G Am G Am D G B7 Em 
As little children, we would dream of Christmas morn
    Em7 C G/B Am 
Of all the gifts and toys we knew we’d find
          B7 Em Em7 A7 
But we’d never realized a baby born one blessed night
             Am7 D 
Gave us the greatest gift of our lives

 G Am 
We were the reason that He gave His life
 D7 G 
We were the reason that He suffered and died
 D/F# Em Em7 Am Am7 
To a   world that was lost, He gave all He could give
    D7 G 
To show us a reason to live

 G Am G Am D G B7 Em 
As the years went by, we learned more about gifts
     Em7 C G/B Am 
The giving of ourselves and what that means
      B7 Em Em7 A7 
On a dark and cloudy day, a man hung crying in the rain
            Am7 D 
Because of love, because of love

     G Am 
And we were the reason that He gave His life
 D7 G 
We were the reason that He suffered and died
 D/F# Em Em7 Am Am7 
To a   world that was lost, He gave all He could give
    D7 G 
To show us a reason to live

   D# A#   
I finally found the reason for living
          C# G# 
It’s in giving ev’ry part of my heart to Him
    B D# 
In all that I do, ev’ry word that I say
         F Bb 
I’ll be giving my all just for Him
     E 
For Him

     A Bm Bm7 
And we are the reason that He gave His life
 E E7 A 
We are the reason that He suffered and died
 E Fm Fm7 Bm Bm7 
To a world that was lost, He gave all He could give
    E E7 Fm B 
To show us the reason to live
 D E A 
He is my reason to live

 A Bm Bm7 E E7 A E Fm Fm7 Bm Bm7 E E7 A

The Only Reason chords – Jp Cooper

 Dbm                   
It started out in spring time
 B            
Against the golden skyline
 A 
You spoke to me at last
 Dbm B 
It started out intensely and with it all my senses
 A 
I knew. I'm sure I knew

 Dbm B A 
The only reason God gave me eyes was to see you
 Dbm B A 
The only reason God gave me ears was to hear your voice
 B Dbm B Dbm A 
Say, I will al... I will always love you
 B Dbm    
And when the wind gets cold
 B Dbm A 
I'll wrap my arms around you

 Dbm B          
We shared our dreams, endeavors and many things
                            A 
We never could tell a soul before
 Dbm B A 
I saw you smile through the tears that fell to the floor
I'm sure I knew

 Dbm B A 
The only reason God gave me hands was to hold you
 Dbm B A 
And he finely tuned the drums in my ears just to hear your voice
 B Dbm B Dbm A 
Say, I will al... I will always love you
 B Dbm    
And when the wind gets cold
 B Dbm A E 
I'll build a fire to warm your hands
 B Dbm A 
I'll wrap my arms around you

 D F#m          
And I won't let shadows scare you in the stillness of the night
 D F#m          
Be the cooling voice to tell you everything is alright
 D F#m          
And when darkness tries to drag you down
 F#m 
There will be a light
 F#m G#m A 
And no wind and no storm and no hatred can hide it
I'll help you find it


 B Dbm B Dbm A 
And I will al... I will always love you
 B Dbm    
And when the wind gets cold
 B Dbm A 
I'll wrap my arms around you
 B Dbm B Dbm A 
Oooh and I will al... I will always love you
 B Dbm    
And when the wind gets cold
 B Dbm A E 
I'll build a fire to warm your hands
 B Dbm A 
I'll wrap my arms around you

http://www.jpcooper.co.uk/

Something To Forget Tabs by Texas Is The Reason

 -----------------------------------------------------------------------------
            SOMETHING TO FORGET (VERSION I) - Texas Is The Reason
-----------------------------------------------------------------------------
So someone requested I tab this out, so I thought I'd give it a try. It'd 
definitely missing a lot of parts, but it's better than nothing. It should give 
you a good foundation of how to play the song.

Tuning: Drop D

Intro I:
e|------------2-----2----5----5-3-2-2h3-2----------------|
B|------3--------3-----3------------------5-5--5-/-3-3---|
G|----2-----------2--------------------------------------|
D|--0----------------------------------------------------|
A|-------------------------------------------------------|
D|-------------------------------------------------------|

Intro II: (rhythm is constant 16th notes)
e|---------------------------------------------------|
B|---------------------------------------------------|
G|---------------------------------------------------|
D|-00000000444444445-5-5-5-5-5-5-5-5-5-5-5-5-5-5-5---|
A|-00000000555555555-5-5-5-5-5-5-5-5-5-5-5-5-5-5-5---|
D|-00000000444444445-5-5-5-5-5-5-5-5-5-5-5-5-5-5-5---|
 |                                                   |
e|---------------------------------------------------|
B|---------------------------------------------------|
G|-777777779999777712121211111111111212121111111111--|
D|-xxxxxxxxxxxxxxxxx-x-x-x-x-x-x-x-x-x-x-x-x-x-x-x---|
A|-55555555777755551010109-9-9-9-9-1010109-9-9-9-9---|
D|---------------------------------------------------|

e|------------------------------------|-------------|
B|------------------------------------|-------------|
G|------------------------------------|-------------|
D|-0000000055555555-------------------|-0-----------|
A|-0000000055555555-5-55555555555555--|-0-----------|
D|-0000000055555555-4-44444445555555--|-0-----------|
 |                    pm..........                  |Leads into verse
 |                                                  |
e|------------------------------------|-----555-5-5-|
B|------------------------------------|-----777-7-7-|
G|-7777777799997777-------------------|-7-----------|
D|-xxxxxxxxxxxxxxxx-------------------|-x-----------|
A|-5555555577775555-5-55555555555555--|-5-----------|
D|------------------4-44444455555555--|-------------|
                      pm..........

Verse: Just the Intro II x3 and repeat the last palm muted part 3x


Chorus: x4
e|-------------------------------------------------------------------|
B|-------------------------------------------------------------------|
G|-------------------------------------------------------------------|
D|-000000000000000000000000000000005555555555557fbr55555555555555555-|
A|-00000000000000000000000000000000555555555555-----5555555555555555-|
D|-00000000000000000000000000000000555555555555-----5555555555555555-|
 |                                      *bend the 7 up to a 9        |
 |                              and then release back down to the 5  |
 |                                                                   |
e|-------------------------------------------------------------------|
B|-------------------------------------------------------------------|
G|-77777777777777777777777777777777----------------------------------|
D|-xxxxxxxxxxxxxxxxxxxxxxxxxxxxxxxx-7--7779--99999----7--7779--9999--|
A|-55555555555555555555555555555555-5--5555--55555----5--5555--5555--|
D|----------------------------------5--5555--55555----5--5555--5555--|


Now go back and repeat the Intro II, Verse and Chorus again


Clean Bridge: (emphasis on the v's)
e|-5-5-5-5-5-5-5-5-5-5-5-5-5-5-5-5-|
B|-7-7-7-7-7-7-7-7-7-7-7-7-7-7-7-7-|
G|-7-7-7-7-7-7-7-7-7-7-7-7-7-7-7-7-|x a lot
D|-v-----v-----v-----v-----v---v---|
A|---------------------------------|
D|---------------------------------|
 |                                 |
e|-101010------15151514141410

Crying For No Reason chords – Katy Brien

 Chord Layout for:
Crying For No Reason - Katy B

This is quite a simple yet fun song to play along to. The timing of the verses and
chorus does not change throughout the track and can be quickly picked up by listening to the
song. However the strumming pattern slightly changes through the bridge, but again this 
can be picked up by listening to the song. Enjoy!

INTRO
 C#m B A  x2

VERSE 1
 C#m B A 
I push all my problems to the back of my mind
 A B C#m 
Then they surface in my dreams, they come alive
 C#m B A 
I sweep all my issues to somewhere I can't find
 A B A 
In hope that I'll forget but there's just so many times

 C#m B A 
Why can't I be strong and just confront all my fears?
 A B C#m 
When my fear is hurting you by being sincere
 C#m B A 
But how many more days can I run? How many years?
 A B A 
Emotions flooding and now it's all seeming so clear

CHORUS
 F#m C#m 
Crying for no reason, feel the tears roll down
 C#m B A 
I felt strong but am I breaking now?
 A C#m 
Crying for no reason 'cause I buried it deep
 C#m B A 
I made promises I could not keep
 A E 
'Cause I never faced all the pain I caused
         B C#m 
Now the pain is hitting me full force

VERSE 2
I push all my problems to the back of my brain
A darkness deep inside where I just can't find my way
How can I walk with a smile? Get on with my day
When I deceived myself pretending it's all okay

I tried my best to hold it all together, I know
The strings have worn away and now I'm all exposed
I try to hide it all away on top of the shelf
I can lie to everyone but not to myself

---CHORUS---

BRIDGE
 C#m A E B 
Forgive me now 'cause I said that I'll be there for you, care for you
           C#m A 
I let you down, I walked away
                                     E B 
'Cause there were things I couldn't say to you, say to you
              C#m 
I'm breaking now

Played twice:
 C#m 
I burned some bridges down
 A 
There must be some way out
 E 
The voices speak so loud
 B 
Will you forgive me now?

---CHORUS---

The Boredom Is The Reason I Started Swimming Its Also The Reason I Started Sinking Tabs by The Front Bottoms

 Intro
E---------|
B---------|
G---------| X6
D-22222222|
A-00000000|
E---------|

'Foreign countries...'
E-----------------------------------------------------------------|
B-----------------------------------------------------------------|
G-----------------------------------------------------------------| X2
D-2222222222222222999999999999999977777777777777779999999977777777|
A-0000000000000000777777777777777755555555555555557777777755555555|
E-----------------------------------------------------------------|


'And I am not sure that I want...'
E-----------------|
B-----------------|
G-----------------| X3
D-----------------|
A-7777999955555555|
E-5555777733333333|

E-----------------|
B-----------------|
G-----------------|
D-7777777777777777|
A-5555555555555555|
E-----------------|


'Cause everybody pays...'
E-----------------------------------------------------------------|
B-----------------------------------------------------------------|
G-----------------------------------------------------------------| X2
D---------------------------------77777777444444447777777744444444|
A-4~~-22~-77~-22224~~-22~-77~-999955555555222222225555555522222222|
E-2~~-00~-55~-00002~~-00~-55~-7777--------------------------------|


'Keep it simple and honest...'
E-----------------------------------------------------------------|
B-----------------------------------------------------------------|
G-----------------------------------------------------------------| X2
D-2222222222222222999999999999999977777777777777779999999977777777|
A-0000000000000000777777777777777755555555555555557777777755555555|
E-----------------------------------------------------------------|


'And I am not sure that I want...'
E-----------------|
B-----------------|
G-----------------| X3
D-----------------|
A-7777999955555555|
E-5555777733333333|

E-----------------|
B-----------------|
G-----------------|
D-7777777777777777|
A-5555555555555555|
E-----------------|


'Cause everybody pays...'
E-----------------------------------------------------------------|
B-----------------------------------------------------------------|
G-----------------------------------------------------------------| X2
D---------------------------------77777777444444447777777744444444|
A-4~~-22~-77~-22224~~-22~-77~-999955555555222222225555555522222222|
E-2~~-00~-55~-00002~~-00~-55~-7777--------------------------------|

'You're not even sleeping...'
E---------------------------------|
B---------------------------------|
G---------------------------------|
D-77777777444444447777777744444444|
A-55555555222222225555555522222222|
E---------------------------------|


Interlude
E-----------------------------------------------------------------|
B-----------------------------------------------------------------|
G-----------------------------------------------------------------|
D-------------------------77777777------------------------77--77--|
A-7777777744444444222222225555555577777777444444442222222255--55--|
E-555555552222222200000000--------555555552222222200000000--------|

E---------------------------------|
B---------------------------------|
G---------------------------------| X2
D-------------------------77777777|
A-77777777444444442222222255555555|
E-555555552222222200000000--------|


'Cause everybody pays...'
E-----------------------------------------------------------------|
B-----------------------------------------------------------------|
G-----------------------------------------------------------------| X2
D---------------------------------77777777444444447777777744444444|
A-4~~-22~-77~-22224~~-22~-77~-999955555555222222225555555522222222|
E-2~~-00~-55~-00002~~-00~-55~-7777--------------------------------|

'You're not even sleeping...'
E---------------------------------|
B---------------------------------|
G---------------------------------|
D-7777777744444

A Reason Tabs by The Sorrow

 -------------------------------------------------------------------------------
                              A Reason - The Sorrow
-------------------------------------------------------------------------------

Tuning: Dropped C / C G C F A D
: Maxi Niessl
 themaexmon@gmx.de (ask me something if you have questions about my tabs)

Intro:

Matze:

D|-------------|------------|------------|------------|
A|-------------|------------|------------|------------|                    
F|-------------|------------|------------|------------|---------------------\
C|-3-----------|7-----------|2-----------|5-----------|                      \ 
G|-3-----------|7-----------|2-----------|5-----------|                       \
C|-3-----------|7-----------|2-----------|5-----------|                        \
                                                                                \  x2
Andi:                                                                           /
     PM    PM        PM         PM    PM        PM                             /
D|------------------------------------------------------------------------|   /
A|------------------------------------------------------------------------|  /
F|-9----10----9h10p9----- x4 ----------------------- x3 ------------------| /
C|---10----10--------10-------9----10----9h10p9----------9h10p9p7h9h10p9p7|/
G|------------------------------10----10--------12------------------------|
C|------------------------------------------------------------------------|


Pre-Verse:

Matze:
  PM - - -    PM - - -    PM -
D|---------------------------------------------------------|
A|---------------------------------------------------------|
F|---------------------------------------------------------|
C|---------------------------------------5-----------------|
G|---------3h5-----------------5-------------------7-----8-|
C|-0-0-0-0-----0-0-0-0-3h5-0-0----3--0-------3--0-----5----|
  PM - - -    PM - - -    PM -
D|---------------------------------------------------------|
A|---------------------------------------------------------|
F|---------------------------------------------------------|
C|-------------------------------------------------3--3----|
G|---------3h5-----------------5---------7---------1--1--3-|
C|-0-0-0-0-----0-0-0-0-3h5-0-0----3--0-------3--0--------3-|


Matze & Andi:
  PM - - -    PM - - -    PM -
D|---------------------------------------------------------|
A|---------------------------------------------------------|
F|---------------------------------------------------------|
C|---------------------------------------5-----------------|
G|---------3h5-----------------5-------------------7-----8-|
C|-0-0-0-0-----0-0-0-0-3h5-0-0----3--0-------3--0-----5----|
  PM - - -    PM - - -    PM -
D|---------------------------------------------------------|
A|---------------------------------------------------------|
F|---------------------------------------------------------|
C|-------------------------------------------------3--3----|
G|---------3h5-----------------5---------7---------1--1--3-|
C|-0-0-0-0-----0-0-0-0-3h5-0-0----3--0-------3--0--------3-|

Verse:

Matze:
  PM - - -    PM - - -    PM -
D|--------------------------------------------------------|
A|--------------------------------------------------------|
F|--------------------------------------------------------|
C|---------------------------------------5----------------|
G|---------3h5------------------5-----------------7-----8-|
C|-0-0-0-0-----0-0-0-0-3h5-0-0-----3--0-----3--0-----5----|
  PM - - -    PM - - -    PM                      A.H.
D|--------------------------------------------------------|
A|--------------------------------------------------------|
F|--------------------------------------------------------|
C|--------------------------------------------------------|
G|---------3h5------------------5--------7------------

Ive Got To Have A Reason chords – Dave Clark Five

 I've Got To Have A Reason:Dave Clark Five.
#44 on BB Hot 100 on EPIC Records in 1967.

#1.
 G C G D C F E 
I've got to have a reason....I got to have a reason..
 E A D G D G D 
I got to have a reason why you're walking out on me.
 D Am Em C G 
There's something on your mind but you won't tell me.
 D Em C D 
Mmm, tell me why you're crying and I will help you,

help you, help you.

#2.
 G C G D C F E 
But I gotta have a reason....I got to have a reason..
 E Am C G 
I got to have a reason why you're walking out on me.

BRIDGE:
 D Em C G 
If there is someone else, then I would like to know.
 Em C D C D  
Gonna find out if you won't tell me, tell me, tell me.

#2.
 D G D F E 
But I gotta have a reason....I got to have a reason..
 E Am C G 
I got to have a reason why, you're walking out on me.
        A D A 
If you tell me what you're thinking everything will be 
   D 
alright. (everything will be all right.) 
 A D 
Love will never leave your side (love will never leave your side) 
        C D 
if you place your trust in me.

OUTRO:
   G D F E 
I got to have a reason....I got to have a reason..
 E Am C G D 
I got to have a reason why you're walking out on me.

OUTRO:
 D G D C F D G 
I got to have a reason...I got to have a reasoooon.


A sixties smash from Kraziekhat.

Reason To Sing chords – All Sons And Daughters V2

 D , G D , G 

V1:
 D G   
When the pieces seem to shattered
      Bm A G 
To gather off the floor
      D G 
And all that seems to matter
                  Bm A G   
Is that I don’t feel you anymore
             Bm A G A 
No I don’t feel you anymore

Chorus:
            D G 
I need a reason to sing
            D G 
I need a reason to sing
            Bm A G 
I need to know that You’re still holding
     Bm A G A 
The whole world in Your hands
                         D G ,  D G 
I need a reason to sing

V2:
             D G 
When I’m overcome by fear
               Bm A G 
And I hate everything I know
           D G 
If this waiting lasts forever
      Bm A G 
I’m afraid I might let go
      Bm A G A 
I’m afraid I might let go

Oh Oh Oh

Chorus:
             D G 
I need a reason to sing
             D G 
I need a reason to sing
            Bm A G 
I need to know that You’re still holding
       Bm A G A 
The whole world in Your hands

I need a reason to sing

 B :

 Bm A G 
Oh Yeah Yeah
 Bm 
Will there be a victory
 D G 
Will You sing it over me now

Oh

 Bm 
Your peace is the melody
 D G 
You sing it over me now

Oh Lord

 Bm 
Will there be a victory
 D G 
Will You sing it over me now

Oh Lord

 Bm 
Your peace is the melody
 D G A 
You sing it over me now

Chorus:
           D G 
I need a reason to sing
           D G 
I need a reason to sing
             Bm A G 
I need to know that You’re still holding
      Bm A G A 
The whole world in Your hands
                         D 
That is a reason to sing

A Direst Desire – Heart Reason Tabs

 ----------------------------------------------------------------------
HEART & REASON - a Direst Desire
----------------------------------------------------------------------
: Michael Beatson
Email: michaeljbeatson

Tuning: EADGBe 
Capo: 1st Fret

####################################################################
ALL TABS ARE AS SEEN ON NECK DOTS, NOT IN RELATION TO CAPO POSITION.
####################################################################


Intro: Guitar 1

e|--0--0--0--0--0--0--0--0--|
B|--0--0--0--0--0--0--0--0--|
G|-10-10-10-10-10-10-10-10--|
D|--8-10--8-10--8-10--8-10--|
A|--0--8--0--8--0--8--0--8--|
E|--0--0--0--0--0--0--0--0--|


Intro: Guitar 2

e|-----------------------------------------------------------------------|
B|------------------------------------------------------13---13-15--15---|
G|--------10h12-12br--10-12/15-14---------10h12-12br--10---10-----17--17-|
D|--10h12---------------------------10h12--------------------------------|
A|-----------------------------------------------------------------------|
E|-----------------------------------------------------------------------|

e|-----------------------------------------------------------------------|
B|-----------------------------------------------------------------------|
G|--------10h12-12br--10-12/15-14---------10h12-12br-12-10---9---10------|
D|--10h12---------------------------10h12--------------------------------|
A|-----------------------------------------------------------------------|
E|-----------------------------------------------------------------------|




Verse 1: Guitar 1: Same as Intro.


Chorus 1: Guitar 1

e|--0--0--0----0--0--0--|
B|--0--0--0----0--0--0--|
G|-10-10--5---10-10--5--|
D|--8--7--5----8--7--5--|
A|--0--8--3----0--8--3--|
E|--0--0-------0--0-----|



Verse 2: Guitar 1: Same as Intro.


Verse 2: Guitar 2

e|--0----------------------------------------------------------|
B|--0----------------------------------------------------------|
G|-10---10vv--9--7---10vv--9--12-15---1515\14-14\12-12/14-14----1515\14-14/10-10
D|--8----------------------------------------------------------|
A|--0----------------------------------------------------------|
E|--0----------------------------------------------------------|

e|-----------------------------------------------------------------------|
B|-----------------------------------------------------------------------|
G|--1515\14-14\12-12/14-14----1515\14-14/10-10------1010-----10--101210--|
D|---------------------------------------------10h12----10h12--12--------|
A|-----------------------------------------------------------------------|
E|-----------------------------------------------------------------------|

Pre-Chorus: Guitar 1: Same as Intro.


Pre-Chorus: Guitar 2: 

e|-------------------------------------------------------------|
B|------1313-----13--13/15-------------------------------------|
G|--9h10-----9h10--10-----14-------1010------10--101210--------| x2
D|----------------------------10h12-----10h12--12--------------|
A|-------------------------------------------------------------|
E|-------------------------------------------------------------|



Chorus 2: Guitar 1: Same as 1st.


Chorus 2: Guitar 2

e|-------------------------------------------------------------|
B|--111111111111-101010101010-13\\8-88-/13\\88-8-1010-8----x2--|
G|-------------------------------------------------------------|
D|-------------------------------------------------------------|
A|-- ----------------------------------|
E|-------------------------------------------------------------|

e|-------------------------------------------------------------|
B|--11b11b11b11b-10b10b10b10b-13\\8-88-/13\\88-8-1010-8----x2--|
G|-------------------------------------------------------------|
D|-------------------------------------------------------------|
A|-----------------

We Are The Reason chords – Praise And Worship

 Verse:
 G Am/F# 
As little children we would dream of
 B Em Dm7 G C 
Christmas morn and all the gifts and toys
    G/B Am7 
we knew we'd find,
        B Em Em/D 
but we never realised a baby born one blessed
 Em/C# Cmaj7 Am7 D7 
night gave us the greatest gift of our lives.


Chorus:
 G Am/G 
We are the reason that He gave His life,
 Dsus D G 
we are the reason that He suffered and died,
 D/F# Em Am7 
to a   world that was lost, He gave all He could
         D7 G 
give to show us the reason to live.


Verse 2:
 G Am/F# 
As the years go by we learned more
 B Em Dm7 G C 
about gifts, giving of ourselves
     G/B Am7 
and what that means.
      B Em Em/D 
On a dark and cloudy day a man hung crying
        Em/C# Cmaj7 Am7 D7 
in the rain because of love,   because of love.


Bridge:
 Eb Bb/D 
I've finally found a reason for living,
         Bbm Ab/C 
it's in giving every part of my heart to Him,
    Abm/B Eb/Ab Cm7 
In all that I do, every word that I say,
    F Ab E 
I'll be giving my all just for Him, for Him.


Chorus 2:
     Amaj7 Bm7/A 
And we are the reason that He gave His life,
 Bm/Ab G/C# F#m7 A 
we are the reason that He suffered and died,
 Dmaj9 A/C# 
to a world that was lost,
         Bm Bm7/A 
He gave all He could give,
    Bm/Ab G/C# F#m Fmaj7 
to show us the reason to live.
 D A 
He is my reason to live.

Rhyme And Reason chords – Tom Milsom

 C F 
Last week I ran downtown 
        G C 
To see you and tell you I love(d) you 
            F G 
But just before I reached your door 
               C 
I stopped and looked above to 
 Am 
Pray to anyone who’d hear me 
 F 
Getting the pluck 
                             G 
To wish myself luck and say


            C 
You’re the reason to my rhyme 
            Am 
And it’s a shame, no it’s a crime 
               F 
That I’ve not told you that I love(d) you 
            Fm 
Cause I’ve never found the time,
           C 
You’re my happiness and sadness, 
            Am 
You’re the method to my madness 
 F 
Nobody I’d rather be with, 
 Fm C 
Nobody I’d ever be with


 C F 
And through your bedroom window
 G C 
I saw you and you saw me
               F G 
The young man lying on your bed
                 C 
Was right where I could clearly
 Am 
See him telling you what I had
 F 
Wanted to say, from the
                        G 
Very first day we met


            C 
You’re the reason to my rhyme 
            Am 
And it’s a shame, no it’s a crime 
               F 
That I’ve not told you that I love(d) you 
            Fm 
Cause I’ve never found the time,
           C 
You’re my happiness and sadness, 
            Am 
You’re the method to my madness
 F 
Nobody I’d rather be with, 
 Fm C 
Nobody I’d ever be with


 C F G 
So two days passed and then at last
               C 
I thought I’d try and ring you
                F G 
And see if you were free, then maybe we
       C 
Could go to town and
 Am F 
Get some food and see a film you wanted to see,
                             G 
And then afterwards we’d go home
 C F 
You said that sounded great,
     G C 
But you’d a date with that young man who
            F 
I had seen previously
         G C 
The time I had come round to see you
 Am F 
And I don’t think I can hold this in any more
                               G 
So I’m sorry if I bore you to death,


                C 
But you’re the reason to my rhyme 
            Am 
And it’s a shame, no it’s a crime 
               F 
That I’ve not told you that I love(d) you 
            Fm 
Cause I’ve never found the time,
           C 
You’re my happiness and sadness, 
            Am 
You’re the method to my madness 
 F 
Nobody I’d rather be with, 
 Fm                       
Nobody I’d ever,


            C 
You’re the reason to my rhyme 
            Am 
And it’s a shame, no it’s a crime 
               F 
That I’ve not told you that I love(d) you 
            Fm 
Cause I’ve never found the time,
           C 
You’re my happiness and sadness, 
            Am 
You’re the method to my madness 
 F 
Nobody I’d rather be with, 
 Fm C 
Nobody I’d ever be with

Until Shes Gone chords – Micah And The Reason

 UNTIL SHES GONE
www.micahandthereason.com

 G#m 
At the moment when the sun starts to risen
 C#m7 
You can see the light leaving her eyes and
G#maj7sus
Another night of sweet talking lies and 
     E9 D#9 
She told herself this won’t be the same 

Not ready to admit she wont look in the mirror
Cause thats the moment when it all becomes clearer
They touched souls now he wont come near her
But she’s grown numb to the pain

 C#m7 
She thought shed finally found
G#maj7sus
What she wants to come around
 G#m 
 And even though he wasnt here now
 E9                                   G#maj7sus
She’ll just let it go so it won’t bring her down

 G#m C#m7 
Cause shed settle for a warm hand than to go home alone
G#maj7sus                                         G#m 
Shed settle for any man until she can find her own
 G#m C#m7 
And you cant tell her nothing cause shes known it all along
     E9 D#9 
And shes gone be that way until shes gone 

 G#m D#m7   (Repeat 4x’s) 

She hears the ridicule but tries to pay it no mine
But you dont have to look deep to see it in her eyes
She just considers it a little bit of a sacrifice 
So she can get what she wants in this life

She just says shes trying to find what shes looking for 
But forgot that the universe is keeping score
And only pays whats collected from you nothing more
And then wonders why it wont all turn out right

She thought shed finally found
What she wants to come around
And even though he wasnt here now
She’ll just let it go so it wont bring her down

Cause shed settle for a warm hand than to go home alone
She’d settle for any man until she found her own
And you cant tell her nothing cause shes known it all along
And shes gone be that way until shes gone 

 Emaj7 
Oh I hope she finds 
 D#m7 
That peace in time 
 C#m7 G#m 
And I hope its really true 
Because if she were to sustain
All that would remain 
 C#m7                             G#maj7sus
Is the shell of what shes been through

Repeat Chorus

End

Just Give Me Reason Tabs by Pink V2

 This is one of my first tabs but the notes sound very close to perfect. let me know if 
you have any problems Martinb1@blueyonder.co.uk

E/1------------5-----------/     /-------|
B/2--8-8-8-7-5---7-----8---/     /-------|
G/3-----------------------7/  x3 /-5-4---|
D/4------------------------/     /-----7-|
A/6------------------------/     /-------|
E/6------------------------/     /-------|

E/1--7-7---------7-7-5-5-------5-5-----------------------8-7-5-3-3-|
B/2------8-8-------------7-7-------8-8-8-8-8-7-5-7-----------------|
G/3----------7-7-------------5---------------------7-7-7-----------|
D/4----------------------------------------------------------------|
A/5----------------------------------------------------------------|
E/6----------------------------------------------------------------|

E/1--7-7--------7-7-5-5---------5--------------------------8-7-5-3-3-|
B/2-------8-8-----------7-7-------8--8-8-8-8-8-7-5-7-----------------|
G/3-----------7-------------5-5----------------------7-7-7-----------|
D/4------------------------------------------------------------------|
A/5------------------------------------------------------------------|
E/6------------------------------------------------------------------|

Hope this tab worked for you :)

We Are The Reason chords – Avalon V6

 Verse 1:
 C Dm/B E Am 
As little children we would dream of Christmas morn
     Gm7 C F C/E Dm7 
and all the gifts and toys we knew we'd find
        E Am Am/G 
but we never realised a baby born one blessed
 Am/F# Fmaj7 Dm7 G7 
night gave us the greatest gift of our lives


Chorus:

 C Dm/C 
We are the reason that He gave His life
 Gsus G C 
we are the reason that He suffered and died
 G/B Am Dm7 
to a world that was lost, He gave all He could
         G7 C 
give to show us the reason to live

Verse 2: 

 G Am/F# B Em 
As the years go by we learned more about gifts
 Dm7 G C G/B Am7 
giving of ourselves and what that means
      B Em Em/D 
On a dark and cloudy day a man hung crying
        Em/C# Cmaj7 Am7 D7 
in the rain because of love,   because of love

Chorus:

 G Am/G 
We are the reason that He gave His life
 Dsus D G 
we are the reason that He suffered and died
 D/F# Em Am7 
to a world that was lost, He gave all He could
         D7 G 
give to show us the reason to live
BRIDGE:
 G# D#/G 
I've finally found a reason for living,
         D#m C#/F 
it's in giving every part of my heart to Him
    C#m/E G#/C# Fm7 
In all that I do, every word that I say
    A# D# A 
I'll be giving my all just for Him, for Him

Chorus 2:
     Dmaj7 Em7/D 
And we are the reason that He gave His life
 Em/C# C/F# Bm7 D 
we are the reason that He suffered and died
 Gmaj9 D/F# 
to a world that was lost
         Em Em7/D 
He gave all He could give
    Em/C# C/F# Bm A#maj7 
to show us the reason to live
 G D 
He is my reason to live

A Reason Tabs by Steve Burns

 This song is pretty lo-fi and simple, so it's easy to play on guitar, 
but it's the simplicity of the song that I love. 
There are really only two parts to learn.

/=slide

Let every note ring after you play it.

Intro/verse:
|-----------------------------|-------------------------------|
|---8--/--5-----5/7/5---3-----|---8--/--5-----0--1--3--0------|
|-----------------------------|-------------------------------|
|-----------------------------|-------------------------------|
|---7--/--3-----3/5/3---2-----|---7--/--3--------0--2---------|
|-----------------------------|---------------3--------3------|


Bridge:
|------------------------------------------------------------|
|---3-----0--------3-----0--------3-----0--------3-----0-----|
|------------------------------------------------------------|
|------------------------------------------------------------|
|---2--------------2--------------2--------------2-----------|
|---------3----0---------3----0---------3----0---------3-----|

|------------------------------------------------------------|
|---3-----0--------3-----0--------3-----0--------3-----0-----|
|------------------------------------------------------------|
|------------------------------------------------------------|
|------------------------------------------------------------|
|---2-----3----0---2-----3----0---2-----3----0---2-----3-----|




Last time on the outro:
|------------------------------|------------------------------|
|---8--/--5-----5/7/5----3-----|---8--/--5-----5/7/5----3-----|
|------------------------------|------------------------------|
|------------------------------|------------------------------|
|---7--/--3-----3/5/3----2-----|---7--/--3-----3/5/3----2-----|
|------------------------------|------------------------------|

|------------------------------|
|---8--/--5-----0--1--3--0-----|
|------------------------------|
|------------------------------|
|---7--/--3--------0--2--------|
|---------------3--------3-----|


I tried to make it as visually clear as possible,
but basically, he slides up and down to and from each note,
so there's always sound coming from the guitar.

That's all there is to it.
Any comments, questions, etc. send to bambrown@comcast.net