Tag: rebel

Alabama Nigger Chords by Johnny Rebel

[Intro]
D G D A D

[Chorus]
D                             G        D
I'm an Alabama Nigger and I wanna be free
 D                      A   D
Hell with the N double A C P

[Verse]
I dont drink
G
I dont cuss
D                   A                D
I wanna ride on the front of the bus

[Chorus]
 D                           G         D
I'm an Alabama Nigger and I wanna be free
D                      A   D
Hell with the N double A C P

[Verse]
D                      G            D
I wanna eat where the white folks eat
  D                     A            D
cause I'm white on the bottom of my feet.

[Verse]
 D                           G        D
I'm an Alabama Nigger and I wanna be free
  D                     A   D
Hell with the N double A C P

[Instrumental]
G D A D

[Verse]
 D                      G           D
We dont screw like the white folks do
D                  A      D
we just screw til we get through

[Chorus]
 D                            G       D
I'm an Alabama Nigger and I wanna be free
 D                  A      D
Hell with the N double A C P

[Verse]
 D                G        D
I wanna be white more and more
 D                      A          D
so i can bitch at the nigger next door

[Chorus]
 D                           G        D
I'm an Alabama Nigger and I wanna be free
  D               A        D
Hell with the N double A C P

[Instrumental]
G D

[Verse]
 D                   G    D
I'm glad this tune came along
 D                    A      D
we done wore out one nigger song.

[Chorus]
  D                          G        D
I'm an Alabama Nigger and I wanna be free
  D                     A   D
Hell with the N double A C P

[Verse]
   D              G           D
I wanna be white dont you understand
D                         A          D
so I can play in a trashy white band

[Chorus]
  D                           G        D
I'm an Alabama Nigger and I wanna be free
  D                    A     D
Hell with the N double A C P
       D                    G          D
I'm an Alabama Nigger and I wanna be free
D                      A   D
Hell with the N double A C P

[Outro]
A D

Tonight Tabs – Jett Rebel

 Intro

In het intro gaan er 2 gitaren door elkaar heen.

Gitaar 1:
E|------------------------------------------------------|
B|------------------------------------------------------|
G|------------------------------------------------------|
D|------------------------------------------------------|
A|--7--7------7---------7--7------7---------------------|
E|--------10--- 9--7-----10---9-7-------0--0--3--5—-----|

Gitaar 2:
e|---------------------------------------------------------------------------|
B|---------------------------------------------------------------------------|
G|---------------------------------------------------------------------------|
D|---------------------------------------------------------------------------|
A|-----5--4-2-----5---4-2----------------------------------------------------|
E|-0-0--0-----0-0---0-----0-0-3-5--------------------------------------------|


Je speelt dezelfde melodie, alleen speelt gitaar 2 hem lager.. Dit zorgt voor een betere balans.

Gitaar 1 partij zou je nog kunnen uitbreiden met deze:
E|------------------------------------------------------|
B|------------------------------------------------------|
G|------------------------------------------------------|
D|--------12-----11--9--------12-----11--9--------------|
A|--7--7------7---------7--7------7---------------------|
E|------------------------------------------0--0--3--5—-|

Die is lastiger, maar op de cd versie komt deze ook nog wel voorbij.
Live spelen ze alleen de bovenste 2.



Verse:
Gitaar 2 blijft het loopje uit het intro spelen.
Gitaar 1 speelt deze:
E|------------------------------------------------|
B|------------------------------------------------|
G|------------------------------------------------|
D|--5--7------------------------------------------|
A|--------5--5--5--5----5-----5-5--4--------------|
E|------------------------------------------7--5--|

Jelte varieert nogal met wat ie precies doet, maar het is hier op gebaseerd.
Hij strumt het ook en mute dan de rest van de snaren.

Je speelt beide loopjes 3x dan komt het tussentro.

Tussentro:
C        D           C7     D7                  (loopje verder spelen)
I don't mind, gonna stay in bed with you tonight

De eerste C speel je met barre op de 3e fret
De eerste D speel je met barre op de 5e fret
De C7 speel je met barre op de 8e fret
De D7 speel je met barre op de 10e fret

Na het tussentro speel je de loopjes nog 1x en dan komt Chorus.

Chorus:
      D  D            G      A      C slide to D
It's no fun when the girl's aren't dancing (4x)
     
(Baby have a drink and let's have a party tonight)


Deze akkoorden speel je gewoon barre.

Hierna herhaal je alles, dan komt er een solo(die lastig is om uit te zoeken)
en dan herhalen ze nog wat en zijn ze klaar :)

Hate The Taste Tabs – Black Rebel Motorcycle Club

 Song: Hate The Taste
Artist: Black Rebel Motorcycle Club
 Specter at the Feast
Guitarist: Peter Hayes
Tuning: Standard
: Pini-Glock

Another song by Black Rebel Motorcycle Club which wasn't tabbed yet. It's only the guitar of Peter.

Tab taken from this video: https://www.youtube.com/watch?v=GWZ5piWRQ14

If you have suggestions or questions you can always leave a comment or contact me at my UG page! :)

Anyways enjoy this great song!

Cheers Nick! 

Intro & Verses: 

e|-----------------------|
B|-----------------------|
G|-----------------------|
D|-----------------------|
A|-------------3-1-------|
E|--1-1-3-1--1-----3-1-3-|

Chorus: (I wanna ride with you...)

e|-----------------------|
B|--3-3-3-3--------------|
G|----------5-3----------|  Repeat this part 3 times. 
D|-----------------------|
A|-----------------------|
E|-----------------------|

Then: 

e|------------------------------------|
B|------------------------------------|
G|--5b-5--3-4-3-0---------------------|
D|------------------------------------|
A|------------------------------------|
E|------------------------------------|

Bridge: (I'm a mess...)

e|--3-3-0-3-3-3-0-3-3-0-3-3-3-0-3-3-0-3-3-3----------------------|
B|--3-3-0-3-3-3-0-3-3-0-3-3-3-0-3-3-0-3-3-3-5b-5b-5b-5b----------|
G|--3-3-0-3-3-3-0-3-3-0-3-3-3-0-3-3-0-3-3-3----------------------|
D|---------------------------------------------------------------|
A|---------------------------------------------------------------|
E|---------------------------------------------------------------|

Chorus: (I wanna ride with you...)

e|-----------------------|
B|--3-3-3-3--------------|
G|----------5-3----------|  Repeat this part 3 times. 
D|-----------------------|
A|-----------------------|
E|-----------------------|

Than: 

e|------------------------------------|
B|------------------------------------|
G|--5b-5--3-4-3-0---------------------|
D|------------------------------------|
A|------------------------------------|
E|------------------------------------|


Rebel Love Song Acoustic chords – Black Veil Brides

 This song I tried to figure out myself for an acoustic version my band is doing. Hope
these work out for you, if you suggest any changes, let me know please! 

Capo 1st Fret

Rebel Love Song-BVB

(VERSE 1)

 Am F Am 
I cannot hide what's on my mind
           G 
I feel it burning deep inside.
 Am F Am 
     A passion crime to take what's mine
              Dm/C 
Let us start living for today.

(BRIDGE)

 Am 
Never gonna' change my mind

 F     We can leave it all behind

 C     Nothin's gonna' stop us
    G 
No not this time

(CHORUS)

     Am G 
So take your hand in mine
              C 
It's ours tonight
              F 
This is a rebel love song
   Am G 
Hearts will sacrifice
             C 
It's do or die
            F 
This is a rebel love song.

(lightly hold the strings around 12th fret and strum a few beats)

(VERSE 2)

 Am F Am 
My outlaw eyes have seen their lies
             G 
I choke on all they had to say
 Am F Am 
When worlds collide what's left inside
             Dm/C 
I hold on tight and hear you pray

(BRIDGE [exactly the same as the first time])

Never gonna' change my mind
We can leave it all behind
Nothin's gonna' stop us
No not this time

(CHORUS[the same])

So take your hand in mine
It's ours tonight
This is a rebel love song

Hearts will sacrifice
It's do or die
This is a rebel love song


 Am F 
Wild and running for one reason
 Am G 
They can't stop us from our freedom
(Wild and running for one reason
They can't stop us from our freedom)

(SAME EXCEPT STRUM PALM MUTED)
Never gonna' change my mind
We can leave it all behind
Nothin's gonna' stop us
     G  let ring out
No not this time

(the rest is exactly the same and repeats)

So take your hand in mine
It's ours tonight
This is a rebel love song

Hearts will sacrifice
It's do or die
This is a rebel love song

So take your hand in mine
It's ours tonight
This is a rebel love song

Hearts will sacrifice
It's do or die
This is a rebel love song


I hope this helped! :) Like i said, if there's anything I could/should change, just let
me know.

Billy Died chords – Young Rebel Set V2

 Young Rebel Set - Billy Died

CAPO on 4th fret.


 C G7 C G7       
I am feeling lost in my own town
      C G7 C G7 
And there's no place I want to settle down
 Am Em 
I am lost without a love
 Am Em 
or an answer from above
 F G C 
does someone know an easier way out


      C G7 C G7 
And in my darkest hour of despair
      C G7 C G7 
I'm only glad she wasn't there
 Am Em 
See me as the lights went out
 Am Em 
and all that I could think about
 F G C 
was where she was and does she really care



Ref.:
 F C Em 
Billy died of a broken heart
 F C Em 
Couldn't bear to be apart
 F G C 
from the one he loved too much

 F C Em 
Billy died of a broken heart
 F C Em 
Couldn't bear to be apart
 F G C 
from the one he loved too much



When I break out of this iron cast

I'll lay all of my ghosts in the past

Friends that I thought I knew

Where were you when I needed you

And lovers that had torn me apart



It seems the more I chase the further you run

Faster than a bullet from a gun

That shot me through this heart of stone

Now all that's left is skin and bones

I tell you this is the end for me



Ref.:

Billy died of a broken heart

Couldn't bear to be apart

from the one he loved too much


Billy died of a broken heart

Couldn't bear to be apart

from the one he loved too much

Yesca And The Fear chords – Young Rebel Set V2

 Capo 4th

 C * = x33210
Matty often puts one finger at one string when the chord's already played with all the 
other fingers placed.

Intro  Am Am G C 
Yesca my dear you know I'm gripped by the fear
 C *                C E 
I only want to make you understand
 Am G C 
That every single day feels I'm one more step away,
 C *                     E Am 
From the moment god will lay down his hands

 Am G C 
I can feel it in my bones and I can feel it in my blood
 C *                   C E 
I can feel it with every breath I breathe
 Am G C 
But I can no longer hide this fear that's grown inside
 C *                        E Am 
That's brought me to my hollow broken knees

   F C E 
Yesca I'm begging don't you come near
   F C E 
Yesca I am not the same man you held so dear
   F C E 
Yesca surely now you can see clear
   F G Am 
I am battling with the fear

   Go on like this

And Bo my love when I'm at the sky above
I don't want you to think I was afraid
Cos I gambled with luck but it just took and took
Until my man an my debt it was repaid

Yesca I'm begging don't you come near
Yesca I am not the same man you held so dear
Yesca surely now you can see clear
I am battling with the fear

Yesca I'm begging don't you come near
Yesca I am not the same man you held so dear
Yesca surely now you can see clear
I am battling with the fear

Yesca I'm begging don't you come near
Yesca I am not the same man you held so dear
Yesca surely now you can see clear
I am battling with the fear

Lions Mouth intro Tabs by Young Rebel Set

 e|-----------------------------------------------------------------------------|
B|-----------------------------------------------------------------------------|
G|----------------------4------------------------------------------------------|
D|-------------2-4->6-6---6-6-6-4-2-2---2--2---2-------------------------------|
A|-4-4-2-4-2-4------------------------4--4---4----4-4-2-2->4-------------------|
E|-----------------------------------------------------------------------------|

Yesca And The Fear chords – Young Rebel Set

 Capo 4th

 C * = x33210
Matty often puts one finger at one string when the chord's already played with all the 
other fingers placed.

Intro  A A G C 
Yesca my dear you know I'm gripped by the fear
 C *                C E 
I only want to make you understand
 A G C 
That every single day feels I'm one more step away,
 C *                     E A 
From the moment god will lay down his hands

 A G C 
I can feel it in my bones and I can feel it in my blood
 C *                   C E 
I can feel it with every breath I breathe
 A G C 
But I can no longer hide this fear that's grown inside
 C *                        E A 
That's brought me to my hollow broken knees

   F C E 
Yesca I'm begging don't you come near
   F C E 
Yesca I am not the same man you held so dear
   F C E 
Yesca surely now you can see clear
   F G A 
I am battling with the fear

   Go on like that

And Bo my love when I'm at the sky above
I don't want you to think I was afraid
Cos I gambled with luck but it just took and took
Until my man an my debt it was repaid

Yesca I'm begging don't you come near
Yesca I am not the same man you held so dear
Yesca surely now you can see clear
I am battling with the fear

Yesca I'm begging don't you come near
Yesca I am not the same man you held so dear
Yesca surely now you can see clear
I am battling with the fear

Yesca I'm begging don't you come near
Yesca I am not the same man you held so dear
Yesca surely now you can see clear
I am battling with the fear