Tag: red

Red Lights chords – Little Sea

 i tabbed this by ear so if there are any mistakes just let me know it the comments below^^
its a super catchy song and i absolutely love it
hope you guys enjoy it as well :D feel free to contact be via social media
 shellyjb123
twitter: @mishhy5SOS

NO CAPO

Intro: C#m, G#m x2

Verse 1:
 C#m 
Breathe out, I let you in
 G#m 
Now you think you really know me
 C#m 
Deep down under my skin
 G#m 
Where you always wanted to be
 C#m 
Would I wear it thin
 G#m 
The heart upon my sleeve
 C#m 
And I breathe out, I let you in
 G#m 
Now you think you really own me


Pre-chorus:
 A 
 Don't you know
            B 
Don't you know

You're using up my love
 A 
 Don't you know
            B 
Don't you know


Chorus:
              C#m 
All I see is red lights
                   G#m 
Every time you're around
              C#m 
Gravity's on my side
                         G#m 
You're still letting me down
                A 
I need to take control
         B 
Let you go
                    C#m 
Turn off all these red lights
                 G#m    -silence-
I never see you around

You're just another face in the crowd


C#m, G#m


Verse 2:
 C#m 
Breathe in the words to say 
 G#m 
Dancing on the tip of my tongue
 C#m 
We've been at it for days
 G#m 
Screaming till the meaning goes numb
 C#m 
You will cheat the game
 G#m 
Did you just play me for fun
 C#m 
And I breathe in the words to say
 G#m 
Held them back for far too long


Pre-chorus:
 A 
 Don't you know
            B 
Don't you know

You're using up my love
 A 
 Don't you know
            B 
Don't you know


Chorus:
              C#m 
All I see is red lights
                   G#m 
Every time you're around
              C#m 
Gravity's on my side
                         G#m 
You're still letting me down
                A 
I need to take control
         B 
Let you go
                    C#m 
Turn off all these red lights
                 G#m    -silence-
I never see you around

You're just another face in the crowd



Interlude:

C#m, G#m

You're still letting me down

 C#m G#m 


Pre-chorus
 A 
 Don't you know
            B 
Don't you know

You're using up my love
 A 
 Don't you know
            B 
Don't you know


Chorus:
              C#m 
All I see is red lights
                   G#m 
Every time you're around
              C#m 
Gravity's on my side
                         G#m 
You're still letting me down
(You're still letting me down)
                A 
I need to take control
         B 
Let you go
                    C#m 
Turn off all these red lights
                 G#m    -silence-
I never see you around

You're just another face in the crowd



End either on C#m or in silence.

Red Dress chords – Lucy Hale V2

 Lucy Hale & Joe Nichols - Red Dress
Tuning: Standard (E A D G B E)
Arranged key: G major (G A B C D E F# G)
Original key: Ab major (Ab Bb C Db Eb F G Ab), either put a capo on the first fret or transpose to +1
Tempo: 120 bpm
 Robert from Astlessons

(The square brackets lets you know who sings the most in a part, but they also sing on each others parts)



[Intro]:  G D A D G D A 

[Lucy]
        G D A D 
If I close my eyes, and imagine you are here
        G D A 
It'll last for awhile, before you disappear
        G D A D 
So I close my eyes, cause the only thing I fear
     G D A 
Is waking up one day, forgetting you were ever here

[Joe]
               G D 
Darling it's you I remember with your red dress on
  A Bm 
Dancing in the moonlight till the break of dawn
       G D A 
It's you I remember dancing with your red dress on

[Both]
                G D 
And baby it's you I remember when I hear that song
  A Bm 
Singing out the chorus till your voice was gone
       G D A G D A 
It's you I remember every time I hear that song

[Joe]
        G D A 
Not a day goes by, without thinking that I see
       G D A 
Your face in the crowd, turning away from me
         G D A Bm 
So the days go by, like a re-occurring dream
        G D A 
Where every night ends with the same old memory

[Both]
                G D 
And baby it's you I remember when I hear that song
  A Bm 
Singing out the chorus till your voice was gone
       G D A 
It's you I remember every time I hear that song

[Joe]
               G D 
Darling it's you I remember with your red dress on
  A Bm 
Dancing in the moonlight till the break of dawn
       G D A 
It's you I remember dancing with your red dress on
                             G D A 
Dancing with your red dress on

[Joe]
 Bm A Em 
I don't know the game we're playing, you and I were on to something 
                                Bm A 
How did we fall apart, without asking ourselves why

[Lucy]
 Bm A Em 
Looking back I can't help thinking, if somehow I had just stopped running
                                   Bm A 
I would have held you close, and never said goodbye

[Joe]
               G D 
Darling it's you I remember with your red dress on
  A Bm 
Dancing in the moonlight till the break of dawn
       G D A 
It's you I remember dancing with your red dress on

[Lucy]
                G D 
And baby it's you I remember when I hear that song
  A Bm 
Singing out the chorus till your voice was gone
       G D A 
It's you I remember every time I hear that song

[Joe]
               G D 
Darling it's you I remember with your red dress on
  A Bm 
Dancing in the moonlight till the break of dawn
       G D A 
It's you I remember d

The Ballad Of The Red Flame Lily chords by Rome

 Jerome has a sort of sauntering vocal style, so pinning down exactly where the chord changes occur can be a bit
tricky if you're relying solely on this transcription. The chord changes keep easy time, so just focus on that
as your guide and listen to the song if you get really hung up on the timing of the lyrics.

Capo on 3

Intro:
 A Em D Am 
On this day all the trees in Rhodesia are aflame
As the eyes of the griever
    Em D 
With flowers of aching replete
        Am 
And my mind's overflowing with vengeance
For to pine is not an occupation but a sentence
      Em D 
And in time we will all be faking retreat

         Am 
Have you got rid of it yet?
This faith corroded with neglect
 Em D 
  Can we ever hide the hurt?
           Am 
At least at night the harvest sun's yoke
Is rising like rebel smoke
 Em D 
  Beyond the oceans in swirls

             Am 
And it will shame us now
             C G 
And it will shame us still
             Am 
And it will shame us now
             C G 
And it will shame us still

Am [for 4 beats]

          Am 
What a hollow promise from hollow men
             Em D 
What a shallow grave for shallow men
                      Am 
You're the bull that paws the earth
The leopard that teaches to run
            Em D 
You're the crocodile that eats the sun

        Am                        
So we walk on through and beyond
 Em D 
  The failures of men
        Am 
And we know there's a void at the center
 Em D 
  of everything

             Am 
And it will shame us now
             C G 
And it will shame us still
             Am 
And it will shame us now
             C G 
And it will shame us still

[play that last part again, but peppered with the following lyrics and play until end]
It was wrong to come here
I was wrong to come here

Strange Dreams intro Tabs by Red Lorry Yellow Lorry

 -------------------------------------------------------------------------------
                    Strange Dreams - Red Lorry Yellow Lorry
-------------------------------------------------------------------------------

: Maya L T 

Tuning: Standard


e|---------------------------------------------------------------------------|
B|---------------------------------------------------------------------------|
G|-----------5---7-----------------------------------------------------------|
D|-------7---------------7---9---10---9---5----------------------------------|
A|---5---------------5-------------------------------------------------------|
E|---------------------------------------------------------------------------|

This bit is played over the top.

e|---------------------------------------------------------------------------|
B|---------------------------------------------------------------------------|
G|---(7)---9-h-10-p-9--------7-------9---10---9--------7---------------------|
D|----------------------10-------8----------------10-------------------------|
A|---------------------------------------------------------------------------|
E|---------------------------------------------------------------------------|


That's the intro


************************************
| h   hammer-on
| p   pull-off
************************************

Paint The Town Red Tabs – Delirious

 -------------------------------------------------------------------------------
                             PAINT THE TOWN RED - Delirious?
-------------------------------------------------------------------------------

Tuning: Standard

You'll wanna listen to the recording to get the general flow for this one.

Verse
e|-------------------------------------------------------|
B|-------------------------------------------------------|
G|-----------5-5-5-5-5-5-5-5------------5-5-5-5-5-5-5-5--|
D|-6-6--3-3--5-5-5-5-5-5-5-5--6-6--3-3--5-5-5-5-5-5-5-5--|
A|-6-6--3-3--3-3-3-3-3-3-3-3--6-6--3-3--3-3-3-3-3-3-3-3--|
E|-4-4--1-1-------------------4-4--1-1-------------------|

Pre-chorus
e|----------------|
B|----------------|
G|----------------|
D|-7--6--5--4--3--|
A|-7--7--5--4--3--|
E|-5--4--3--2--1--|

Chorus
e|---------------------------------------------------|
B|------------6-6-6-6-6-6----------------------------|
G|-5-5-5-5-5--5-5-5-5-5-5--5-5-5-5-5-----------------|
D|-5-5-5-5-5--3-3-3-3-3-3--5-5-5-5-5--6-6-6-6--3-3-3-| x2
A|-3-3-3-3-3---------------3-3-3-3-3--6-6-6-6--3-3-3-|
E|------------------------------------4-4-4-4--1-1-1-|

Pre-verse/Post-chorus
e|-4-4--1-1-3-3-3-3-3-3-3-3-|
B|-4-4--1-1-5-5-5-5-5-5-5-5-|
G|-5-5--2-2-5-5-5-5-5-5-5-5-|
D|-6-6--3-3-5-5-5-5-5-5-5-5-| x2
A|-6-6--3-3-3-3-3-3-3-3-3-3-|
E|-4-4--1-1-----------------|

Solo
e|-----------------------------------------------------------------------------|
B|-----------------------------------------------------------------------------|
G|-5-8-5-8-8-8-5-8-5-8-5-5-8-5-8-8-8-5-8-5-8-5-5-8-5-8-8-8-5-8-5-8-5-8-11-8-11-|
D|-----------------------------------------------------------------------------|
A|-----------------------------------------------------------------------------|
E|-----------------------------------------------------------------------------|

e|-------------------|
B|-------------------|
G|-11-11-8-11-8-11-8-|
D|-------------------|
A|-------------------|
E|-------------------|

Outro
e|-6--5--4--4--2--1-|
B|-6--5--4--4--2--1-|
G|-7--6--5--5--3--2-|
D|-8--7--6--5--4--3-|
A|-8--7--6--5--4--3-|
E|-6--5--4--3--2--1-|


************************************

| /   slide up
| \   slide down
| h   hammer-on
| p   pull-off
| ~   vibrato
| +   harmonic
| x   Mute note
| b   Bend
| pb  Pre-bend
| br  Bend release
| pbr Pre-bend release
| brb Bend release bend

************************************

Stadium Arcadium chords – Red Hot Chili Peppers V3

 Stadium Arcadium - Red Hot Chili Peppers

Capo 2

[Intro]

    Em G Em G D 

|---------------------|------------------|-------------------|--3----2--|
|---------------------|-------0------0---|-------------------|--3----3--|
|---------0-------0---|-----0------0-----|--------0------0---|--0----2--|
|-------2-------2-----|---0------0-------|------2------2-----|--0----0--|
|-----2-------2-------|------------------|----2------2-------|--2-------|
|---0-----------------|-3----------------|--0----------------|--3-------|

(Play above once during each verse)

[Verse 1]

Bells around St. Petersburg, when I saw you
I hope I get what you deserve and this is where I find

[Verse 2]

Smoke surrounds your perfect face, and I'm falling
Pushin' a broom out into a space, and this where I find a way

[Chorus] (8 strums each or 16 double time)

     Am C 
The Stadium Arcadium, a mirror to the Moon,(a mirror to the moon)
          G                                     
Well I’m Forming and I’m Warming, (to you) 
    D 
A state of the art until the clouds come crashing
     Am C 
Stranger things have happened both, before and after noon (before and after noon)
          G D 
And I’m forming and I’m warming, (to you) and pushing myself and no I don’t mind askin’ now

[Intro]

[Verse 3] (Main Riff)

Alone inside my forest room, and it's stormin'
I never thought I'd be in bloom, but this is where I start.

[Verse 4] (Main Riff)

Derelict days and the stereo plays, For the all night crowd That it cannot phase, And I'm calling
Tedious weeds that the media breeds, But the animal gets what the animal needs, And I'm sorry

[Chorus]

[Solo] – other tabs have this already

[Intro] – but on the G and D chord “And this is where I find”

[Verse 5]

Rays of dust that wrap around your citizen
Kind enough to disavow and this is where I stand

[Chorus x2]     

Running Of The Bulls chords – Red Wanting Blue

 
Red Wanting Blue - Running of the Bulls

 Dm Bb F C    X 2


 Dm Bb 
        So much pressure
                   F C    
Boy, it feels like       I traded dumbbells for skyscrapers
 Dm Bb 
         Measure for measure
                            F C 
We look up and curse heaven with our mouths in the gutter

 Dm Bb 
         You say that you 
              F C    
Know where to find the flaws in my armor
 Dm Bb 
         You whisper, 
      F C 
"don’t act surprised....I’ll never tell’



 F C Dm 
We will not apologize for this
 C 
We are what we are
 F Bb Dm 
We will not compromise for this
 Bb 
Regret’ll understand



 Dm Bb 
         Bonnie and Clyde , I love when you say that
 F C 
I’m      your partner in crime
 Dm Bb 
        You never lied
          F C 
But a woman’s words tend to be in disguise
 Dm Bb 
   You say that you  
 F C 
Don’t want to hide the flaws in your armor
 Dm Bb 
            If you        Let me inside
 C 
 I’ll never tell



 F C Dm 
We will not apologize for this
 C 
We are what we are
 F Bb Dm 
We will not compromise for this
 Bb 
Regret’ll understand

 F C Dm 
We will not apologize for this
 C 
We are what we are
 F Bb Dm 
We will not compromise for this
 Bb 
Regret’ll understand



 Dm F Bb C     X 2



 Dm F Bb     
Her love’s like a running of the bulls
         C 
But against the current
 Dm F Bb     
Her love’s like a running of the bulls
         C 
But against the current


 F C Dm 
We will not apologize for this
 C 
We are what we are
 F Bb Dm 
We will not compromise for this
 Bb 
Regret’ll understand


 F C Dm 
We will not apologize for this
 C 
We are what we are
 F Bb Dm 
We will not compromise for this
 Bb 
Regret’ll understand

 Dm F Bb     
Her love’s like a running of the bulls
         C 
But against the current
 Dm F Bb     
Her love’s like a running of the bulls
         C 
But against the current

 Dm F Bb     
Her love’s like a running of the bulls
         C 
But against the current
 Dm F Bb     
Her love’s like a running of the bulls
         C 
But against the current

Jingle Bells Tabs – August Burns Red

 -------------------------------------------------------------------------------
                             Jingle Bells - August Burns Red
-------------------------------------------------------------------------------
:Henry Orellana
horellana24

Tuning: Drop C

*, I've been wanting to play this song since it came out but no one made a tab for it
so I decided to learn this song by ear so this tab is not 100% correct, if you have any corrections let me know 
or feel free to make your own version. I wanted to post this with more than enough time for people to learn this
by Christmas, so enjoy! Sorry for not including the acoustic part in the beginning.

 Jingle Bells
e|---------------------------------------------------------------------------|
B|121212-121212-12-15--------------------------------------------------------|
G|--------------------12-14-16--12-171717-1717-1616-161616-1414-16-14-19-----|
D|---------------------------------------------------------------------------|
A|---------------------------------------------------------------------------|
E|---------------------------------------------------------------------------|

e|---------------------------------------------------------------------------|
B|121212-121212-12-15--------------------------------------------------------|
G|--------------------12-14-16--12-171717-1717-1616-1616-1919-17-14-12-------|
D|---------------------------------------------------------------------------|
A|---------------------------------------------------------------------------|
E|---------------------------------------------------------------------------|
 
 Dashing Through the Snow 
e|---------------------------------------------------------------------------|
B|---------------------------------------------------------------------------|
G|---------------------------------------------------------------------------|
D|--9-7-5-------9-7-5-2---10-9-7-4-1212-10-7-9-------------------------------|
A|5-------5-555---------7----------------------------------------------------|
E|---------------------------------------------------------------------------|

e|---------------------------------------------------------------------------|
B|---------------------------------------------------------------------------|
G|---------------------------------------------------------------------------|
D|--9-7-5-------9-7-5-2---10-9-7-121212-1212-14-12-10-7-5/12-----------------|
A|5-------5-555---------7----------------------------------------------------|
E|---------------------------------------------------------------------------|

 (During the second part of Dashing Through the Snow)
e|7p3---3h7p3---3h7p3---3h7p3---3-8p3---3h8p3---3h8p3---3h8p3---3------------|*You play the same pattern but 
B|----3-------3-------3-------3-------5-------5-------5-------5--------------|with different shapes.
G|---------------------------------------------------------------------------|
D|---------------------------------------------------------------------------|
A|---------------------------------------------------------------------------|
E|---------------------------------------------------------------------------|

e|10p5---5h10p5---5h10p5---5h10p5---5-15p10----10h15p10----10h15p10----10h15p10---|After this you go back to the
B|-----7--------7--------7--------7---------12----------12----------12----------12|Jingle Bells intro.
G|--------------------------------------------------------------------------------|
D|--------------------------------------------------------------------------------|
A|--------------------------------------------------------------------------------|
E|--------------------------------------------------------------------------------|

 Dashing Through the Snow(solo)
e|--------------------------------------------------------10-----------------| ? I'm not sure if that's where
B|--12-10-8--------5h8-8-8h10p8-10b12-10-8h10p8-----8-5---------

Red Man chords – Rare Bird

 Capo 2

Intro
 G D C 

Verse

 G D Am Em 
Brave and proud as all the village vowed,
          C D 
That the land would belong to our sons,
 G D Am Em 
We pledged our name, was then the wagons came,
        C D 
And we ran from the sound of the guns.

Chorus

 Em G C D 
Fugitives across the land with empty hearts and empty hands,
     Am D 
And all the troubles underneath the sun,
 Em G C D 
Life was all we had to give, but not the life we used to live,
       Am D 
With all the triumph over now and done.

Verse

Sick and weak, we came to Bitter Creek,
In the year I became twenty-five,
The young and old we faced the bitter cold,
In the last great event of our lives.

Chorus

Underdogs in every place and every line on every face,
Remained to tell of land that we had lost,
Leaning on the only hope we lay with elk and antelope,
To fight the killing fever of the frost.

 G C D Em  
Robbed of the right to be one with the white,
          G D C 
It's the end of the fight for the Redman,
 G C D Em  
Gone is the grace and the pride on his face,
          G D C 
It's the end of the race for the Redman.

 G C D Em G D C

24 chords – Red House Painters

 The riff has a lot of ends, improvise a little

---1---------|
-1---1-3-1-1-|
----------2--|
-------------|
-------------|
-------------|

 F C 
                So it's not
 F A# C 
Loaded stadiums or ballparks
 F C 
                And we're not
 F A# C 
kids on swing sets on the blacktop

 F Eb7 +
                And I thought
    F               ( A# )                  Eb7 +
at fifteen that I'd have it down by sixteen
 F Eb7 +                                 F 
        And 24 keeps breathing in my face
             Eb7 +    F 
Like a mad whore
     Eb7 +                      F 
And 24 keeps pounding at my door

 F Eb7 +

 A# G# Gm Eb7 +
Like a friend you don't want to see
 A# G# Gm Eb7 +
Oldness comes with a smile to every love given child
Oldness comes to life, the youth, they dream suicide
Oldness comes with a smile to every love given child
Oldness comes to life, the youth, they dream suicide

Outro:
 Dm F 

Transition:  F  -  Em  -  Dm C#7 +    Dm 

Transition:  Dm  -  Em  -  F 

and so it goes...

Michael chords – Red House Painters

 : willianrm

A#7+ (x,1,3,2,3,1)
Eb7+ (x,6,8,7,8,6)

 F A#7 +      F A#7 +  
Michael,  where are you now?   x2

 C A#7 +
Somehow in my excitement the last time you called,
                    C A#7 +
It slipped again to ask your hidden whereabouts
                         C A#7 +
I got a lead from your old triple ex-girlfriend, she said
                         C 
"I heard he lost his mind again"
              A#7+                                F  A#7+
"Again?" I said, I didn't know that you ever did

 F A#7 +      F A#7 +
Michael, where are you now?

Sleeping through the morning in flannel impaired
Getting high in southern air
Shoeless, sandy eveing down the unfamiliar
Last whiff of salt-water freedom
Skipping shells in the dead zone

 F A# G# 
With the ghost on your side
 F A# G# 
Of the state borderline
    Eb7 +
Whispering
 F A# G# Eb7 + (x2)
"Take it."


Do you remember our first subway ride?
Our first heavy metal haircuts?
Our last swim on the east coast?
And me with my ridiculous looking pierced nose?
I remember your warm smile in the sun
The daydreaming boy without a shirt on
The Birmingham barfly father
Left the mother of three sons
You're the oldest juvenile delinquent bum
My best friend

Rising Red Lung Tabs by Wilco V2

 -------------------------------------------------------------------------------
                            RISING RED LUNG - Wilco
-------------------------------------------------------------------------------
: jvwald

Tab based on this video from YouTube:


Tuning: Open C (CGCFAd)

(verse)
    Solar rising red lung
d|------------------------------------------|
A|------------------------------------------|
F|----9-----9---9-----9---7-----7---7-----7-|
C|------0---------0---------9---------9-----|
G|----9---9-----9---9-----9---9-----9---9---|
C|--0---------0---------0---------0---------|

    Glisten under the sun
d|--------------------------------------------|
A|--------------------------------------------|
F|----9-----9---9-----9---7------7---7------7-|
C|------0---------0---------10---------10-----|
G|----9---9-----9---9-----7----7-----7----7---|
C|--0---------0---------7----------7----------|

   I wonder when it'll part
d|--------------------------------------------|
A|--------------------------------------------|
F|----9-----9---9-----9---7------7---7------7-|
C|------0---------0---------10---------10-----|
G|----9---9-----9---9-----7----7-----7----7---|
C|--0---------0---------7----------7----------|

From the snow
d|----------------------|
A|----------------------|
F|----5-----5---5-----5-|
C|------9---------9-----|
G|----5---5-----5---5---|
C|--5---------5---------|

(verse - repeat last line once)
The melody's a mistake
Embrace at the wake
How long does it take
For us to know?

(verse - repeat last line once)
One whiff that's been blown
There's something unknown
Buried under the mound
Of snow

(verse repeat last line once)
Found a fix for the fits
Come listen to this
As intimate as a kiss
Over a phone

    And it goes
d|--------------------------|
A|--------------------------|
F|----2-----2-----2-----2---|
C|------5-----5-----5-----5-|
G|----2-----2-----2-----2---|
C|--2-----2-----2-----2-----|

d|--------------------------|
A|--------------------------|
F|----0-----0-----2-----2---|  x3
C|------7-----7-----5-----5-|
G|----5-----5-----2-----2---|
C|--0-----0-----2-----2-----|

d|----|
A|--0-|
F|--5-|
C|--9-|
G|--5-|
C|--5-|

(verse)
Found a fix for the fits
Come listen to this
It's buried under the hiss
And it glows

(verse repeat last line once)
Like a powerful smile
Car radio dial
As intimate as a kiss
Over a phone

And it goes
d|--------------------------|
A|--------------------------|
F|----2-----2-----2-----2---|
C|------5-----5-----5-----5-|
G|----2-----2-----2-----2---|
C|--2-----2-----2-----2-----|

d|--------------------------|
A|--------------------------|
F|----0-----0-----2-----2---|  x3
C|------7-----7-----5-----5-|
G|----5-----5-----2-----2---|
C|--0-----0-----2-----2-----|

d|---------------------------------------------------|   -
A|---------------------------------------------------|    | 
F|-------4-----4-----5-----5-----4-----4-----2-----2-|    |
C|-----5---5-------7---7-------5---5-------4---4-----|    |
G|---------------------------------------------------|    | x2
C|---5-------5---7-------7---5-------5---4-------4---|    |
                                                          |
d|---------------------------------------------------|    |
A|---------------------------------------------------|    |
F|-------0-----0-----0-----0-----7-----7-----7-----7-|    |
C|-----2---2-------2---2-------9---9-------9---9-----|    |
G|---------------------------------------------------|    |
C|---2-------2---2-------2---9-------9---9-------9---|   -

d|----------------------|
A|----------------------|
F|----5-----5---5-----5-|
C|------9---------9-----|
G|----5---5-----5---5---|
C|--5---------5---------|

d|--------------------------|
A|--------------------------|
F|----0-----0-----2-----2---|  x2
C|------7-----7-----5--

Red Marlow – When The Sun Shines Too chords

 When The Sun Shines Too
Red Marlow
capo 2 to follow recording

 D 
I was broke down, my life had come unwound
                A D 
and I stumbled into that little clapboard church
 D 
And I was in need of revival, double shot of the bible
                 A D 
Lord knows that whiskey, didn't quench my thirst

 D 
Old country preacher got up and got to preachin'
                      A D                                                           
About a man that was headed, straight to hell
 D 
At the end of the story, he said that those that don't know me
                   A D 
I ain't judgin' nobody, I'm talkin' 'bout myself

                    G D 
Yes I been through bad times and I've had good times
              D A 
I've learned devotion, and one thing holds true
                D Bm G 
You don't just pray, when it's rainin',
           D A D 
You gotta pray, when the sun shines too

 D 
Says the the devil Satan, when the storm starts ragin'
              A D 
He'll softly whisper, where's your Jesus now?
 D 
When the skies are clearer, he'll do his best to convince you
                 A 
That it was his job to, take away those clouds

                    G D 
Yes I been through bad times and I've had good times
              D A 
I've learned devotion, and one thing holds true
                D Bm G 
You don't just pray, when it's rainin',
           D A D 
You gotta pray, when the sun shines too

           G D 
It's been years since, that sun determines
                          A 
The world's done alot of turnin', but one thing's held true
                D Bm G 
You don't just pray, when it's rainin', 
           D A D G 
You gotta pray, when the sun shines too
           D A G A D 
You gotta pray,     when the sun shines too

Pokemon – Fire Red Theme Tabs by Misc Computer Games

 -------------------------------------------------------------------------------
                             Fire Red Title Screen- Gamefreak
-------------------------------------------------------------------------------
: Cruz.Cruz.71404
 Cruz.Clues

Tuning: Standard tuning


First tab, couldn't find any decent ones here so i decided to tab it myself

e|-----------------------------------------------------------------------------|
B|-----------------------------------------------------------------------------|
G|-----------------------------------------------------------------------------|
D|-----------------------------------------------------------------------------|
A|-0-0-7--0-0-8--0-0-7--0-0-4--0-0-7--0-0-11-12--10--0-0-7--0-0-8--0-0-7-------|
E|-----------------------------------------------------------------------------|

e|---------------------------------------------------------------------------------|
B|---------------------------------------------------------------------------------|
G|--------------------------14-----------------------------------------------------|
D|---------------------------------------------------------------------------------|
A|-0-0-4--0-0-7--0-0-11-12------14--14--14.14.14--14o--14o--11-12-11-12-11-12------|
E|---------------------------------------------------------------------------------|

e|-----------------------------------------------------------------------------|
B|-----------------------------------------------------------------------------|
G|----------9-9p8p7---------------------999999--11-14-11--11.11.11.11.11.11----|
D|----6-9-6---------9999-6-9-----6-9-6-----------------------------------------|
A|-7----------------------------7----------------------------------------------|
E|-----------------------------------------------------------------------------|

e|-----------------------------------------------------------------------------|
B|-----------------------------------------------------------------------------|
G|-14-11-9-989898--------------------------------------------------------------|
D|-----------------------------------------------------------------------------|
A|-----------------14--14--14.14.14--14o--14o----------------------------------|
E|-----------------------------------------------------------------------------|


************************************

| /   slide up
| \   slide down
| h   hammer-on
| p   pull-off
| ~   vibrato
| +   harmonic
| x   Mute note
| b   Bend
| pb  Pre-bend
| br  Bend release
| pbr Pre-bend release
| brb Bend release bend

************************************

Contact In Red Square chords – Blondie

 -------------------------------------------------------------------------------
          CONTACT IN RED SQUARE - Blondie
-------------------------------------------------------------------------------


capo II
intro James Bond theme:  |: 52 10 52 53 10 53 54 10 54 53 53 10 53 :| D
(52=A string, second fret etc.)

               G D 
Although I'm young I got a job to do.
          Em F C G 
Hid the microfilm in the lining of my shoe.
            D 
Call it a business trip.
         Em F C G Bb G Bb 
Got to hide inside my trenchcoat and be clever.

           G D 
I got my papers and a cyanide pill.
     Em F C G 
My polaroid's a taser in disguise.
            D Em F C G Bb Bb 
There's a base-in-the-hills, and the wheat fields look like Kansas in November.

     Cm Ab Bb F 
Astrovia, sweet comrade, your nation is your gun.
       Ab Bb Cm Cm 
Your love reads like the broken code you sent me.
 Cm Ab Bb F 
One last contact in red square, unless I have to run
          Ab Bb Cm Cm G D 
and the long arms of the K.G.B. detect me.

                G D 
Can't trust a soul, secret messenger, 
           Em F C G 
just the rules that lie like circuits in your brain 
        D 
and a cool .45.
      Em F C G Bb G Bb 
The wind is ice and foreign air tastes strange.

   Cm Ab 
I.C.B.M.*  Bang! Bang! You're dead!
 Bb F 
No one left to worry.
 Ab Bb Cm Cm 
Kiss me quick, now I have to hurry.
 Cm Ab Bb F  
Our last contact in red square, unless I have to run 
          Ab Bb Cm Cm 
and the long arms of the C.I.A. detect me.

 G Bb G Bb G Bb G Bb F G   Hey! 
 G Bb F G   Hey!   G   Hey!  G   ( F )  G 

        *Intercontinental Ballistic Missile

The Red Queen Tabs by American Standards

 -------------------------------------------------------------------------------
                             SONG NAME - Band Name
-------------------------------------------------------------------------------
: Brennen Westermeyer
 MotionManagementAZ

Tuning: CGCFAD


Guitars 1 & 2
d|-----------------------|-----------------------|-----------------------|-----------------------|
a|-----------------------|-----------------------|-----------------------|-----------------------|
f|-----------------------|-----------------------|-----------------------|-----------------------|
c|-5-4----5-4----5-4--7--|-5-4----5-4----5-4--7--|-5-4----5-4----5-4--7--|-5-4----5-4----5-4--7--|
g|-3-4----3-4----3-4--7--|-3-4----3-4----3-4--7--|-3-4----3-4----3-4--7--|-3-4----3-4----3-4--7--|
C|---4------4------4--7--|---4------4------4--7--|---4------4------4--7--|---4------4------4--7--|


Guitars 1 & 2
d|------------------|------------------|------------------|------------------|
a|------------------|------------------|------------------|------------------|
f|------------------|------------------|------------------|------------------|
c|-5-4-3-0-7-6-0-4--|-5-4-3-0-7-6-0-4--|-5-4-3-0-7-6-0-4--|-5-4-3-0-7-6-0-4--|
g|-3-4-3-0-7-6-0-4--|-3-4-3-0-7-6-0-4--|-3-4-3-0-7-6-0-4--|-3-4-3-0-7-6-0-4--|
C|---4-3-0-7-6-0-4--|---4-3-0-7-6-0-4--|---4-3-0-7-6-0-4--|---4-3-0-7-6-0-4--|
Cont.
d|------------------|------------------|------------------|------------------|
a|------------------|------------------|------------------|------------------|
f|------------------|------------------|------------------|------------------|
c|-5-4-3-0-7-6-0-4--|-5-4-3-0-7-6-0-4--|-5-4-3-0-7-6-0-4--|-5-4-3-0-7-6-0-4--|
g|-3-4-3-0-7-6-0-4--|-3-4-3-0-7-6-0-4--|-3-4-3-0-7-6-0-4--|-3-4-3-0-7-6-0-4--|
C|---4-3-0-7-6-0-4--|---4-3-0-7-6-0-4--|---4-3-0-7-6-0-4--|---4-3-0-7-6-0-4--|


Break
Guitar 1
d|----------------------|----------------------|---------|
a|----------------------|----------------------|---------|
f|-7----10---7----13----|-7----10---7----13----|--8-8-8--|
c|-x----x----x-----x----|-x----x----x-----x----|--x-x-x--|
g|-5----8----5----11----|-5----8----5----11----|--6-6-6--|
C|----------------------|----------------------|---------|

Guitar 2... play x2 then:
d|----------------------|----------------------|--0-0-0--|
a|----------------------|----------------------|--4-4-4--|
f|--0----3----0----6----|----------------------|---------|
c|--0----3----0----6----|--0----3----0----6----|---------|
g|--0----3----0----6----|--0----3----0----6----|---------|
C|--0----3----0----6----|--0----3----0----6----|---------|



Guitars 1 & 2
d|------------------|------------------|------------------|------------------|
a|------------------|------------------|------------------|------------------|
f|------------------|------------------|------------------|------------------|
c|-5-4-3-0-7-6-0-4--|-5-4-3-0-7-6-0-4--|-5-4-3-0-7-6-0-4--|-5-4-3-0-7-6-0-4--|
g|-3-4-3-0-7-6-0-4--|-3-4-3-0-7-6-0-4--|-3-4-3-0-7-6-0-4--|-3-4-3-0-7-6-0-4--|
C|---4-3-0-7-6-0-4--|---4-3-0-7-6-0-4--|---4-3-0-7-6-0-4--|---4-3-0-7-6-0-4--|




Break
Guitar 1
d|----------------------|----------------------|----------------------|----------------------|
a|----------------------|----------------------|----------------------|----------------------|
f|-7----10---7----13----|-7----10---7----13----|-7----10---7----13----|-7----10---7----13----|
c|-x----x----x-----x----|-x----x----x-----x----|-x----x----x-----x----|-x----x----x-----x----|
g|-5----8----5----11----|-5----8----5----11----|-5----8----5----11----|-5----8----5----11----|
C|----------------------|----------------------|----------------------|----------------------|

Guitar 2
d|----------------------|----------------------|----------------------|----------------------|
a|----------------------|----------------------|----------------------|----------------------|
f|--0---

Blood Like Cream Tabs by Red Fang

 -----------------------------------------------------------------------------
                           BLOOD LIKE CREAM - Red Fang
-----------------------------------------------------------------------------
: Owen556
ogriff56

Tuning:D(although the band plays it in drop D, I prefer standard)

Intro
e|--------------------------------------------------------------------------|
B|--------------------------------------------------------------------------|
G|--------------------------------------------------------------------------|
D|--7--4--7/9\7--4--7--4---7/9\7--4--7--4-----------------------------------|
A|--7--4--7/9\7--4--7--4---7/9\7--4--7--4-----------------------------------|
D|--7--4--7/9\7--4--7--4---7/9\7--4--7--4-----------------------------------|

Verse
e|--------------------------------------------------------------------------|
B|--------------------------------------------------------------------------|
G|--------------------------------------------------------------------------|
D|---7--4-4-4-4-4---4-2-4-4-4-4---7-7-4-7-4--4-4-4-4--4-2-4-4-4-4-----------|
A|---7--4-4-4-4-4---4-2-4-4-4-4---7-7-4-7-4--4-4-4-4--4-2-4-4-4-4-----------|
D|---7--4-4-4-4-4---4-2-4-4-4-4---7-7-4-7-4--4-4-4-4--4-2-4-4-4-4-----------|

e|--------------------------------------------------------------------------|
B|--------------------------------------------------------------------------|
G|--------------------------------------------------------------------------|
D|---7-7-4-7---3-3-3-3-3---2-3-3-3-3--7-7-4-7-4-4-4-4-4---------4---4-------|
A|---7-7-4-7---3-3-3-3-3---2-3-3-3-3--7-7-4-7-4-4-4-4-4---2-3-4---4---4-----|
D|---7-7-4-7---3-3-3-3-3---2-3-3-3-3--7-7-4-7-4-4-4-4-4---------------------|

                           alternate ending to verse (chromatic down from A)
e|--------------------------------------------------------------------------|
B|--------------------------------------------------------------------------|
G|--------------------------------------------------------------------------|
D|--------------------------------------------------------------------------|
A|-------------------------------------------------------12-11-10-9/--------|
D|--------------------------------------------------------------------------|


Chorus
e|--------------------------------------------------------------------------|
B|--------------------------------------------------------------------------|
G|-----------------------------2--------------------------------------------|
D|--4-2-4--4-2-4--4-2-4-----4--2--4-----------------------------------------|
A|--4-2-4--4-2-4--4-2-4-----4--0--4-----------------------------------------|
D|--4-2-4--4-2-4--4-2-4-----4-----4-----------------------------------------|

e|--------------------------------------------------------------------------|
B|--------------------------------------------------------------------------|
G|-----------------------------2--------------------------------------------|
D|--4-2-4--4-2-4--4-2-4-----4--2----4-4-3-3-5-5-4-4-6-6-6-6-7-7-7-7---------|
A|--4-2-4--4-2-4--4-2-4-----4--0----4-4-3-3-5-5-4-4-6-6-6-6-7-7-7-7---------|
D|--4-2-4--4-2-4--4-2-4-----4-------4-4-3-3-5-5-4-4-6-6-6-6-7-7-7-7---------|





e|--------------------------------------------------------------------------|
B|------------7-7--6-6--8-8--7-7--9-9-9-9--10-10-10-10----------------------|
G|------------X-X--X-X--X-X--X-X--X-X-X-X--X--X--X--X-----------------------|
D|------------4-4--3-3--5-5--4-4--6-6-6-6--7--7--7--7-----------------------|
A|--------------------------------------------------------------------------|
D|--------------------------------------------------------------------------|

Solo 1
e|-----99999999----------------------------|---------------------|----------|
B|-------------12-12-12-12-----------------|---------------------|----------|
G|--------------------------12-12-11-11----|--11-11-

Dirt Wizard Tabs by Red Fang

 ---------------------------
  Dirt Wizard - Red Fang
---------------------------
: millarso (Jake Miller)
 millarso2.0

Tuning: Drop C

Guitar 1: Left Stereo
Guitar 2: Right Stereo

INTRO
Guitar 2
D|--------------------------|
A|--------------------------|
F|--------------------------|
C|-5-7--5-8--5-7--5-8-5-5-5-|
G|-5-7--5-8--5-7--5-8-5-5-5-|
C|-5-7--5-8--5-7--5-8-5-5-5-|

SECTION 1
Both Guitars
D|--------------------------|
A|--------------------------|
F|--------------------------|
C|-5-7--5-8--5-7--5-8-5-5-5-|x4
G|-5-7--5-8--5-7--5-8-5-5-5-|
C|-5-7--5-8--5-7--5-8-5-5-5-|

SECTION 2
Guitar 1
D|--------------------------|
A|--------------------------|
F|--------------------------|
C|--------------------------|x8
G|--------------------------|
C|-5-7--5-8--5-7--5-8-5-5-5-|
||
Guitar 2
D|-----------------------------------------------------------------------|
A|-----------------------------------------------------------------------|
F|-12-------11------111111/121111-10------101011111212-7---8--7----------|
C|--x-(x14)--x-(x8)--x-x-x--x-x-x--x-(x8)--x-x-x-x-x-x-x---x--x----------|x2
G|-10--------9-------9-9-9/10-9-9--8-------8-8-9-91010-5---6--5----------|
C|---------------------------------------------------------------7-7-5-5-|

SECTION 3
Both Guitars
D|-----------------------------------------------|
A|-----------------------------------------------|
F|-----------------------------------------------|
C|-8--8-8-8-8-9--9-9-9-9-12-12121212-7-7-7-7-7-7-|
G|-8--8-8-8-8-9--9-9-9-9-12-12121212-7-7-7-7-7-7-|
C|-8--8-8-8-8-9--9-9-9-9-12-12121212-7-7-7-7-7-7-|

Guitar 1
D|-----------------------------------------|
A|-----------------------------------------|
F|-----------------------------------------|
C|-8--8-8-8-8-9--9-9-9-9-7---7-7--7-7~~~~~-|
G|-8--8-8-8-8-9--9-9-9-9-------------------|
C|-8--8-8-8-8-9--9-9-9-9-------------------|
||
Guitar 2
D|----------------------------------------------------|
A|----------------------------------(gradually-bend)--|
F|-----------------------------------12-12-12-12-12---|
C|-8--8-8-8-8-9--9-9-9-9-12-12121212------------------|
G|-8--8-8-8-8-9--9-9-9-9-12-12121212------------------|
C|-8--8-8-8-8-9--9-9-9-9-12-12121212----------------0-|

Both Guitars
D|-----------------------------------------------|
A|-----------------------------------------------|
F|-----------------------------------------------|
C|-8--8-8-8-8-9--9-9-9-9-12-12121212-7-7-7-7-7-7-|
G|-8--8-8-8-8-9--9-9-9-9-12-12121212-7-7-7-7-7-7-|
C|-8--8-8-8-8-9--9-9-9-9-12-12121212-7-7-7-7-7-7-|

Guitar 1
D|---------------------------5--5-----5--5-----5--5------------|
A|---------------------------x--x-----x--x-----x--x------------|
F|-----------------------2---2--2-2---2--2-2---2--2-2--2p0-2p0-|
C|-8--8-8-8-8-9--9-9-9-9-0--------0--------0--------0----------|
G|-8--8-8-8-8-9--9-9-9-9-0--------0--------0--------0----------|
C|-8--8-8-8-8-9--9-9-9-9-0--------0--------0--------0----------|
||
Guitar 2
D|-------------------------------------------------------------|
A|-------------------------------------------------------------|
F|-------------------------------------------------------------|
C|-8--8-8-8-8-9--9-9-9-9-7--------7--------7--------7--7\5-7\5-|
G|-8--8-8-8-8-9--9-9-9-9-5--------5--------5--------5--5\3-5\3-|
C|-8--8-8-8-8-9--9-9-9-9-0--------0--------0--------0----------|

REPEAT SECTION 1

REPEAT SECTION 2

REPEAT SECTION 3, but replace last bar with
Both Guitars
D|-----------------------------------|
A|-----------------------------------|
F|-2-----2-----2-----2---------------|
C|-0-----0-----0-----0--\\\\\\\\\\\\-|
G|-0-----0-----0-----0--\pick-slide\-|
C|-0-----0-----0-----0--\\\\\\\\\\\\-|

SECTION 4
Guitar 1
D|-----------------------------------|
A|-----------------------------------|
F|-10--10-9--7-----------------------|
C|--x---x-x--x-9---7-7-9-9b10--7-7-7-|x4
G|--8---8-7--5-9-

Hymn For The Missing chords – Red V5

 This is what works best for me when playing the song, the strumming pattern I do 
is DDDDDDDD :) ~ You can vary it to what you please obviously, enjoy!

************NOTE: When you play the verse Am, Em, F, C, G... The gap between C and 
G is half of what it is between F and C, so without confusing you, it's 4 strums 
down on C and G whereas it's 8 strums down on Em, Am and F (ONLY in the verses)************

Chords:
 Am Em G F C 
X-0-2-2-1-0      X-2-2-0-0-0    3-2-0-0-0-3   X-0-3-2-1-1   X-3-2-0-1-0



Intro:  Am ,  Em ,  G ,  Em  (x2)


 Am Em 
  I tried to walk together

         F C G 
But the night was growing dark

 Am Em 
  Thought you were beside me
       F C G 
But I reached and you were gone

 Am Em 
  Sometimes I hear you calling

           F C G 
From some lost and distant shore

 Am Em F C G 
  I hear you crying softly for the way it was before

Bridge: 
 Am ,  F ,  Am ,  F  (one strum on last note)

Chorus:
               Am G 
Where are you now? Are you lost?

        C F 
Will I find you again?

         Am G 
Are you alone? Are you afraid?

         C F 
Are you searching for me?

             Am G 
Why did you go? I had to stay

         C F 
Now I'm reaching for you

          Am G 
Will you wait? will you wait?

        C F 
Will I see you again?


 Am ,  Em ,  G ,  Em Am Em 
  You took it with you when you left

       F C G 
These scars are just a trace

 Am Em 
    Now it wanders lost and wounded

      F C G 
This heart that I misplaced


Bridge: 
 Am ,  F ,  Am ,  F  (one strum on last note)


Chorus:
               Am G 
Where are you now? Are you lost?

        C F 
Will I find you again?

         Am G 
Are you alone? Are you afraid?

         C F 
Are you searching for me?

             Am G 
Why did you go? I had to stay

         C F 
Now I'm reaching for you

          Am G 
Will you wait? will you wait?

        C F 
Will I see you again?


Solo -- end.

Red Deer To Margaree chords – Skydiggers

 This is a great cover of a song originally performed by the Grievous Angels
and composed by our two most musically inclined Members of Parliament, 
Charlie Angus and Andrew Cash.

Verse 1:
 G D G 
Passing time blowin' smoke rings
 G D G 
Late night menu covered with coffee stains
 C G 
I can't remember where we been
 C G 
Where we're goin' to
 G D G 
Take a cup for me and one for you
 
 G D G 
The headlights carve out figures in the night
 G D G 
Late night radio keepin' me alive
 C G 
As raindrops streak the windowpane
 C G 
Diesel fumes and the cold dark rain
 G D G 
I'll follow you from Red Deer to Margaree

Chorus:
 G Bm C G 
An old country song is spinning in my head
 G Bm C G 
Sure do feel tired but at least I ain't dead
 C D G C C / B Am 
You sleep so sound on my shoulder as I take the driver's seat
 G D G 
I followed you from Red Deer to Margaree

Verse 2:
 G D G 
Thunder Bay is two hours from sight
 G D G 
We left the flat lands late, late last night
 C G 
As sunlight rises in distant sky
 C G 
Says "good morning" to our tired eyes
 G D G 
You grin at me and I know that it's all right

Chorus:
 G Bm C G 
An old country song is spinning in my head
 G Bm C G 
Sure do feel tired but at least I ain't dead
 C D G C C / B Am 
You sleep so sound on my shoulder as I take the driver's seat
 G D G 
I followed you from Red Deer to Margaree

Organ solo:
 G D G G D G C G C G G D G 

Verse 3:
 G D G 
One day we're going to put this truck away
 G D G 
Get us a place out near the bay
 C G 
And late at night when you hold me tight
 C G 
And you hear those trucks a rollin' by
 G D G 
I followed you from Red Deer to Margaree

Chorus:
 G Bm C G 
An old country song is spinning in my head
 G Bm C G 
Sure do feel tired but at least I ain't dead
 C D G C C / B Am 
You sleep so sound on my shoulder as I take the driver's seat
 G D G 
I followed you from Red Deer to Margaree
 G D G 
All the way from Red Deer to Margaree
 G D G 
I'll follow you from Red Deer to Margaree