Tag: redemption

Redemption Tabs by Before Their Eyes

 : Joshua Garcia (joshuag523@aol.com)

Tabs for the song: Redemption by Before Their Eyes
Please rate and let me know if you have any corrections. Thank you.


Tuning: Drop C (C G C F A D)


Intro
Guitar 1/2:
D||--------------------------------------|--------------------------------------|
A||--------------------------------------|----------------------------------00--|
F||--------------------------------------|----------------------------------00--|
C||--2-x2-x2-------------------3-333333--|--2-x2-x2-----------------------------|
G||--2-x2-x2-------------------3-333333--|--2-x2-x2-----------------------------|
C||--2-x2-x2--5-7-8/13~--9~-9~-3-333333--|--2-x2-x2-13-13-13-9--9--9-10--7------|
                                 ......

D||--------------------------------------|--------------------------------------|
A||--------------------------------------|----------------------------------00--|
F||--------------------------------------|----------------------------------00--|
C||--222222--------------------3-333333--|--222222------------------------------|
G||--222222--------------------3-333333--|--222222------------------------------|
C||--222222-----7-8/13~--9~-9~-3-333333--|--222222-----13-13-9--9--9-10--7------|
     ......                      ......     ......


Pre-Verse
Guitar 1:
D||------------------------------------------|------------------------------------------|
A||------------------------------------------|------------------------------------------|
F||------------------------------------------|------------------------------------------|
C||------------------------------------------|------------------------------------------|
G||--777777777777777777777777-12121212-9999--|--777777777777777777777777-10101010-9999--|
C||------------------------------------------|------------------------------------------|
     ........................ . . . .  ....     ........................ . . . .  ....


Guitar 2:
D||----------------------------------------------|----------------------------------------------|
A||----------------------------------------------|----------------------------------------------|
F||----------------------------------------------|----------------------------------------------|
C||--999999999999999999999999-14141414-11111111--|--999999999999999999999999-12121212-11111111--|
G||----------------------------------------------|----------------------------------------------|
C||----------------------------------------------|----------------------------------------------|
     ........................ . . . .  . . . .      ........................ . . . .  . . . .



Verse
Guitar 1:
D||------------------------------------------|------------------------------------------|
A||------------------------------------------|------------------------------------------|
F||------------------------------------------|------------------------------------------|
C||------------------------------------------|------------------------------------------|
G||--777777777777777777777777-12121212-9999--|--777777777777777777777777-10101010-9999--|
C||------------------------------------------|------------------------------------------|
     ........................ . . . .  ....     ........................ . . . .  ....


Guitar 2:
D||--------------------------------------------------------------------|
A||--------------------------------------------------------------------|
F||--------------------------------------------------------------------|
C||--2------2--0--2------2/5-5-0-2------2------2--0--2------2/5-5-0-2--|
G||--2------2--0--2------2/5-5-0-2------2------2--0--2------2/5-5-0-2--|
C||--2------2--0--2------2/5-5-0-2------2------2--0--2------2/5-5-0-2--|



Pre-Chorus
Guitar 1:
D||------------------------|-------------------------|---------------------------|
A||------------------------|-------------------------|-------------------------