Tag: religion

Hole In The Ship chords – Bad Religion

 Hello, this is my first ever tab so I hope i didn't make any mistakes making this. It sounds good on acoustic.
I'm pretty sure most parts are correct or very close.

There is a riff that goes throughout the song you can play it or you can just play Am instead.

riff    -------------------------------------                      ----------------
        -------------------------------------                      ----------------
        -------------------------------------                      ------------0---
        -------2--------2---------2-----3--2-                      --------2-------
        ---0--------0--------0---------------     x3               ----3-----------
        -------------------------------------                      ----------------

Intro
 Am G Dm Am    
riff    C G 

Verse 1
riff                                                                               
Well they said there was nothing to worry about
                                    C G 
And they said there was no reason to shout
riff
But I saw the bulkheads cracking
                       C G 
And for us there's no way out

riff                                                                               
When we started on our journey
                        C G 
No one ever could have foreseen
riff
Our desolate and lonely ending
                           C G 
All I've got is helpless feeling
 F G 
But it doesn't take a genius to see

Chorus
           Am G Dm Am 
There's a hooooooooooooooooooooole   in the ship
             C G Am 
And there's nothing we can do
     C G Am 
Our worst fears have now come true
    C G Am 
A few of us are struggling desperately
               C G Am 
To shoot the albatross of H.M.S. Humanity
 C C/B Am G 
It's time to bail
                        Am    riff   C G 
but I think it's too late


Verse 2
riff
All my cohorts think I'm crackers
                        C G 
They've embroiled the local matters
riff
And despite obvious warning
                        C G 
They won't heed my futile chatter

 F G 
But there's something they outta know


Chorus 2

           Am G Dm Am 
There's a hooooooooooooooooooooole   in the ship
     C G Am 
The end is oh so near
       C G Am 
The others show no interest or fear
       C G Am 
Our nature overwhelms our buoyancy
          C G Am 
Yeah nothing could patch the growing vacuity
 C C/B Am G 
It's time to bail, 
                        Am 
but I think it's too late



Bridge
 Dm Am Dm Am C    
Is it possible we have a social disease that makes us close our eyes in dangerous times
 G Am 
But I'm joining in nicely?
 Dm Am Dm Am C    
Or are we too aware and simply too scared to accept destiny, our mortality 
 G E7  
Our mortality, yeah



Chorus
           Am G Dm Am 
There's a hooooooooooooooooooooole   in the ship
 C G Am 
And there's nothing we can do
 <sp

Skyscraper chords – Bad Religion V2

 Skyscraper
Bad Religion

This is how I play it using full chords. You can use Power Chords if you like and/or 
transpose as needed.

Chords used:

    Bm C G D Ebm Em D/F# 
e:-2---0--3--2--6----0--2---|
b:-3---1--0--3--7----0--3---|
G:-4---0--0--2--8----0--2---|
D:-4---2--0--0--8----2--0---|
A:-2---3--2--x--6----2--0---|
E:-x---x--3--x--x----0--2---|

Verse1:
____________________
 Bm C G D Ebm Em C G D G D Em C G D C 
____________________

 Bm C G D Ebm 
  Come let us make bricks and burn them hard
 Em C G D 
We'll build a city with a tower for the world
     G D Em C 
and climb so we can reach anything we may propose
 G D C 
Anything at all

Chorus:
___________________
 C Em D C G D/F# Em D Bm C G D C 
___________________

... C Em D C 
Build me up, Tear me down like a skyscraper
 G D/F# Em D Bm C 
Build me up, then tear down those joining Walls
 G D C 
So they can't climb at all

Verse2:
I know why you tore it down that day
You thought, if you got caught
we'd all go away
Like a spoiled little baby
who can't come out to play
You had your revenge

Chorus: x1


Bridge:
      G 
Well madness reigned and paradise drown
      D 
When Babel's walls came crashing down
         Em 
Now the echoes roar for a story writ
          C 
That was hardly understood
     G D C 
and never any good


Chorus repeats and fades

Gods Love Tabs by Bad Religion V2

 -------------------------------------------------------------------------------
                             God's Love - Bad Religion
-------------------------------------------------------------------------------
: Daviddint
 Daviddint26

Tuning: (Low to high) E-A-D-G-B-e

           [NOTE] - I usually do not put strum patterns because in my opinion it makes 
it hater to read and I'm sure on a song like this, the strumming is easy to figure out.

           Please rate and comment. Message me if you want me to learn a song for 
you so I can tab it.

************************************

| /   slide up
| \   slide down
| h   hammer-on
| p   pull-off
| ~   vibrato
| +   harmonic
| x   Mute note
| b   Bend
| pb  Pre-bend
| br  Bend release
| pbr Pre-bend release
| brb Bend release bend

************************************
      Verse: 4x
e|------------------|------------------|
B|------------------|------------------|
G|-------------8----|------------------|
D|---5----8----8----|---5----8----10---|
A|---5----8----6----|---5----8----10---|
E|---3----6---------|---3----6----8----|

     Chorus
e|-------|-------|-------|-------|-------|-------|-------|-------|
B|-------|-------|-------|-------|-------|-------|-------|-------|
G|-------|---3---|-------|---5---|-------|---3---|-------|---5---|
D|---5---|---3---|---3---|---5---|---5---|---3---|---3---|---5---|
A|---5---|---1---|---3---|---3---|---5---|---1---|---3---|---3---|
E|---3---|-------|---1---|-------|---3---|-------|---1---|-------|

e|-------|-------------|
B|-------|-------------|
G|---8---|---10-----12-|
D|---8---|---10-----12-|
A|---6---|---8------10-|
E|-------|-------------|

e|--------------------------------------------|----------------------------|
B|--------------------------------------------|----------------------------|
G|---5b7-5b7-5b7-5b7-5b7-5b7-5b7-5b7r5p3------|---------3-------5v---------|
D|-----------------------------------------5--|--3h5--5----5--3------------|
A|--------------------------------------------|----------------------------|
E|--------------------------------------------|----------------------------|

e|--------------------------------------------|----------------------------|
B|--------------------------------------------|----------------------------|
G|---5b7-5b7-5b7-5b7-5b7-5b7-5b7-5b7r5p3------|---------3------------------|
D|-----------------------------------------5--|--3h5--5----5--3------------|
A|--------------------------------------------|----------------------------|
E|--------------------------------------------|--------------------8v--12\-|

     Verse

     Chorus

      Bridge
e|---------------------------|
B|---------------------------|
G|---7-----7-----7-----7-----|
D|------5-----5-----5-----5--|
A|---------------------------|
E|---------------------------|

      Chorus

      Solo
e|--------------------------------------------|----------------------------|
B|--------------------------------------------|----------------------------|
G|---5b7-5b7-5b7-5b7-5b7-5b7-5b7-5b7r5p3------|---------3-------5v---------|
D|-----------------------------------------5--|--3h5--5----5--3------------|
A|--------------------------------------------|----------------------------|
E|--------------------------------------------|----------------------------|

e|--------------------------------------------|----------------------------|
B|--------------------------------------------|----------------------------|
G|---5b7-5b7-5b7-5b7-5b7-5b7-5b7-5b7r5p3------|---------3------------------|
D|-----------------------------------------5--|--3h5--5----5--3------------|
A|--------------------------------------------|----------------------------|
E|--------------------------------------------|--------------------8v--12\-|

e|------3---3---3---3-|----3----3---3--3-|----3-----5------6------8-----------|
B|------3---3---3---3-|-

Before You Die chords – Bad Religion V2

 Bm A G A
 Porcelain and  alabaster, decaying  ever faster
 Bm A G G
 unaware of imminent disaster open up your eyes.


          A Bm
As you ruminate the hopeless sands of time,
         A B5
did you wander out your days lost and resigned?
               G A Bm
   Or re-cre-ate the universes in your mind?


 Bm A G A
 Everybody  is bastard  my world is like plaster
 Bm A G G
 crumbling apart from pressure of the blaster Waiting for a sign


         A Bm
And the momentary pleasures take their turn
      A Bm
as a wistful boy runs out of things to learn,
                 G A Bm A
   The e--pi--sodes of yore are never to return.


 Bm A
Scare up some hope, you're gonna need it just to cope
               G Bm
You are the decision, numbers on the line
 Bm A
When you bite the dust, was it for purpose or for trust?
                G Bm
You'll never relive it, think before you die.
      Bm A G
Yeah,think! Think before you die


                solo
 Bm A G A
 Deficit and  depravation - in the wake of  desperation
   Bm A G G
 Rewrite the morals, rectify the nation. Now may be your time


          A Bm
As you ruminate the hopeless sands of time,
        A Bm
do you wonder how your life has been defined?
                  G A Bm
   You know eternity can't ever change your mind.
               G A Bm
   You know eternity can't ever change your mind

   Bm A G
So think! Think before you die
      Bm A G
Yeah,think! Think before you die

Infected Tabs by Bad Religion V5

 Tuning: D Standard

intro

----------------------------------------------------------------------------------|
----------------------------------------------------------------------------------|
-14-----------17/--14-----17-14--------------5--/14-14------14-----14-----14-x----|
-----------------------------------------------------------------------------x----|
-12-----------15/--12-----15-12--------------3--/12-12------10-----12-----12-x----|
----------------------------------------------------------------------------------|


-----------------------------------------------------------------------------------|
-----------------------------------------------------------------------------------|
--14------14------14------14-14-14-14-14------14-14-14-14-14--------14-14-14-14-14-|
-----------------------------------------------------------------------------------|
--12------12------12------12-12-12-12-12------12-12-12-12-12--------12-12-12-12-12-|
-----------------------------------------------------------------------------------|


-----------------------------------------------------------------------------------|
-----------------------------------------------------------------------------------|
-------14-14-14-14-14/----12--14-----------------------12/-14----------------------|
-----------------------------------------------------------------------------------|
-------12-12-12-12-12/----10--12-----------------------10/-12----------------------|
-----------------------------------------------------------------------------------|


----------------------------------------------------------------------------------|
----------------------------------------------------------------------------------|
-14-----------14---------14-14-14---14\----5---/14--------14----14--14-14-14------|
----------------------------------------------------------------------------------|
-12-----------12---------12-12-12---12\----3---/12--------12----12--12-12-12------|
----------------------------------------------------------------------------------|


--------------------------------------------------------------------|
--------------------------------------------------------------------|
/21-21-21-21-21-21---------21-21-21-21-21--------21-21-21-21-21-----|
--------------------------------------------------------------------|
/19-19-19-19-19-19---------19-19-19-19-19--------19-19-19-19-19-----|
--------------------------------------------------------------------|

Verse 1a - 3x
---------------------------------------------------------------|
---------------------------------------------------------------|
--------------------------------5---5---5-------7---7---7---5--|
7---7---7-------3---3---3-------5---5---5-------7---7---7---5--|
7---7---7-------3---3---3---2---3---3---3---4---5---5---5---3--|
5---5---5---0---1---1---1--------------------------------------|


Verse 1b - 1x
--------------------------------------------------------------------|
--------------------------------------------------------------------|
--------------------------------5---5---5---------------------------|
7---7---7-------3---3---3-------5---5---5-------5---5---5-----------|
7---7---7-------3---3---3---2---3---3---3---2---5---5---5-----------|
5---5---5---0---1---1---1-----------------------3---3---3---3/---17-|



Pre-Chorus 1a
---------------------------------------------------------------------------|
---------------------------------------------------------------------------|
2---2-------3---------3-------------------------5-----5-------2---2---2----|
2---2-------3---------3-------------3---3-------5-----5-------2---2---2----|
0---0---0---1---------1-------------3---3-------3-----3---2---0---0---0----|
------------------------------------1---1---0------------------------------|

----1----1----1---0----------------------1---1---1---0----|
----1----1----1---0----------------------1---1---1---0---