Tag: Rhythm

The Rhythm Of Night chords by Vinyl Theatre

The Rhythm of Night
Electrogram (2014)
Vinyl Theatre

The chords on the Chorus are placed as so because the backup vocals overlap with the main vocals.

[Intro]
Bb
(Take me to)
Gm
(Take me to)
Dm
(Make it through)
C
(Make it through)
Bb
(Take me to)
Gm
(Take me to)
Dm
(Make it through)
C
(Make it through)


[Verse 1]
Bb                   Gm
These magnetic minds cause us to align
Dm                   C
We won't come down, we won't come down
        Bb
If you want to fight the city's glow
Gm
Come alive let it show
      Dm                  C
We'll show you how, we'll show you how


[Pre-Chorus]
         Bb
With the rhythm of night
       Gm
In the city of lights
Dm
We dance to show
C
We still can glow
       Bb
In the rhythm of night
         Gm
With the city of lights
Dm               C
We dance to show


[Chorus]
Bb
(Take me to)
Gm
(Take me to)
              Dm
The rhythm of night
(Make it through)
C
(Make it through)
              Bb
The rhythm of night
(Take me to)
Gm
(Take me to)
              Dm
The rhythm of night
(Make it through)
C
(Make it through)
C
The rhythm...


[Verse 2]
Bb
Passion running wild
Gm
Dancing in denial
Dm
We are the sum
C
The lifeblood of
Bb
The city's lights, they need to glow
Gm
This human life will make it so
Dm
We don't come down
C
We'll show you how


[Pre-Chorus]
         Bb
With the rhythm of night
       Gm
In the city of lights
Dm
We dance to show
C
We still can glow
       Bb
In the rhythm of night
         Gm
With the city of lights
Dm              C
We dance to show


[Chorus]
Bb
(Take me to)
Gm
(Take me to)
              Dm
The rhythm of night
(Make it through)
C
(Make it through)
              Bb
The rhythm of night
(Take me to)
Gm
(Take me to
              Dm
The rhythm of night
(Make it through)
C
(Make it through)
C
The rhythm...


[Interlude]
F


[Bridge]
F      Dm
If you can't survive this spell again
       C                       Bb
If you can't survive, just let go
F      Dm
If you can't survive this spell again
       C                       Bb
If you can't survive, just let go

F      Dm
In the rhythm of night
       C
In the rhythm of night
       Bb             Gm Am
In the rhythm of night


[Pre-Chorus]
         Bb
With the rhythm of night
       Gm
In the city of lights
Dm
We dance to show
C
We still can glow
       Bb
In the rhythm of night
         Gm
With the city of lights
Dm              C
We dance to show


[Chorus]
Bb
(Take me to)
Gm
(Take me to)
              Dm
The rhythm of night
(Make it through)
C
(Make it through)
              Bb
The rhythm of night
(Take me to)
Gm
(Take me to)
              Dm
The rhythm of night
(Make it through)
C
(Make it through)
C
The rhythm...

God Is In The Rhythm chords – King Gizzard & The Lizard Wizard

 Note: the format here is for the short version, not the full 10-minute version. The full version
has no additional chords, just slightly different song format to the short version.


[Verse 1/Chorus 1]
 F# D#m B C F# D#m B C 
Earth by the moon, darker days come soon
 F# D#m B C F# D#m B C 
Owl sings a tune, surely she knows too
 D#m Cm 
  Bird is waiting, expectating
 Bm C 
  God is in the rhythm


[Verse 2/Chorus 2]
 F# D#m B C F# D#m B C 
Earth by the sun,  brighter days to run
 F# D#m B C F# D#m B C 
Rain knows the sun,  knows it's not time to come
 D#m Cm 
  Rain is waiting, expectating
 Bm C 
  God is in the rhythm


[Solo]
 F# D#m B C  (x4)
 D#m Cm Bm C          

[Verse 3/Chorus 3]
 F# D#m B C F# D#m B C 
Seasons move, everybody knows it's true
 F# D#m B C F# D#m B C 
Springs brings a dew,  hibernates winters tune
 D#m Cm 
  Summer's waiting, expectating
 Bm C 
  God is in the seasons


[Interlude]
 F# D#m B C  (x4)

[Chorus 3]
 D#m Cm 
  Summer's waiting, expectating
 Bm C 
  God is in the seasons

[Outro]
 F# D#m B C  (until fade)

Amy chords – Green Day V7

 There is no real rhythm guitar on this track so here is your chance to add one. There is a five star 
version of this posted already but it has some errors in it and is in the wrong key, (not sure that
green day are big on capos, but I may be wrong). I have made a few corrections, neatened it up and
changed it to the correct key.
Remember your  guitar should be tuned to Eb not E as is the case in lots of green days songs.
Please rate and comment

Intro:  Em Bm   X2

Verse 1:
 G Em C G 
Is your heart singing out of tune, are your eyes just singing the blues
 G Bm C D 
Dirty records from another time, some blood stains on your shoes
 G Em C G 
No one really knows about your soul and I barely really know your name
 G Bm C D G 
Burning rhythms and posting lies and a bunch of fools drown in shame

Chorus:
               Em G Em Bm  
Amy don't you go, I want you around, singin' wo o oh oh please don't go
        C D G C D Em Bm Em Bm 
Do you wanna be a friend of mine, do you wanna be a friend of mine

Verse 2: 
 G Em C G 
Did you tattoo a lucky charm to keep you out of harms way
 G Bm C D  
Warding off all evil signs but never really kept you safe
 G Em C G 
Now You're too young for the golden age 'cause the record bin's been replaced
 G Bm C D G 
Twenty seven go  without a trace and you walked away from your drink

Chorus:
               Em G Em Bm  
Amy don't you go, I want you around, singin' wo o oh oh please don't go
        C D G C D F C Cm F C D         
Do you wanna be a friend of mine, do you wanna be a friend of... Amy please don't Go,  Amy please don't Go

Verse 3:
 G Em C G 
Is your heart singing out of tune, are your eyes just singing the blues
 G Bm C D 
Dirty records from another time, some blood stains on your shoes
 G Em C G 
May I have this last dance by chance if we should meet
 G Bm C D G 
Can you write me a lullaby so we can sing you to sleep

Chorus:
               Em G Em Bm  
Amy don't you go, I want you around, singin' wo o oh oh please don't go
        C D G C D G                      
Do you wanna be a friend of mine, do you wanna be a friend of mine, 
        C D Em Bm Em Bm Em Bm Em Bm Em7 
Do you wanna be a friend of mine 

Spirit Desire Acoustic chords – Tigers Jaw

 I couldn't find these chords anywhere, so I decided to post them for everyone else.  Enjoy
-Ryan Emmert


So basically it is two variations of an open F chord which are...
      
      RHYTHM(listen to the song to be more accurate)

      x  x x x  x  x x x x      x  x x x  x  x x x 

e|--------------------------------------------------|
B|----2-----------------------0---------------------|
G|----2-----------------------2---------------------|
D|----0-----------------------0---------------------|
A|----0-----------------------0---------------------|
E|----2-----------------------2---------------------|


...followed by an A & A5 chord which are

      x  x x x  x  x x x      x  x x x  x  x x x 

e|--------------------------------------------------|
B|----2-----------------------0---------------------|
G|----2-----------------------2---------------------|
D|----2-----------------------2---------------------|
A|----0-----------------------0---------------------|
E|--------------------------------------------------|


Lyrics


Waiting for the sun, but I know that it'll come.

I feel reborn when you touch my arm.

Whole new view, feel better when I talk to you. 

I get scared with what I wear.

Even when you yell, I still love your belly,

It's true, it's true. 

Riding it through the night, straight through.


It still feels new when I talk to you.

I feel reborn when the sun gets warm.

It's hard but I feel better when I'm not inside.

I get scared you'll leave me soon, 

Even though we call each other every afternoon,

It's true, it's true.

It took a little time, but I, well I know you.


I'm not bored at all, you can call me when you want to call.

Oh, I'm not bored at all, you can call me when you wanna call.


I used to want to show you every single line,

Now it's hard for me to show you anything I write.

Know that I get nervous when we're not alone, 

I wait for you for hours when you're coming home.

When we started talking I got so excited,

I swear I tried to go out every single night.

Know that you will always be the one who's my... 


Spirit desire, spend my time,

Tell me that you're always gonna be in my life.


Oh, I'm not bored at all, you can call me when you wanna call.

Spring To Come Tabs by John Butler Trio

 -----------------------------------------------------------------------------
                    Spring To Come - John Butler Trio
-----------------------------------------------------------------------------

First of all I'd like to thank John Butler and his current and former bands for creating
such impressive, intense and beautiful music!

This tab only contains the awesome interlude and outro part because the other parts are
perfectly explained by John Butler himself in this video:

This tabs could be useful too:
http://www.guitarworld.com/acoustic-nation-video-lesson-play-it-now-john-butler-
teaches-us-play-spring-come

It was quite confusing to identify the timing of the melody along base-rhythm. I think I
finally figured it out correctly, so I thought: Let's share it!
If you have problems with the rhythm have a look at the video-link at the top. In the
end John plays the part really slowly, perhaps that helps you to get a feeling for the
timing. Also it is important to use the thumb for playing the base-notes G and D (or C
and D) in order to stick to the beat.
I hope there are no major mistakes in this tab nor my language, if else please use the
comment-section. :)

Tuning: C G D G b d

   1   +   2   +   3   +   4   +    1   +   2   +   3   +   4   +
d |--------------------------------|--------------------------------|
b |----------------1---0---------3~|----------------1---0---------0-|
G |----0h2-----0---------------0---|----0-------0---------------2---|
D |----0-------0-------0-------0---|----0-------0-------0-------0---|
G |0-------0-------0-------0-------|0-------0-------0-------0-------|
C |--------------------------------|--------------------------------|

This second half is almost the same just the base note changes from G to C.
   1   +   2   +   3   +   4   +    1   +   2   +   3   +   4   +
d |--------------------------------|--------------------------------|
b |----------------1---0---------3~|----------------1---0---------0-|
G |----0h2-----0---------------0---|----0-------0---------------2---|
D |----0-------0-------0-------0---|----0-------0-------0-------0---|
G |--------------------------------|--------------------------------|
C |0-------0-------0-------0-------|0-------0-------0-------0-------|

Escape Route Tabs by Paramore

 Paramore 
Escape Route
Tab: alex_dqg 

Intro
Lead
e|------------------------------|
B|------------------------------|
G|------------------------------|
D|------------------------------|x2
A|-------4--3-1-4-------4--3-1--|
E|-11-4-2-44-4----11-4-2-44-4-4-|

Rhythm 
e|-----------------------------------------------------------|
B|-9999-11111111-13131313-14141414-9999-11111111-13131313-66-|
G|-xxxx-xxxx-----xxxxxxxx-xxxxxxxx-xxxx-xxxx-----xxxxxxxx-xx-|
D|-7777-9999-----11111111-12121212-7777-9999-----11111111-44-|x2
A|-----------------------------------------------------------|
E|-----------------------------------------------------------|

Verse 
Bass Jeremy 
Repeat Intro

Chorus 
Lead
e|-----------------------------------------------|
B|-----------------------------------------------|
G|-------66666-----------------------66666-------|
D|-44444-66666-66666-8888-6666-44444-66666-66666-| 
A|-44444-44444-66666-8888-6666-44444-44444-66666-|
E|-22222-------44444-6666-4444-22222-------44444-|

e|---------------------------------------------------|
B|---------------------------------------------------|
G|---------------------------------------------------|
D|-44444-66666-8888-10101010-111111-6666-44444-66666-| 
A|-44444-66666-8888-10101010-111111-6666-44444-66666-|
E|-22222-44444-6666-88888888-9999---4444-22222-44444-|

Rhythm 
e|-6666--------------6666----6666---------------|
B|-----9999-6666-9999----9999----9999-6666-9999-|
G|----------------------------------------------|

e|-6666-8888-9999-11111111-13131313-9999-6666-8888-|
B|-------------------------------------------------|
G|-------------------------------------------------|

Verse 

Bass Jeremy 
Repeat Intro
Repeat Chorus
 
Bridge


e|------------------------------------|
B|------------------------------------|
G|------66-xxx-66-------1010-xxx-1010-|
D|------66-xxx-66-------1010-xxx-1010-|
A|------44-xxx-44-4~-6~-8-8--xxx-8-8--|
E|-6~-2~------------------------------|

Solo

Rhythm 
e|-9999-111111-13131313-9-13-9-13-16161616-|
B|-----------------------------------------|
G|-----------------------------------------|

e|-9999-111111-13131313-----------------------------16161616-|
B|----------------------14141414-1111111111-14141414---------|
G|-----------------------------------------------------------|

Repeat 
Chorus x2

Final 
e|-------------|
B|-------------|
G|-------------|
D|-------------|
A|-------4--3--|
E|-11-4-2-44-4-|

e|---|
B|---|
G|-6-|
D|-6-|
A|-4-|
E|---|

Daddy Longlegs Tabs by Black Lips

 For most of the song, this riff is played:

e-------------------------------------|
b-------------------------------------|
g----------------------------2-2------|
d-----------2-2----0-0-0-0-3----3-----|
a-0-0-0-0-3-----3---------------------|
e-------------------------------------|

At the bridge "I aint never comin back", this is played: 3X

e-------------------------------------|
b-------------------------------------|
g-------------------------------------|
d-3---3---3---3---0---0---0---0-------|
a---3---3---3---3---0---0---0---0-----|
e-------------------------------------|

then

e---------------------------|
b---------------------------|
g---------------------------|
d-2-2-----------------------|
a-----3-3-0-0-0-0-0-0-0-0---|
e---------------------------|

For the Solo, these chords are played (listen to song for rhythm)

Em and D, i find it sounds better if you do Em in the A form, the D chord can 
really go either way.

The D chord isn't by itself, it goes like this:

e-5-------------|
b-7-7-7-8-8-7-7-|
g-7-7-----------|
d-7-------------|
a-5-------------|
e-x-------------|

Tablature by: Austin Wiseman

Lower The Heavens Tabs by The Donkeys

 -------------------------------------------------------------------------------
                             Lower The Heavens - The Donkeys
-------------------------------------------------------------------------------
: guitar zeer0
 PM me if you feel the need

Tuning: Standard 

The notes begin about a minute into the song. I tried to space it out in 

accordance with the rhythm. The spacing isn't exact but it'll give you a general 

idea.  ear. , enjoy!
 
[Chorus] (x2)
e|---------------------------------------------------------------------------|
B|------1---1---1h3-------1-3-4b3-1-------1---1---1h3-------1-3-4b3-1--------|
G|--0h2---2---2-------0h2-------------0h2---2---2-------0h2------------------|
D|---------------------------------------------------------------------------|
A|---------------------------------------------------------------------------|
E|---------------------------------------------------------------------------|

e|----------0-----------------0-----------------0-------0-----0-----0--------|
B|------1-------1---------1-------1---------1-------1-----1-----1-----1------|
G|--0h2---2---2---2---0h2---2---2---2---0h2---2---2---2-----2-----2----------|
D|---------------------------------------------------------------------------|
A|---------------------------------------------------------------------------|
E|---------------------------------------------------------------------------|

[Bridge]
e|--3-----3-----3-----3-----3-----3-0-----0-----0-----0-----0-----0----------|
B|----1-----1-----1-----1-----2-------1-----1-----1-----1-----1--------------|
G|------2-----2-----2-----2-----1-------2-----2-----2-----2-----2------------|
D|---------------------------------------------------------------------------|
A|---------------------------------------------------------------------------|
E|---------------------------------------------------------------------------|

e|--1-----1-----1-----1-----1-0-----0-----0-----3-1-0------------------------|
B|----1-----1-----1-----1-------1-----1-----1---------3-1-0-1--0-1-0-2/3-----|
G|------2-----2-----2-----2-------2-----2-----2------------------------------|
D|---------------------------------------------------------------------------|
A|---------------------------------------------------------------------------|
E|---------------------------------------------------------------------------|

e|----------------------------------------3-1-0------------------------------|
B|--0-1--0-1-0-2/3---0-1--0-1-0-2/3--0-1--------3-1-0-1--0-1-0-2/3-----------|
G|---------------------------------------------------------------------------|
D|---------------------------------------------------------------------------|
A|---------------------------------------------------------------------------|
E|---------------------------------------------------------------------------|

e|---------------------------------------------------------------------------|
B|--0-1--0-1-0-2/3--0-1--0-1-0-2/3--1-0-1-0----------------------------------|
G|------------------------------------------2-----0--------------------------|
D|--------------------------------------------0h2---2------------------------|
A|---------------------------------------------------------------------------|
E|---------------------------------------------------------------------------|

[Repeat Chorus]

[Solo]
e|---------------------------------------------------------------------------|
B|---------------------------------------------------------------------------|
G|--7b---9-9\7--7-7--7-7-----------------------------------------------------|
D|-----------------------10-9-7----------------------------------------------|
A|---------------------------------------------------------------------------|
E|--------------------------------10-10/12--12-12---8-8-8-8/10-10-10/12------|

e|-----------------------------------

Happy chords – Frames

                                           Artist - The Frames
                                         *********************
                                              Song - Happy 
                                             **************
                                         Album - Burn The Maps 
                                        ***********************
                                          - Ayreon77
                                        **********************





 I Think this is how he's playing it, bit tricky at first
   A G#m A G#m  
[----------------------------------------------------------------------]
[----------------------------------------------------------------------]
[-6-6-6-6--6-6-6-6--4-4-4-4s----6-6-6-6--6-6-6-6--4-4-4-4s-------------]
[-7-7-7-7--7-7-7-7--6-6-6-6\7---7-7-7-7--7-7-7-7--6-6-6-6\7------------]
[-7-7-7-7--6-6-6-6--6-6-6-6\7--h7-7-7-7--6-6-6-6--6-6-6-6\7-And so on--]
[-5-5-5-5--5-5-5-5--4-4-4-4---0-5-5-5-5--5-5-5-5--4-4-4-4--------------]


--------------------------------------------------------------
VERSE 1
********
 A G#m 
Come help me out I'm sick from the fight
 A G#m 
from inserting a laugh where there's none
 A G#m 
show me where this joke got tired
 A G#m 
tell me you know cause I'm slow catching on.


--------------------------------------------------------------
VERSE 2
********
 A G#m 
Your trying to break me down with your tuneless song
 A G#m 
That kept me up all night
 A G#m 
Take me to the fair where the lifeless singers
 A G#m 
Will let you ride up beside them sometimes


--------------------------------------------------------------
CHORUS
*******
 F#m E B 
  And your putting a line
 F#m E B 
  where there should be not a line
 F#m E B A 
  And your building divides.


--------------------------------------------------------------
VERSE 3
********
 A G#m 
Help cut me out I got caught in the wire
 A G#m 
From believing the filtering downs
 A                  G3m
Tell me where the stakes got higher
 A G#m 
Goes to show how slow we've become
 A G#m              
Tell me what you see            (these last 2 lines kinda go off rhythm)
 A G#m 
Coz i'm not catching what you say


--------------------------------------------------------------
CHORUS
*******
 F#m E B 
  And your putting a line
 F#m E B 
  Where there should be not a line
 F#m E B A 
  And your building divides
    A E B 
To putting a line
 A E B A 
 Why are you building divides

--------------------------------------------------------------
WEIRD SOLO
--------------------------------------------------------------

CHORUS
*******
 F#m E B 
  And your putting a line
 F#m E B 
  Where there should be not a line
 F#m E B A 
  And your building divides
    A E B 
To putting a line
 A E B A 
 Why are you building divides
 A E B 
It's some feeling in your life
 A E</s

One Hundred Years From Now Ill Be Crawling From My Tomb Tabs by Gas Up Yr Hearse

 -----------------------------------------------------------------------------
one Hundred Years From Now I'll Be Crawling From My Tomb - Gas Up Yr Hearse!
-------------------------------------------------------------------------------
: Gmemberkills
 Drop D

Tuning:

e|---------------------------------------------------------------------------|
B|---------------------------------------------------------------------------|
G|---------------------------------------------------------------------------|
D|0----1----5--0---------2--1-0-1--------------------------------------------|
A|0-ph-1-s--5--0---------2--1-0-1------x2------------------------------------|
D|0----1----5--0---------2--1-0-1--------------------------------------------|

e|---------------------------------------------------------------------------|
B|---------------------------------------------------------------------------|
G|---------------------------------9--8--7--9--------------------------------|
D|---2--1-0-1----------------------x--x--x--x--------------------------------|
A|---2--1-0-1----------------------7--6--5--7--------------------------------|
D|---2--1-0-1----------------------------------------------------------------|
Strum this fast, then break into

e|---------------------------------------------------------------------------|
B|--------4------------------------------------------------------------------|
G|--------7------------------------------------------------------------------|
D|--000----------------------------------------------------------------------|
A|pm000----------------------------------------------------------------------|
D|--000----------------------------------------------------------------------|

Then for the end use pretty much open pm chugs along with the 4 an 7 in rhythm to the song
************************************

| /   slide up
| \   slide down
| h   hammer-on
| p   pull-off
| ~   vibrato
| +   harmonic
| x   Mute note
| b   Bend
| pb  Pre-bend
| br  Bend release
| pbr Pre-bend release
| brb Bend release bend

Hunter chords – Pharrell Williams

 Pharrell Williams - Hunter
Chords -  Chris Bailey (ukguitarlessons.com and kadiaband.co.uk)

Instructional video: on YT : https://www.youtube.com/watch?v=NEh5yCjJ_cY
I haven't put the chord names over every lyrics, because the rhythm of this song 
is so repetitive, that you will get the hang of it

Capo on the 3rd Fret

CHORD SHAPES TO USE:
 Em G A A G Em 
REPEAT LOTS...

Just because it's the middle of night
That don't mean I won't hunt you down
Cause up, in, deep inside
It's pullin' me and I want your love
You and I should be gettin' it right
Ain't no sense in you holdin' on down
If I can't have you, nobody can
This an animal singin' that'll hunt you down

So baby, ooh-ooh
My love is kung fu-uuh
And baby, ooh-ooh
My love is kung fu-uuh
Hey baby, ooh-ooh
Sex is kung fu-uuh
Hey baby, ooh-ooh
My love is kung fu-uuh

I show my teeth
And I hope you know that look in my eyes
I got lightnin' speed
I won't hesitate to rescue what is mine

Well, hold up baby, what's goin' on?
Tell the truth, I wanna know
What you're doin' when we go
Somethin' say you ain't [?]
You say, "Baby keep holdin' on"
What you mean? I've been holdin' on
I ain't ever smelled this before
Somethin' say it's time to go

Just because it's the middle of night
That don't mean I won't hunt you down
Cause up, in, deep inside
It's pullin' me and I want your love
You and I should be gettin' it right
Ain't no sense in you holdin' on down
If I can't have you, nobody can
This an animal singin' that'll hunt you down

So baby, ooh-ooh
My love is kung fu-uuh
And baby, ooh-ooh
My love is kung fu-uuh
Hey baby, ooh-ooh
Sex is kung fu-uuh
Hey baby, ooh-ooh
My love is kung fu-uuh

Taxidermy is on my walls
With the full description of the killin' calls
I'm a hunter
Cupid, thank you for what you did
But you can't aim and get what I get
I'm a hunter

Well, hold up baby, what's goin' on?
Tell the truth, I wanna know
What you're doin' when we go
Somethin' say you ain't [?]
You say, "Baby keep holdin' on"
What you mean? I've been holdin' on
I ain't ever smelled this before
Somethin' say it's time to go

Just because it's the middle of night
That don't mean I won't hunt you down
Cause up, in, deep inside
It's pullin' me and I want your love
You and I should be gettin' it right
Ain't no sense in you holdin' on down
If I can't have you, nobody can
This an animal singin' that'll hunt you down

So baby, ooh-ooh
My love is kung fu-uuh
And baby, ooh-ooh
My love is kung fu-uuh
Hey baby, ooh-ooh
Sex is kung fu-uuh
Hey baby, ooh-ooh
My love is kung fu-uuh

Duck Dynasty's cool and all
But they got nothin' on a female's call
I'm a hunter
Is that a tree is that camouflage?
Come get eaten by the dam mirage
I'm a hunter

Well, hold up baby, what's goin' on?
Tell the truth, I wanna know
What you're doin' when we go
Somethin' say you ain't [?]
You say, "Baby keep holdin' on"
What you mean? I've been holdin' on
I ain't ever smelled this before
Somethin' say it's time to go

Just because it's the middle of night
That don't mean I won't hunt you down
Cause up, in, deep inside
It's pullin' me and I want your love
You and I should be gettin' it right
Ain't no sense in you holdin' on down
If I can't have you, nobody can
This an animal singin' that'll hunt you down

So baby, ooh-ooh
My love is kung fu-uuh
And baby, ooh-ooh
My love is kung fu-uuh
Hey baby, ooh-ooh
Sex is kung fu-uuh
Hey baby, ooh-ooh
My love is kung fu-uuh



Read more: Pharrell - Hunter Lyrics | MetroLyrics yrics 

Miss Canonball – The Almighty Dollar chords

 Repeat:  Em | D . 
Throughout the hiphop part he plays the inversion of Em with the root on the 
fourth fret of the G-string; the inversion is played as an open Dm chord without 
the fourth string, that's the shape of the inversion of Em which he plays. 

Lyrics 
                 Em D 
I'm never gonna sell my soul for no fool's gold
                Em D 
I rather die innocent young than old
                Em D 
Who says life celebration brings live creation
                Em D 
Despise fake nation at the same time take a motion
I wish all single person understand on which ground we stand
If you do come as you are and raise your hand
But as my thoughts gets deeper
I see the world in different figures
You 're all relying around me I am the gardener
Recycling old modes tones and tonalities 
Wondering about codes of moralities
Yo ! innocence is a constancy in a sense
So what we've witness yesterday will still shine tomorrow
Awake the next day we still feel the sorrow
The al mighty dollar is the one we gots to run

It's the all mighty dolla

                Em D 
I'm never gonna forget my soul 
                Em D 
Never forget why my friends here for
                Em D 
I am not of iron I am not of gold
That why sometimes I'm afraid of the cold
Somedays I feel lost even if I'm free
That why sometimes I'm afraid of the cold
Somedays I feel lost even if I'm free
If you see me falling please rescue me
Why sometimes I just can't understand
Trap in this life like a innoncent lamb
Why sometimes I just can't understand
Trap in this life like a innoncent lamb

Oh lord!
Your rhythm is my song

Let say that you gotta work now
Cause Monday means money
And that how appears the fool's gold in our life
It's a path that you can see through
A spiritual path that you must go through in life
But don't forget that your just like a clown
Cause no king ever finds truth in life
Oh no! the clown put on a costume
And you put on some rings
Feel like I presume you'll pull on some strings
Oh Lord!
Please forgive all the kings and all of the sins that I sings


Cause man, man are only man
Even when they pray
They'll go to you and say
Give me more money
Give me more power
But don't give me no soul
Cause I'm just another monkey
Trap in reality

One day we will rise over this

Bright Eyes chords – Art Garfunkel V5

  Urbanturban

Capo on 2nd fret



Intro:   C F C Am F G C F C 
Is it a kind of dream,
 Am F C 
Floating out on the tide,
 G C F 
Following the river of death downstream?
      Dm7 G G7 
Oh, is it a dream?

            C F C 
There's a fog along the horizon,
 Am F C 
A strange glow in the sky,
      G C F 
And nobody seems to know where you go,
                    E 
And what does it mean?
     C G7 C 
Oh-oh, is it a dream?

         Em 
Bright eyes,
  F G 
Burning like fire.
         Em 
Bright eyes,
   F Dm 
How can you close and fail?
  E7 Am G C 
How can the light that burned so brightly
   F Dm 
Suddenly burn so pale?
   G7 C 
Bright eyes.

  C F C 
Is it a kind of shadow,
  Am F C 
Reaching into the night,
  G C F 
Wandering over the hills unseen,
     Dm7 G G7 
Or is it a dream?

            C F C 
There's a high wind in the trees,
     Am F C 
A cold sound in the air,
      G C F 
And nobody ever knows when you go,
                    E 
And where do you start,
     C G7 C 
Oh-oh, into the dark.


         Em 
Bright eyes,
  F G 
Burning like fire.
         Em 
Bright eyes,
   F Dm 
How can you close and fail?
  E7 Am G C 
How can the light that burned so brightly
   F Dm 
Suddenly burn so pale?
   G7 C 
Bright eyes.


         Em 
Bright eyes,
  F G 
Burning like fire.
         Em 
Bright eyes,
   F Dm 
How can you close and fail?
  E7 Am G C 
How can the light that burned so brightly
   F Dm 
Suddenly burn so pale?
   G7 C 
Bright eyes.


I learned this from Bob Tulip's Youtube lesson. It's really good, so check it out 
if you are having trouble with the rhythm. Have fun!

Rango chords – Catfish And The Bottlemen

 -------------------------------------------------------------------------------
                             RANGO - Catfish and the Bottlemen
-------------------------------------------------------------------------------
: Ben Musgrove
 mussyjunior@hotmail.co.uk

Tuning: Standard

Main riff:

e|---------------------------------------------------------------------------|
B|---8---8---8---8---8---8-----8-----12----12----12---12---12---12---12------|
G|-9---9---9---9---9---9---9-7---7s12---12----12----12---12---12---12--12-11-|
D|---------------------------------------------------------------------------|
A|---------------------------------------------------------------------------|
E|---------------------------------------------------------------------------|
    x2


Verse:

             Em 
Darlin' I'm done for once
        D G 
And as soon as I get out of here
           Em 
I plan on coming back for nothing
     D G 
But then again there's you
                   Em 
And although this town does flaunt
         D G 
All the stuff you need to feel at home
           Em 
I plan on taking from it nothing,
     D G 
But then again there's you


Chorus:

 C D Em 
Abby she's got to wait
            C D G 
Until she gets you on your own
            C D Em 
So she can make you make mistakes
             C D G 
And you can offer to take her home

Verse and chorus remain the same throughout, with nothing more than dynamic changes 
varying between them. Play it by ear and get a feel for how you want to deliver it.

Solo:

e|--------------------------------------------------------------------------|
B|-13b15~-12-12-12-10-10-10----------------12-12-12-10-10-10----------------|
G|--------------------------12-12-9b10r9-7-------------------12-12-9b10r9-7-|
D|--------------------------------------------------------------------------|
A|--------------------------------------------------------------------------|
E|--------------------------------------------------------------------------|
    x2

Verse rhythm plays under it.

Lyrics:

Darlin' I'm done for once
And as soon as I get out of here
I plan on coming back for nothing
But then again there's you
And although this town does flaunt
All the stuff you need to feel at home
I plan on taking from it nothing,
But then again there's you

Abby she's got to wait
Until she gets you on your own
So she can make you make mistakes
And you can offer to take her home

It's not like I don't miss it none
But the quicker I drink more in here
The quicker I lose track of you
But I know you wouldn't want that
And although this town does flaunt
Much thicker stories than I care to talk
Darling you you've ducked them in style
I'll always love you for that

Abby she's got to wait
Until she gets you on your own
So she can make you make mistakes
And you can offer to take her home
And now she's wearing that top you love
And she's topping it all off
By acting like somethings up
She always knew how to pull the strings

Abby she's got to wait
Until she gets you on your own
So she can make you make mistakes
And you can offer to take her home
And now she's wearing that top you love
And she's topping it all off
By acting like somethings up
She always knew how to pull the strings

Magic solo Tabs by Coldplay

                              Magic - Coldplay
-------------------------------------------------------------------------------

This is a variation of what Jonny Boy plays at 3:13 but sounds perfect when played to 
the song. Such an awesome part. Listen to the song for the correct strumming rhythm.



Tuning: Standard

e|-------------------------------------------------------------------------------|
B|-------------------------------------------------------------------------------|
G|----6----2-----------6------4--------------------------------------------------|
D|----7----0-----------7------2--------------------------------------------------|
A|---------0------------------2--------------------------------------------------|
E|---------5------------------0--------------------------------------------------|

Pushing Back The Dark chords – Josh Wilson V2

 Capo 7

   G D Bm A 
-2-3---2---0-1---0
-3-3---3---3-3---2
-0-0---2---4-4---2
-0-0---0---4-4---2
-x-x---x---x-x---x
-x-x---x---x-x---x

These chords are repeated throughout the song.  The changes on the high E string 
during the G and Bm chords are hammered on.  

Listen to the song to get the rhythm.  
When you count 1-E-&-A-2-E-&-A-3-E-&-A-4-E-&-A
1st measure: G starts on beat 1, D on beat 3-e.  
2nd measure: Bm starts on beat 1, A on beat 3-e.

House On Fire Tabs by Hanni El Khatib

 ----------------------------------------------------------------------------
Hanni El Khatib - HOUSE ON FIRE
----------------------------------------------------------------------------
: Android2020
Listen to the song for the rhythm, feel free to correct or add missing part.
Enjoy.
    A       F#m       D        G  
e|-----  e|--2--  e|--5--  e|--3--  
B|--2--  B|--2--  B|--7--  B|--3--  
G|--2--  G|--2--  G|--7--  G|--4--  
D|--2--  D|--4--  D|--7--  D|--5--  
A|-----  A|--4--  A|--5--  A|--5--  
E|-----  E|--2--  E|-----  E|--3--  

A
Drop me off at my car
F#m
I know I'm drunk but it ain't that far
A
Promise that I'll get home safe
F#m
(Can't be talked better it's too late)?
D                               A
And the people will forgive it tomorrow
F#m                            G
But I know that you still feel hollow...

A                                          
It's dangerous to love each other with the 
F#m                                  
house on fire but I know that we can 
A                            F#m
put up the fire if we try it tonight
(x2)

A
Ending up is harder these days
F#m
And I feel so strange in this place
A
'Cause the mirror on my head 
F#m
feels better when you're not upset
D                                 A
And I won't change your notes for truth
F#m                          G
But there ain't much you can do...

A                                          
It's dangerous to love each other with the 
F#m                                  
house on fire but I know that we can 
A                            F#m
put up the fire if we try it tonight
(x2)

****BRIDGE****
     A                     A                     F#m
e|---------------------|----------------------|--2-2-----------------|
B|--2-3p2--------------|--2-2-----------------|--2-2-----------------|
G|--2----2-------------|--2-2-----------------|--2-2-----------------|
D|--2------------------|--2-2-----------------|--4-4-----------------|
A|---------------------|----------------------|--4-4-----------------|
E|---------------------|----------------------|--2-2-----------------|
 
    A                      F#m                    A   
e|----------------------|--2-2----x-x--x-x-x--|----------------------|
B|--2-2----------5------|--2-2----x-x--x-x-x--|--2-2---7-7b8r7-7-5~--|
G|--2-2-----2-4/6-6-4-2-|--2-2----x-x--x-x-x--|--2-2-----------------|
D|--2-2--2-4------------|--4-2----x-x--x-x-x--|--2-2-----------------|
A|----------------------|--4-2----x-x--x-x-x--|----------------------|
E|----------------------|--2-2----x-x--x-x-x--|----------------------|

    F#m                      A                   F#m
e|--2-2------------------|--------------------|--2-2-----------------|
B|--2-2------------------|--2-2-3p2--3p2------|--2-2-----------------|
G|--2-2---------2--------|--2-2----2----2-----|--2-2-----------------|
D|--4-4------2-4---------|--2-2---------------|--4-4-----2222-2h4p2-2|
A|--4-4---2-4------------|--------------------|--4-4--2-4------------|
E|--2-2------------------|--------------------|--2-2-----------------|

A
Standing in the morning
F#m
Standing in the eve'
A
And I can't believe
F#m
That you're staying with me
(x2)

A                                          
It's dangerous to love each other with the 
F#m                                  
house on fire but I know that we can 
A                            F#m
put up the fire if we try it tonight
(x2)

A               F#m
If we try it tonight... (x4)

Gang Of Rhythm chords – Walk Off The Earth V5

 Walk Off The Earth - Gang Of Rhythm
Capo  5th 

Intro    C     |     ||

Verse 1
 C Dm 
 I got this old guitar, the strings are rusty but it's all I need
                              F 
Bring in the kick drum it can back the beat
                                Am G 
Let's gather round and sing a song    (hey!)
 C Dm 
 I got a shaker too, the kind of sound that wants to make you move
                              F 
Bring in the uke it will complete the groove
                                Am G 
Let's gather round and sing a song    (hey!)


Pre Chorus
 Am G F G 
 There's no worries on the earth tonight
 Am G F G 
 We're all walkin' off the world tonight


Chorus
 C F C G 
 Come on now everybody yeah come on now everyone
 C F C G 
 We're like a locomotive under the big hot sun
 C F C G 
 We're chained to the gang of rhythm, the song is never done
 C F C G 
 Come on now everybody yeah come on now everyone


Int    C F   | Dm G   | C F   | Dm G   ||
                            (come on everyone)

Verse 2
 C Dm 
 We got this melody, bring in the harmonies like CSNY
                              F Am G 
To write a tune you know will never die, let's gather round and sing a song


Pre Chorus
 Am G F G 
 There's no worries on the earth tonight
 Am G F G 
 We're all walkin' off the world tonight




Chorus
 C F C G 
 Come on now everybody yeah come on now everyone
 C F C G 
 We're like a locomotive under the big hot sun
 C F C G 
 We're chained to the gang of rhythm, the song is never done
 C F C G 
 Come on now everybody yeah come on now everyone


Int    C F   | Dm G   | C F   | Dm G   ||
                            (come on everyone)


Bridge   
 C Am G 
 And when the night is done these chains will hold us strong
                       Dm Gsus G 
The chords will carry on long after we're gone     oh oh


Pre Chorus
 Am G F G 
 There's no worries on the earth tonight
 Am G F G 
 We're all walkin' off the world tonight


Chorus
 C G/B Am G 
 Come on now everybody yeah come on now everyone
 C G/B Am G 
 We're like a locomotive under the big hot sun

 C F C G 
 Come on now everybody yeah come on now everyone
 C F C G 
 We're like a locomotive under the big hot sun
 C F C G 
 We're chained to the gang of rhythm, the song is never done
 C F C G 
 Come on now everybody yeah come on now everyone


Int    C <sp

Corona – The Rhythm Of The Night chords

 This is an acoustic interpretation of the 90's dance track Rhythm Of The Night by Corona

CAPO 3!

Chorus:

N.C.                        F 
This is the rhythm of the night
      Am 
the night
     G 
oh yeah
                   D 
the rhythm of the night
                           F 
This is the rhythm of my life
     Am 
my life
     G 
oh yeah
                   D 
the rhythm of my life


Verse:

           G 
You could put some joy upon my face
                          F 
oh sunshine in an empty place
                                            Am 
take me to turn to and babe I'll make you stay
    G 
Oh I can ease you of your pain
                        F 
feel you give me love again
                                             Am 
round and round we go, each time I hear you say


Chorus:

This is the rhythm of the night
The night,
oh yeah
The rhythm of the night
This is the rhythm of my life
My life,
oh yeah
The rhythm of my life

Verse:

Won't you teach me how to love learn
there'll be nothing left for me to yearn
think of me burn and let me hold your hand
I don't wanna face the world in tears
please think again I'm on my knees
I don't wanna face the world in tears
Please think again I'm on my knees
Sing that song to me
No reason to repent
I know you wanna say it

Chorus:

This is the rhythm of the night
The night,
oh yeah
The rhythm of the night
This is the rhythm of my life
My life,
oh yeah

The rhythm of my life

Gator Blood Tabs by Mark Knopfler V2

 -------------------------------------------------------------------------------
                             Gator Blood - Mark Knopfler
-------------------------------------------------------------------------------
:Alex


I didn't include every little thing, but it should be easy to figure out with the parts 
I've put here.

Tuning:Open G - DBDBGD - Capo 3rd fret

First time
D|----3---5---------------------3---5----------------|
B|-/3---3-------3/1----------/3---3------------------|
G|-------------------3-0----------------3P0-------0--|
D|------------------------------------------3P0H3----|
G|---------------------------------------------------|
D|---------------------------------------------------|

Second time
D|----3---5---------------------3---5----------------|
B|-/3---3-------3/1----------/3---3------------------|
G|-------------------3-0----------------3P0----------|
D|------------------------------------------3P0-0----|
G|---------------------------------------------------|
D|---------------------------------------------------|
   Riff1        Riff2                   Riff 3

  Rhythm Parts
D|---------------------0-----------------------------------------------------|
B|----0--0--0----------0-----------------------------------------------------|
G|----0--3--0----------0-----------------------------------------------------|
D|----0--0--0----------------------------------------------------------------|
G|-0--------------------------------0-000000-3br0-0-0------------------------|
D|---------------------------------------------------------------------------|
   Pre-verse       During verse     "Swallowed all the
   Repeat it       Before fills      fishes in the frying pan"

      ^ ^ ^ v ^ v          C
D|----3-3-3-3-3-3------------------------------------------------------------|
B|-/3-3-3-3-3-3-3----------1-------------------------------------------------|
G|-------------------------0----------------------------3~~~~~~~~~~~---------|
D|-------------------------2-------------------------------------------------|
G|-------------------------3-------------------------------------------------|
D|---------------------------------------------------------------------------|
  "Blood...."          "Gator Blood"                  "I got gator blood"
                        Play is a couple of times      After this go into the pre-verse

Hammer on a skillet(Riff 1) up they come(Riff 2)
Showman whanging(Riff 1) on a ballyhoo drum(Riff 3)
Watch out(Riff 1), people I'm a greedy man(Riff 2)
Swallowed all the fishes in the frying pan
Blood, gator blood, I got gator blood

Chicken on a hotplate gobbledegook
Come on up, honey and take a look
Mighty fine weather this time of year
Shake a tail feather you chicken you hear
Blood, gator blood, I got gator blood
(Do intro part two here)

Chicken on a hotplate it's gonna dance
Gonna lose these chickens my first chance
Don't you know I'm a flim flam man
A chicken show it ain't worth a damn
Gator blood, I got gator blood

Solo(Played with a slide)
D|--13/15-15-15-15-15-15-15-X3-----------------------------------------------|
B|---------------------------------------------------------------------------|
G|--------------------------------THEN------------3BSLOW---------------------|
D|---------------------------------------------------------------------------|
G|---------------------------------------------------------------------------|
D|---------------------------------------------------------------------------|

I got a country boy, he's a bird who sings
Butter paddle, buck 'n wing
Kid's got a winner bonafide hit
I'm gonna have my dinner on a spit
Blood, gator blood, I got gator blood

Hoopla, humbug, howdy-do
Gonna make you into chicken stew
Alligator in the mud
Don't you know I got gator blood
Gator blood, I got gator blood
(Solo again)

Never lend a dollar to your good friend Tom