Tag: road

On This Road chords – Glen Campbell

 On This Road
Glen Travis Campbell
album,I knew Jesus Before He Was A Superstar


Intro  Bb D# 

Verse 1

 D# Gm 
On this road that I’m on 
         C# C Fm 
I don’t know where life will lead 
    E G# Bb 
so I’ll leave it and go and find my 
 D# Gm 
Place in the sun. 
 D# D#7 Fm Dm7 
I must run to where my cup waits for
            Bb 
me just to see.

Verse 2

         D# Gm 
On this road that I’m on 
        C# C Fm E     
I’m a loserrr never winning the race 
   G#m Bb D# 
I can’t leave this place and not knowing
     Gm D# D#7 
The taste of the things that life can 
 Fm Dm7 Bb 
hold both for you and for me. 

Verse 3

     D# Gm D# D#7 
All my life I’ve been a dreamer never 
 G# B D# 
knowing how to see  that a chance waits 
 Gm D# C# C Fm 
for me so I’ll go and find    my place in 
 Dm Bb D#   
this strange tapestry 
 Bb D# Gm D# D#7 
I must go where life will lead me 
          G# E B D# 
right or wrong I must you see    cause this way 
 Gm Fm Dm D# Bb D# 
everyday isn’t real     and don’t want to know why.

flyinglibra51
God Bless Glen Travis Campbell

She Never Could Resist A Winding Road chords – Richard Thompson

 D 
In the old cold embers of the year 
       G D 
When joy and comfort disappear 
    G G/F# 
I search around to find her 
       Em 
I'm a hundred miles behind her
      G A D A 
The open road whispered in her ear
     D 
She never could resist a winding road
     G D 
She never could resist a winding road
   G G/F#      
Maybe just around the bend
   Em 
The rainbow waiting at the end
      G A D A 
She never could resist a winding road
 D 
She never could stay any place too long
      G D 
To not be standing still's where she belongs
    G G/F# 
If you love her, better know
    Em 
She needs you now, but soon she'll go
     G A D         
She never could stay any place too long
        Bm G 
It's not that she don't care about you
        Bm G 
Say you love her, she don't doubt you
        Bm G 
But she can learn to live without you
     Em A 
When she hears the call

Lead break over verse
        Bm G 
Love her now then let her be
        Bm G 
Don't tie her down, just set her free
        Bm G 
Too many things she wants to see
       Em A              
The whole world, that's all
        G 
She never could resist a winding road
        D 
She never could resist a winding road
 G G/F# 
Maybe just around the bend
        Em 
The rainbow waiting at the end
      G A Bm 
She never could resist a winding road
     G A D       
She never could resist a winding road

Road Trip chords – Ninja Sex Party

 ROAD TRIP - Ninja Sex Party
Standard Tuning (EADGBe)

*If you don't like playing Bb chords, put a capo on the 3rd 
fret and transpose this tab DOWN 3 half-steps to play in G


 Bb                                 
   I met a girl a few weeks ago 
            ( Bb )
   She's so smart and beautiful
 C       
   When she's around I feel my heart beat 
                Eb F 
   Down in the very depths of my soul
               Bb 
   So c-c-c-c-c'mon Ninja Brian pack your bags
              ( Bb )
   We're going on a cross-country trip
                   C 
   'Cause if this girl and I go on one more date
                  Eb F 
   We'll start a meaningful relationship

  
   FUCK THAT! WOOOOO!!!


 Eb Bb 
   Let’s hit the road
      F Gm Eb Bb       
   I was so close to... personal growth 
           F Gm 
   So California here I come
 Eb Bb F Gm 
   I wanna bone across the nation 
 Ab Eb F 
   Let's bust a load of summer fun!


             Bb 
   I porked most of New York 
                ( Bb )
   I banged 'em silly in Philly
             ( Bb )
   I had ‘em screaming for Balti-more
                 C 
   I slapped my groin on Des Moines
                  ( C )
   And dropped my phallus in Dallas
               Eb F 
   We’re only halfway through Day Four


                        Bb 
   I g-g-g-g-gave some C to DC
           ( Bb )
   Bust coconuts on Miami
           ( Bb )
   I shot puree on Santa Fe
                C 
   I gave some penix to Phoenix
               ( C )
   And my nuts rattled Seattle
                 Eb F 
   So hard they felt it in L.A.


   TAKE THAT! YEAH!!!


 Eb Bb F Gm 
   Now here we are in California
 Eb Bb 
   These girls are hot
              F Gm 
   And Brian bought us a new yacht 
      ( Gm )
   He killed the previous owner
 Eb Bb F Gm 
   Let's raise the sail for a gonadventure
 Ab Eb F 
   This boner quest has just begun!


 Eb Bb 
   I left 'em smitten in Britain
                F Gm 
   And had sex so hard with Lima it landed in Argentina
 Eb Bb 
   Then things got beejy in Fiji
            F Gm 
   I had a four-way in Norway and started breedin' with Sweden 
 Eb Bb 
   New Zealand got a blast of my semen
               F Gm 
   I did some butt stuff with Russians until they got a concussion
    Bb Eb 
   I Banged-ladesh!
                F 
   Now there's only one way to keep things fresh, 'cause...


 Eb Bb 
   I've conquered Earth
          F Gm  
   It is time to move on!
 Eb Bb 
   Let's take a rocket
              F Gm 
   Find some hot alien sluts
       ( Gm ) 
   Set phasers to thrust
 Eb Bb 
   No time for spacesuits
         F Gm 
   I am way too horny!
 Ab Eb 
   Let's show this galaxy what's - HAUKKKKKKKKK

Somewhere Down The Road chords – Barry Manilow V2

 Somewhere Down the Road
Lyrics by Cynthia Weil
Melody by Tom Snow
Performed by Barry Manilow (1981)

   Am:x02210    
  Am7:x02010    
   A#:x13331
    C:x32010
  C/G:332010
Cadd2:x32030
Csus4:x33010
C#aug:x4322x
   Dm:xx0231
   Em:022000
E7/G#:420100    
    F:133211
   Fm:133111  
  F/A:x03211
    G:320003
   G#:466544


Intro:

 C F Em Dm C F Em Dm G 


Verse 1:

 C Em 
We had the right love
          F Em 
At the wrong time
 Dm C#aug 
Guess I always knew inside
 F G Csus4 C 
I wouldn't have you for a long  time
        F/A E7/G# 
Those dreams of yours
                  Em Am 
Are shining on distant shores
                  F/A Em 
And if they're calling you away
             F G 
I have no right to make you stay


Chorus

         Cadd2 C 
(But) somewhere down the road
      F Em 
Our roads are gonna cross again
      Am G 
It doesn't really matter when
       Cadd2 C 
But somewhere down the road
    F Em 
I know that heart of yours
       F G 
Will come to see
       F Em Dm G C 
That you be-long with me


Instrumental:

 F Em Dm G 


Verse 2:

 C Em 
Sometimes good-byes 
              F Em 
Are not for-ever
      Dm C#aug 
It doesn't matter if    you're gone
 F G Csus4 C 
I still be-lieve in us to – ge - ther
      F/A E7/G#     
I understand 
                Em Am 
More than you think I can
             F/A Em 
You have to go out on your own
             F G 
So you can find your way back home


Repeat Chorus  (And…)


Bridge:

 G# A# C Dm Am7 
Let-ting go is just another way to say
      Fm A# G C/G 
I'll al-ways love you so


Tag:

 C Em 
We had the right love
          F   
At the wrong time 
 Em Dm Em 
Maybe we've only just begun
            F G 
Maybe the best is yet to come


Repeat Chorus  (‘Cause…)


Coda:

 F Em Dm G C

On The Bright Side Of The Road chords – Van Morrison V2

 On the bright side of the road  -  Van Morrison

Intro:
 C Em F G C F C G C Em F G 
From the dark end of the street
 C Em F G 
To the bright side of the road
 C Em F   
We'll be lovers once again
        G C F C G 
On the bright side of the road

 C Em F G 
Little darling come with me
 C Em F G 
And help me share my load
 C Em F    
From the dark end of the street
        G C F C C7 
To the bright side of the road    

Chorus:
     F Fm 
And into this life we're born
       C C7 
Baby, sometimes, sometimes we don't know why
    F Fm 
And time seems to go by so fast
 D G G7 
In the twinkling of an eye

 C Em F G 
Let's enjoy it while we can
 C Em F G 
Help me share my load   
 C Em F    
From the dark end of the street
        G C F C C7 
To the bright side of the road

*solo*

Chorus
     F Fm 
And into this life we're born
       C C7 
Baby, sometimes, sometimes we don't know why
    F Fm 
And time seems to go by so fast
 D G G7 
In the twinkling of an eye

 C Em F G 
Let's enjoy it while we can
 C Em F G 
And help me sing my song
 C Em F   
Little darling come along
        G C F C C7 
To the bright side of the road

 C Em F G 
From the dark end of the street
 C Em F G 
To the bright side of the road
 C Em F  
Little darling come with 
        G C F C G 
On the bright side of the road

 C Em F G 
On the dark end of the street
 C Em F G 
To the bright side of the road
 C Em F   
We'll be lovers once again
        G C F C G 
On the bright side of the road

 C Em F   
We'll be lovers once again
        G C F C G 
On the bright side of the road

High Road Tabs – Mastodon

 -------------------------------------------------------------------------------
                             High road - Mastodon
-------------------------------------------------------------------------------
: myskimasa

Song structure at the bottom. I had trouble with [gtr2] in chorus and [gtr3] in
so-called solo. Please send corrections if you've got any!

Tuning: D standard, drop A

INTRO/VERSE
[gtr1+2]
d|------|-------------------------------------------------|
A|------|--------------------------------------------7-\--|
F|-10-\-|--4-------5-4---------7-4-------------------8-\--|
C|-10-\-|--4-------5-4---------7-4-------------------8-\--|
G|--8-\-|--2-------3-2---------5-2-------------------6-\--|
A|------|------0-0-----0-0-0-0-----0-0-0-0-0-0-0-000------|

d|--------------------------------------------|
A|--3-------4-3-------------------------------|
F|--4-------5-4---------------------2---10-\--|
C|--4-------5-4---------------------2---10-\--|
G|--2-------3-2---------------------0----8-\--|
A|------0-0-----0-0-0-3p0-1p0-0-1p0-----------|

CHORUS
[gtr1]
d|---------------------------------------------------|
A|---------------------------------------------------|
F|---------------------------------------------------|
C|---------------------------------------------------|
G|--7-7-7-7-7-7-7-7-6-6-4-411111111111111111010-9-9--|
A|--5-5-5-5-5-5-5-5-4-4-2-2-9-9-9-9-9-9-9-9-8-8-7-7--|

d|---------------------------------------------------|
A|---------------------------------------------------|
F|---------------------------------------------------|
C|---------------------------------------------------|
G|--7-7-7-7-7-7-7-7-6-6-4-4111111131313141414181818--|
A|--5-5-5-5-5-5-5-5-4-4-2-2-9-9-9111111121212161616--|

[gtr2]
d|---------------------------------------------------|
A|--------------------------9-9-9-9-9-9-9-911111212--|
F|--9-9-9-9-9-9-9-9-8-8-6-6-x-x-x-x-x-x-x-x-x-x-x-x--|
C|--x-x-x-x-x-x-x-x-x-x-x-x-6-6-6-6-6-6-6-6-8-8-9-9--|
G|--7-7-7-7-7-7-7-7-6-6-4-4--------------------------|
A|---------------------------------------------------|

d|---------------------------------------------------|
A|--------------------------9-9-9-9-9-9--------------|
F|--9-9-9-9-9-911111111-911-x-x-x-x-x-x-8-8-8111111--|
C|--x-x-x-x-x-x-x-x-x-x-x-x-6-6-6-6-6-6-x-x-x-x-x-x--|
G|--7-7-7-7-7-7-9-9-9-9-7-9-------------6-6-6-9-9-9--|
A|---------------------------------------------------|

INTERLUDE
[gtr1]
d|---------------------------------------------------|
A|---------------------------------------------------|
F|---------------------------------------------------|
C|---------------------------------------------------|
G|--7-7-7-7-7-7-7-7-7-7-7-7101010101010101010101010--|
A|--5-5-5-5-5-5-5-5-5-5-5-5-8-8-8-8-8-8-8-8-8-8-8-8--|

[gtr2]
d|------------------------7--------------------------|
A|----0-----------7---910----------------10--131012--|
F|--------7---9---------------0--10--12--------------|
C|--9---9---9---9---9------12--12--12--12--12--------|
G|---------------------------------------------------|
A|---------------------------------------------------|

"PRE-SOLO"
[gtr1]
d|------------------------------------------|
A|------------------------------------------|
F|--9---9---7-9-7---7---5-7-4---4---2-4---5-|
C|--9---9---7-9-7---7---5-7-4---4---2-4---5-|
G|--7---7---5-7-5---5---3-5-2---2---0-2---3-|
A|------------------------------------------|

d|------------------------------------------|
A|------------------------------------------|
F|--9---9---7-911--11---9-7-4-------2-5---7-|
C|--9---9---7-911--11---9-7-4-------2-5---7-|
G|--7---7---5-7-9---9---7-5-2-------0-3---5-|
A|------------------------------------------|

[gtr2]
d|-----------------------------------------|
A|----------810/12-10---810-7---7h8p7------|
F|--9---9-----------------------------9----|
C|--------------------------------------9--|
G|-----------------------------------------|
A|-----------------------------------------|

d|----------------10--141514-14h15p14-b1

Melody Road chords – Neil Diamond

 Intro   C F G F C F C C G C 
Melody road I'm on with you
 Dm G 
All the way to the end
 C G F 
I know every song you lead me to
    C F G 
Is gonna be my friend
 C G C 
Melody road I play all night
 Dm G 
Take my guitar and strum
 C G F     
Find me some words that feel just right
     C F G F C F C 
The music's gonna come from Melody Road
 C F 
Melody from the heart,
 D G 
Melody from the start,
 E F 
Telling things will be okay
   C Dm 
I think that I just might stay
    G7 C F C 
On Melody Road
 C G C 
Melody Road, let's go a mile
 Dm G 
I'll tie on my rambling shoes
 C G F 
Write me a song to make you smile
         C F G 
There's no need to sing the blues,
    F C F C 
On Melody Road
 C F 
Melodies that unfold,
 D G 
Melodies made of gold,
 E F             
Making up songs along the way
 C Dm 
I'm thinking I just might stay
    G7 C F C 
On Melody Road

SOLO is a verse 
 C G C Dm G C G F C F G F C F C C F 
Ringing out like a bell
 D G 
Singing out I can tell
 G G7 
I'm not alone
 C G C 
Melody Road it's you and me
 Dm G 
Floating out on a dream
 C G F 
I love every song that comes to me
        C F G 
'Cause I know it comes to be
    F C F C F C F C 
On Melody Road,          Melody Road
 F C F C F C F C 
Melody road,             Melody Road
 F C 
Melody Road!

A Long Road Home chords – Mickey Newbury

 A Long Road Home

 A C#m D A       
How I long to feel the salty wind 
 F#m C#m D E   
Off Galveston Bay in my face once again 
   F#m C#m D A   
A warm southern wind on my weather worn skin 
 F#m C#m Bm E   
Perhaps I would not feel so old 


Now I long to hold the golden sand 
In the hollow of my hand 
Stand for a while there and fill in the hole 
Left in the heart of a wounded old soul 

 A C#m D A       
Here’s to tomorrow, here,s to today 
 F#m C#m D E          
Here’s to whatever I never did say 
 F#m C# D Bm                   
Here’s to old friends who have gone seperate ways 
 A E A 
Here’s to the memories 

How I long to be in those East Texas woods 
I would be in those old piney woods if I could 
On a hot summer mornin' down Centerville Way 
With the windows rolled down in my old Chevrolet 

Just cruisin' the backroads with nothin' but time 
Three nickels short of having a dime 
Miles from the highway with no hill left to climb 
Me and the whisperin' pine 

Here’s to tomorrow, here,s to today 
Here’s to whatever I never did say 
Here’s to your love you are happy I pray 

Out on this long stretch of Interstate 10 
That ole Del Rio station just keeps rollin' right in 
Many the night it was my only friend 
Me and the radio 

The Silver Moon Cafe was once out this way 
Like Route 66 boys it too had its day 
And this rusty old sign here is all that remains 
My how the times have changed 

They tell me ole Bud Rose hocked his guitar 
Bought a ticket to Nashville to become a big star 
Now he works on a bottle and he lives in a car 
Do you still have your dreams 

You remember the old town here yesterday 
The walk from the Ryman to the Linebow Cafe 
We would stop in at Tootsies and Tubbs on the way 
And slowly head East down to First and Broadway 

Hey look at that ole river but how it just keeps rollin' 
If it was a clock I could stop I would try 
I would let it roll down on about '65 
Perhaps I would not feel so old 

Hoist all the sails Bud to hell with the breeze 
Prayed for a wind that will bend every tree 
And a storm that will bring every man to his knee 
Heres to the howlin' sea 

Here’s to tomorrow heres to today 
Here’s to whatever I never could say 
Here’s to the piper the bastards been paid 

Down on this long stretch of Interstate 10 
El Paso to Phoenix to L.A. and then it is north to northwest 
I just follow the wind 
And by midnight tonight I will be home in Springfield again

The Silk Road Truckers – Down By The River chords

 by Colton S. 
3/4 possible  6/8
VERSE 
 C Am 
Down by the river, I went a little bit crazy
 C Am 
Playing the banjo for you
 C Am 
Fell asleep in a boat and away I float
 C Am C Am 
But, I  don't mind because I took you in my mind  

CHORUS x2
 D A G 
Eyes so blue, arms open wide
 Bm A G  
You are my sweet sky

MUSIC BREAKDOWN 

VERSE
 C Am 
The village they voted, tied me up with ropes
 C Am 
Dumped me in a boat and away I float
 C Am C Am 
But, I don't mind because I took you in my mind

CHORUS x2
 D A G 
Eyes so blue, arms open wide
 Bm A G 
You are my sweet sky
 D A G 
So I'll float-on,
 Bm A G 
eyes open wide
 D A G 
You are my sweet sky

               Fin

One For The Road solo Tabs by Arctic Monkeys

 Based on live performances.

e|----------------------------------------------------|
B|-10b12----------------------------------------------|
G|-------9~--7h9b11-11-11b9p7-7/9--4/7/9/12-/14b16-9~-|
D|----------------------------------------------------|
A|----------------------------------------------------|
E|----------------------------------------------------|


e|----------------------------------------------|
B|----------------------------------------------|
G|-7h9b11-11-11b9p7-7/9--4/7/9-/12-/14-/16-/14~-|
D|----------------------------------------------|
A|----------------------------------------------|
E|----------------------------------------------|


e|------------------------------------------------------------|
B|-/15-12~--/17-15--------------------------------------------|
G|-----------------16-14-14~-------12-14-12h14p12----12h14p12-|
D|-----------------------------/14----------------14----------|
A|------------------------------------------------------------|
E|------------------------------------------------------------|

e|----------------------15b-12--5b-3-0-|
B|----------15/17-15/17----------------|
G|-12h14/16----------------------------|
D|-------------------------------------|
A|-------------------------------------|
E|-------------------------------------|

Gravel Road chords – William Elliott Whitmore V2

 Gravel Road by William Elliott Whitmore
 
 C Am F G C C Am 
It must be that time of year
      F G 
I'm feeling that pull again
       C Am 
I've got to get away from here
         F G                      
Oh get back to where my feet can stand
  C Am  
Back to where the trees grow tall
          F G           
Ain't a sound for miles around
    C Am  
Except for the distant call
           F G C 
Of that lonely coyote's howl

              F C 
Well life's mysteries unravel when my tires hit that gravel
         G C 
And I leave the paved road far behind
      C Am 
And every breath I breathe is one step closer to me
  F G C 
Easing my worried mind

 C Am 
Way back in the sticks
     F G 
is where I feel alive
          C Am 
where my rusty old '66
            F G C 
won't even go fifty five

 C Am 
Nothing can compare
         F G 
to the joy that I've found
 C Am 
every time I go back there
        F G C 
to my own spiritual ground

              F C 
Well life's mysteries unravel when my tires hit that gravel
         G C 
And I leave the paved road far behind
      C Am 
And every breath I breathe is one step closer to me
  F G C 
Easing my worried mind

              C Am 
I'll make a quart of sweet corn whiskey
           F G 
From ten gallons of sour mash
          C Am     
Turn a pile of firewood
         F G C 
Into a pile of sky grey ash

            C Am 
If there's anything left inside me
        F G 
That remembers what it's like to feel
       C Am 
That cold rain falling on the top of my head
         F G C 
And the mud beneath my heels

              F C 
Well life's mysteries unravel when my tires hit that gravel
         G C 
And I leave the paved road far behind
      C Am 
And every breath I breathe is one step closer to me
  F G C 
Easing my worried mind
      C Am 
And every breath I breathe is one step closer to me
  F G C 
Easing my worried mind  

Tigers On Trains – The Silk Road Tabs

 -------------------------------------------------------------------------------
                            THE SILK ROAD - TIGERS ON TRAINS
-------------------------------------------------------------------------------
: Greg (GTScoop)
 disipio2@tcnj.edu

Tuning: Standard

Rhythm Guitar
Verse
e|----2------------4------------2----------------------------------------------------|
B|----2------------6------------4-------(do this 10 times)---------------------------|
G|----3------------6------------4----------------------------------------------------|
D|----4------------6------------4----------------------------------------------------|
A|----4------------4------------2----------------------------------------------------|
E|----2 (x10)------X (x5)-------X (x5)-----------------------------------------------|

Chorus
e|----4------------2------------2---------2------2--------------------------------------|
B|----4------------4------------2---------2------2----(Do this Twice)-------------------|
G|----4------------4------------3---------4------3--------------------------------------|
D|----6------------4------------4---------4------4--------------------------------------|
A|----6------------2------------4---------4------4--------------------------------------|
E|----4 (x10)------X (x10)------2 (x10)---2 (x5)-2 (x5)---------------------------------|
(0:48)

Then play the verse chords 8 times and go back to the chorus

Bridge  (play the Verse chords 3 times (at 2:01) then do this)
e|----4------------6------------2---------4-------------------------------------------|
B|----4------------6------------4---------6-------------------------------------------|
G|----4------------6------------4---------6-------------------------------------------|
D|----6------------8------------4---------6-------------------------------------------|
A|----6------------8------------2---------4-------------------------------------------|
E|----4 (x6)-------6 (x6)-------X (x6)----X (x6)--------------------------------------|
     (2:15)

The repeat Verse chords 7 times and then end on the very first chord, and let it ring out.


Lead Guitar
e|------9----------------------------------------------------------------------|
B|---------9-------------------------------------------------------------------|
G|--11-------10-8-6---------6----------------------------3-4/6-----------------|
D|----------------------6/8------8----6---8--8--/4---4-6-----------------------|
A|-----------------------------------------------------------------------------|
E|-----------------------------------------------------------------------------|

e|----------6--------------------------------6-9-6-9-------6-9-7-6-----------|
B|------7------7---7-7/9--9-9--------------7------------7--------7-----------|
G|--6-------------------------8--8\6-----------------------------------------|
D|---------------------------------------------------------------------------|
A|---------------------------------------------------------------------------|
E|---------------------------------------------------------------------------|
      (0:25)                          (0:32)             (0:38)

e|-7-6-4------------------------------------------------------------------------|
B|--------7--4/7--7/9--9/11----11-11\7-7\2-2/4-----0--2--4---7------------------|
G|--------------------------------------------------------------6-------3-------|
D|----------------------------------------------------------------6--6----4-----|
A|------------------------------------------------------------------------------|
E|------------------------------------------------------------------------------|
      (0:42)

e|--------------------------------------------------------6-9-6-------------------|
B|------------------7---7/9\7--------------------7---7-9--------------------------|
G|-----------4--6-------6/8\6--6--4--3---------------------------

Dominion Road Tabs by The Mutton Birds V3

 Here is the whole song, including the solo, plus some specific chord voicings.

Chords used:
B:       7 9 9 8 7 7
A:       5 7 7 6 5 5
E:       0 2 2 1 0 0
C#m:     9 11 11 9 9 9
E(ii):   x 7 9 9 9 7
F#:      2 4 4 3 2 2
G#m:     4 6 6 4 4 4
F#m:     2 4 4 2 2 2
C#m(ii): x 4 6 6 5 4

Intro Chords and Riff:
    B        A      E    add a quick C#m just before repeating the intro
e|-------------------------------------------------------|
B|-------------------------------------------------------|
G|--8--8-9-8-------------------------------------------- |
D|-----------7-9-11-9-9-11-9---9-------------------------|
A|---------------------------11--------------------------|
E|-------------------------------------------------------|

Intro riff is played four times then:

B                E
Dominion Road is bending;
A         E     B
under it’s own weight,
B               E
Shining like a strip,
           A      E     B
cut from a sheet metal plate,
E                       Play Intro once
Cause its just been raining.

B                 E(ii)
Janie reached the point where she knew what he
A               E(ii)      B
meant before he opened his mouth,
B                    E(ii)
He couldnt say the same or hed have
A               E(ii)   B
guessed she was moving south, with
E(ii)       B
one of his friends.

                    F#                       E          B
But its getting better now, he found it in him to forgive,
              F#            E                B
He walked the city, and he found a place to live
             F#
In a halfway house,
        E             Play Intro twice
halfway down Dominion Road.


B                          E(ii)
He watched Janes brother sell the house he
A       E(ii)     B
felt no sense of loss,
B           E(ii)
More like a mountain-climber
        A          E(ii)     B
looking back having made it across
    E(ii)     B
the steepest face.

                  F#                E                 B
Oh but hes still climbing, see him trying to cross the street,
              F#                  E                B
He tests his footing, like he was up ten thousand feet
          F#              E              Play shortened intro
above the clouds, halfway down Dominion Road.

Shortened Intro:
    B         A     E
e|-----------------------------------------|
B|-----------------------------------------|
G|--8--8-9-8-------------------------------|
D|-----------7-9-11-9----------------------|
A|-----------------------------------------|
E|-----------------------------------------|

Woah-Oohhhhh_______

Solo with Chords
   G#m                             A
e|-12-12--14-12----12-12--14-12---12-12--14-12--12--------------|
B|------12-----12-------12-----12------12-----12----------------|
G|--------------------------------------------------------------|
D|--------------------------------------------------------------|
A|--------------------------------------------------------------|
E|--------------------------------------------------------------|

   F#m                               A
e|-12-12--14-12----12-12--14-12---12-12---14-12-----------------|
B|------12------12------12------12-----12------12---------------|
G|--------------------------------------------------------------|
D|--------------------------------------------------------------|
A|--------------------------------------------------------------|
E|--------------------------------------------------------------|

   G#m                             A
e|-12-12--14-12----12-12--14-12---12-12--14-12--12--------------|
B|------12-----12-------12-----12------12-----12----------------|
G|--------------------------------------------------------------|
D|--------------------------------------------------------------|
A|--------------------------------------------------------------|
E|-------------------------------------------------------

Far From Any Road chords – The Handsome Family

 The Handsome Family - "Far From Any Road" from their album "Singing bones" (2003)

Also the official theme song of HBO series "True Detective"



 Am E Dm Am 
From the dusty May sun her looming shadow grows

 Am E Dm Am 
Hidden in the branches of the poison creosote

 C 
She twines her spines up slowly
   G 
Towards the boiling sun
     Dm  
And when I touched her skin
    F 
My fingers ran with blood



 Am E Dm Am 
In the hushing dusk under a swollen silver moon
 Am E Dm Am 
I came walking with the wind to watch the cactus bloom

     C G 
And strange hands halted me, the looming shadows danced
   Dm F 
I fell down to the thorny brush and felt the trembling hands



 Am E 
When the last light warms the rocks
         Dm Am 
And the rattlesnakes unfold
 Am E Dm Am 
Mountain cats will come to drag away your bones

     C 
And rise with me forever
  G 
Across the silent sand
         Dm 
And the stars will be your eyes
         F 
And the wind will be my hands

Dirt Road Anthem chords – Jason Aldean V6

 Okay, so the verse is pretty difficult to rap while playing the guitar but this is how
it goes on the track and I've played the song with these chords and they are right.  The
placing of the chords through the verse was tough to  tab out but it's the same sequence 
over and over again throughout the verse, just play the D chord about twice as long as
the Bm and G.  Play it along with the song and you should be able to figure it out.  
 so sorry if it's hard to understand.

Chords used are:

 Bm : x-2-4-4-3-2-|
 D :  x-x-0-2-3-2-|
 G :  3-2-0-0-0-3-|


         Bm D 
Yeah, I'm chilling on a dirt road
             G D 
Laid back swerving like I'm George Jones
        Bm D 
Smoke rolling out the window
                     G D 
An ice cold beer sitting in the console


         Bm D 
Memory lane up in the headlights
                 G D 
Has got me reminiscing on them good times
         Bm D 
I'm turning off a real life drive and that's right
              G D 
I'm hitting easy street on mud tires


*palm mute the chords "Bm, G, and D" in that order over and over again the entire verse*

Back in the day Potts farm was the place to go

Load the truck up, hit the dirt road

Jump the barbed wire, spread the word

Light the bonfire then call the girls



King in the can and the Marlboro man

Jack 'n' Jim were a few good men

Where you learned how to kiss and cuss, and fight too

Better watch out for the boys in blue



And all this small town he said, she said

Ain't it funny how rumors spread

Like I know something y'all don't know

Man, that talk is getting old



You better mind your business man, watch your mouth

Before I have to knock that loud mouth out

I'm tired of talking, man, y'all ain't listening

Them ol' dirt roads is what y'all missing



         Bm D 
Yeah, I'm chilling on a dirt road
             G D 
Laid back swerving like I'm George Jones
        Bm D 
Smoke rolling out the window
                     G D 
An ice cold beer sitting in the console


         Bm D 
Memory lane up in the headlights
                 G D 
Has got me reminiscing on them good times
         Bm D 
I'm turning off a real life drive and that's right
              G D 
I'm hitting easy street on mud tires


*Again, same as previous verse: plam mute "Bm, G, and D" repeatedly*

I sit back and think about them good old days

The way we were raised in our southern ways

And we like cornbread and biscuits

And if it's broke 'round here, we fix it



I can take y'all where you need to go

Down to my hood, back in them woods

We do it different 'round here, that's right

But we sure do it good, and we do it all night



So if you really want to know how it feels

To get off the road with trucks and four wheels

Jump on in and, man, tell your friends

We'll raise some hell where the black top ends



         Bm D 
Yeah, I'm chilling on a dirt road
             G D 
Laid back swerving like I'm George Jones
        Bm D 
Smoke rolling out the window
                     G D 
An ice cold beer sitting in the console


         Bm D 
Memory lane up in the headlights
                 G D 
Has got me reminiscing on them good times
         Bm D 
I'm turning off

Far From Any Road True Detective Theme chords – The Handsome Family

 The Handsome Family- Far From Any Road


You may know this as the theme song from the excellent new HBO show "True Detective" 
starring Woody Harrelson and ol' Matt McConaughey.

---

Intro:  Am Am E 
From the dusty May sun
 Dm Am 
Her looming shadow grows
 Am E 
Hidden in the branches
 Dm Am 
of the poison creosote

          C 
She twines her spines up slowly
     G 
Towards the boiling sun
      Dm 
And when I touched her skin
       F Am 
My fingers ran with blood

  Am E 
In the hushing dusk
           Dm Am 
Under a swollen silver moon
     Am E 
I came walking with the wind
     Dm Am 
To watch the cactus bloom

        C 
And strange hands halted me,
        G 
The looming shadows danced
     Dm 
I fell down to the thorny brush
      F Am 
And felt the trembling hands

   Am E 
When the last light warms the rocks
           Dm Am 
And the rattlesnakes unfold
   Am E 
Mountain cats will come
     Dm Am 
to drag away your bones

       C 
And rise with me forever
    G 
Across the silent sand
          Dm 
And the stars will be your eyes
          F Am 
And the wind will be my hands

No Quisiera Volver chords – Road 79

 Intro: // Em - C - D - Em //

Verso:
 Em D C B 
No quisiera volver, no quisiera regresar
 Em D C B 
Dame fuerzas a seguir, no te quiero fallar 

Puente:
 G D Am B 
Cambia mi pensar, cambia mi mirar
 G D Am B 
Fuego nuevo pon en mi, vida nueva sopla aquí.

Intro: // Em - C - D - Em //

Verso

Puente

Coro:
           C D Em 
//En la cruz de Jesús encuentro paz 
         C D Em 
Me abraso de sus pies, quiero llorar
         C D Em 
Su mirada me hace ver su santidad
         C D Em 
No hay razones para dejarte de amar//
         C D Em 
//No hay razones para dejarte de amar//

Intro

Verso

Puente

Coro

Intro

Narrow Road chords – Praise And Worship

 Verse 1:
    D 
We walk on this narrow road
                 D 
Now restored as one we walk

In Your hope
     D 
And though
               
Darkness fills our path
                    D 
Fear won't fix its hold on us

For we know

Pre-chorus:
     G D 
And love will shine before us on our path
     G D 
And guide our every step within the dark



Verse 2:
        D 
And we bear tidings of Your hope
                  D 
Freedom from the sinner's plight

Through Your love
     D 
Our eyes set upon this task
                  D 
Truth in hand as one we walk

We advance



Pre-chorus 2:
     G D 
And love will shine before us on our path
     G D 
And guide our every step within the dark
    G 
To know You is our only cry
 G D 
Knowing You our only cry, our God



Chorus (x2):
    A Bm G D 
So Lord here we are with humbled hearts
    A G D 
To see Your will be done
     A Bm G D 
Let love shape us to Your own design
    A G D 
To bear our Maker's sign




Pre-chorus 2:
     G D 
And love will shine before us on our path
     G D 
And guide our every step within the dark
    G 
To know You is our only cry
 G                         
Knowing You our only cry
 G                         
Knowing You our only cry


Chorus (x2)

One Road More chords – The Flatlanders

 Ok, my first post didn't go through, so I'm trying it again. I cleaned it up a bit, but 
please, someone with more skill, do a better job than me!





 G C G 
Well my old shoes are layin' on the floor cause I ain't a gonna wear 'em no more
 G C D 
They took me many miles down many hard roads but that's what shoes are for
 G C G 
The time has flown and I've outgrown every shoe I ever wore                              
                           D G 
and I guess my barefeet'll have to carry me one road more

          D C G 
Lord I ain't got a liquor since I got a crazy mind
              D C G 
Cause I don't wanna leave and I don't wanna stay behind
                                                                                   C .     
                  G 
Well at the end of this one last road they say there's always an open door
                                                   D G 
And I guess my barefeet'll have carry me one road more

                                                                      C G 
Well I never could move my feet too fast in a pair of rich man's shoes
                                    C D 
and there ain't a shoe alive that can last as long as a poor mans blues
              G C G 
Well I've toed the line this one last time now I got something else in store
                                                   D G 
And I guess my barefeet'll have carry me one road more

          D C G 
Lord I ain't got a liquor since I got a crazy mind
              D C G 
Cause I don't wanna leave and I don't wanna stay behind
                                                                                   C .     
                  G 
Well at the end of this one last road they say there's always an open door
                                                   D G 
And I guess my barefeet'll have carry me one road more

 G .                                                                             C G 
Well I've walked the city streets in the sun and the rain and the wind and the snow
                                                                            C D 
And I've walked through the mountains and the valleys when there was nowhere else to go
 G C G 
This time I'll just follow the wind and It can blow and the rain can pour
                                                         D G 
and my barefeet are gonna have to carry me one road more

          D C G 
Lord I ain't got a liquor since I got a crazy mind
              D C G 
Cause I don't wanna leave and I don't wanna stay behind
                                                                                   C .     
                  G 
Well at the end of this one last road they say there's always an open door
                                                   D G 
And I guess my barefeet'll have carry me one road more

             C D G 
Yeah my barefeet are gonna have to carry me one road more

Dominion Road chords – The Mutton Birds

 Dominion Road - Don McGlashan
~~~~~~~~~~~~~
Credits to original tabber Simon Black


 B :   x24442      Bb :   x13331
 A :   x02220      G# :   466544
 E :   022100      C#m :  x46654
 F# :  244322

intro:  chords:         B A E A E       repeat with  C#m  instead of  B  

        main riff:  B--4-4-4h5-4---0-0h2-0-0-0h2-0---0--    h = hammer-on
                    G------------2-----------------1----

   B E 
Dominion Road is bending 
 A E B 
Under its own weight
                E 
Shining like a strip 
            A E B 
Cut from a sheet metal plate
             E          intro
'Cause it's just been raining

Jane had reached the point where she knew
What he meant before he opened his mouth
He couldn't say the same,
Or he'd have guessed she was moving south
                 B 
With one of his friends

                  F# 
But it's getting better now
             E B 
He found it in him to forgive
               F# 
He walked the city
        E B 
And he found a place to live
               Bb 
In a half-way house
          E 
Half-way down
              intro x2
Dominion Road

When he watched Jane's brother sell the house
He felt no sense of loss
More like a mountain climber looking back,
Having made it across
The steepest face

And he's still climbing
See him try to cross the street
He tests his footing
Like he was up 10,000 feet
Above the clouds
Halfway down
               B A E 
Dominion Road

    G# A G# F# A    x2  then   E B 
Oh oh oh,  oh oh    oh

But it's getting better now
He rests his head on the window sill
He watches the city
He can see the antennas in the hills
>From the half-way house
Half-way down
               B 
Dominion Road
          F# 
Half-way down
          C#m 
Half-way down
          A 
Half-way down
   E B        repeat 'half-way down' part but stay on E,
Dominion Road         then play the intro to the end.