Tag: rock

Rock Skipper chords – Preacher Boy

 No Capo

Intro       G6 Am C G6   x2

Verse 1

 G6 
I've seen the dawn
     Am 
And I've seen the dusk
 C 
I've seen the rose
     G6 
And I've seen the rust
 G6 Am 
All of my life I've never had much
       C G6 
But a smooth stone in my pocket

Chorus

   Dsus2 
A bruse is a bruse
       Am 
And a break is a break
       C G6 
To an old rock skipper from the great lakes
 Dsus2 Am 
It ain't for me to worry why I never got the breaks
             C Dsus2 G6 Am C G6 
I'm just an old rock skipper from the great lakes

Verse 2

 G6 
I've crossed the sea
     Am 
And I've crossed the sand
 C 
I crossed the devil
     G6 
And I crossed his hand
        G6 Am 
With a funeral bell and a wedding band
       C G6 
And a smooth stone in my pocket

Chorus

   Dsus2 
A bruse is a bruse
       Am 
And a break is a break
       C G6 
To an old rock skipper from the great lakes
 Dsus2 Am 
It ain't for me to worry why I never got the breaks
             C Dsus2 G6 Am C G6 G6 Am C G6 
I'm just an old rock skipper from the great lakes

Verse 3

 G6 
I've seen the hands
       Am 
Of the ticking time
 C 
Chipping peices
 G6 
From my spine
 G6 Am 
I heard a hush and I hid behind
   C G6 
A smooth stone in my pocket

Chorus

   Dsus2 
A bruse is a bruse
       Am 
And a break is a break
       C G6 
To an old rock skipper from the great lakes
 Dsus2 Am 
It ain't for me to worry why I never got the breaks
             C Dsus2 G6 Am C G6 
I'm just an old rock skipper from the great lakes

Verse 4

 G6 
I've seen the rake
     Am 
And I've seen it sweep
 C 
Away the tears
      G6 
That I tried to weep
 G6 Am 
Through it all I tried to keep
   C G6 
A smooth stone in my pocket

Chorus

   Dsus2 
A bruse is a bruse
       Am 
And a break is a break
       C G6 
To an old rock skipper from the great lakes
 Dsus2 Am 
It ain't for me to worry why I never got the breaks
             C Dsus2 G6 Am C G6 
I'm just an old rock skipper from the great lakes

Make Rock Not War Tabs – Blue Öyster Cult

 Tom: Ebm  
Nota: Podes tocar os acordes indicados como power chords apenas, com distorção.

Intro:

E|---------------------------------------------|
B|---------------------------------------------|
G|---------------------------------------------|
D|-------6------------6------------8--6-6------|
A|-6-8-9----9---6-8-9----9---6-8-9---------9-9-|
E|---------------------------------------------|

E|---------------------------------------------|
B|---------------------------------------------|
G|---------------------------------------------|
D|-------6------------6------------8--6-6------|
A|-6-8-9----9---6-8-9----9---6-8-9---------9-9-|
E|---------------------------------------------|

Ebm                       B
Moments of pleasure, in a world of pain.
Ebm                       B 
Working together, only to fight again.
      Abm                           Bbm                         B
If we wait for the world leaders to decide, who will die first?
         F#   B  Db
So don't wait no more!
              Ebm  Db  Ebm  B           Db
Tell me, make rock not war! What are we dying for?
Ebm  Db  Ebm  B      Db
Rock not war! Nobody wins!
Ebm  Db  Ebm  F#/F        F#          B
Rock not war! What are we trying for?
                                    B
And the fools rush in, don't they,
                        F# F#/F
For the grand beginning of the end!

Passagem:

E|---------------------------------------------|
B|---------------------------------------------|
G|---------------------------------------------|
D|-------6------------6------------8--6-6------|
A|-6-8-9----9---6-8-9----9---6-8-9---------9-9-|
E|---------------------------------------------|

Ebm                             B
Pulses are racing. You know the blade may fall.
Ebm                            B
Destinies tracing. I sing to a great star-fall.
        Abm                                     Bbm                B
And you know there's a real answer, but they've already been told.
                F#   B     Db
We've heard our lies being cold!

              Ebm  Db  Ebm  B           Db
Tell me, make rock not war! What are we dying for?
Ebm  Db  Ebm  B      Db
Rock not war! Nobody wins!
Ebm  Db  Ebm  F#/F        F#          B
Rock not war! What are we trying for?
                                   B
And the fools rush in, don't they,
                        F# F#/F                                 
For the grand beginning of the end!

Passagem:

E|---------------------------------------------|
B|---------------------------------------------|
G|--------------------------------------8------|
D|-------6------------6------------8-----------|
A|-6-8-9----9---6-8-9----9---6-8-9----9--------|
E|---------------------------------------------|

    (F# Abm)x2     (F# Abm)x2  (F# Abm)x2     B   Bbm
The hourglass turns over, and time is running low.
(F# Abm)x2         (F# Abm)x2
Will the sandman's pollen 
      (F# Abm)x2
bring sleep before we know?


SOLO: Não vou botar aqui, mas se não conseguirem tirar de ouvido improvisem ;)  *escala de Ebm

          Abm                                   Bbm                       B
Yeah, you know there's a real answer, and we've died more than been told.
         F#   B  Db
So don't wait no more!
              Ebm  Db  Ebm  B           Db
Tell me, make rock not war! What are we dying for?
Ebm  Db  Ebm  B      Db
Rock not war! Nobody wins!
Ebm  Db  Ebm  F#/F        F#          B
Rock not war! What are we trying for?
                                 B
And the fools rush in, don't we,
                        F# F#/F
For the grand beginning of the end!

E|---------------------------------------------|
B|---------------------------------------------|
G|---------------------------------------------|
D|-------6------------6------------8--6-6------|
A|-6-8-9----9---6-8-9----9---6-8-9---------9-9-|
E|---------------------------------------------|

Make rock not war!

E|---------------------------------------------|
B|-------------------------------

Old Time Rock N Roll chords – Bob Seger And The Silver Bullet Band

 Old Time Rock N Roll - Bob Seger And The Silver Bullet Band (1977)
Written By: George Jackson and Thomas Earl Jones, III.
Chorded By: Skidaddy, Esq., G.Q.

4/4 TIME @ 124 BPM (3 Min. 20 Sec.) in 'F'.

Chords Used:
-----------
             GUITAR             KEYBOARD
         E A C F B   e     Bass|  Chord
       ------------------    ---------------
F5   -  x  8 10 10  x  x      F    F-C-F
Eb5  -  x  6  8  8  x  x      Eb   Eb-Bb-Eb
D5   -  x  5  7  7  x  x      D    D-A-D
C5   -  x  3  5  5  x  x      C    C-G-C
NC   -  NO CHORD
F    -  1  3  3  2  1  1      F    F-A-C
Bb   -  x  1  3  3  3  1      Bb   F-Bb-D
C    -  x  3  2  0  1  0      C    G-C-E

INTRO: [4 M]
-----

 1 2 3+   4  + …
| F5 Eb5 D5 C5 |NC      | F5 Eb5 D5 C5 |NC                            |
                                         Just take those old… re-cords

VERSE #1: [8 M]
--------

| F                  |…                           | Bb              |
 off… the shelf…     I'll sit and lis-ten to 'em by… my-self…

| Bb                       | C                     |…                      |
  To-day's… mu-sic ain't… got the same… soul…    I like that old… time…

| F                  |…                         |
 rock and… roll…     Don't try to take me to a

VERSE #2: [8 M]
--------

| F             |…                          | Bb                   |
 dis-… co…      You'll nev-er e-ven get me out on the floor…

| Bb                        | C                     |…                         |
  In ten… min-utes I'll be late for the door…     Start play-in' old… time…

| F                  | C                           |
 rock and… roll…     Still like that old… time…

CHORUS #1: [8 M]
---------

| F                  |…                        | Bb                    |
 rock and… roll…     The kind of mu-sic just… soothes… the soul…

| Bb                        | C                |…                     |
  I rem-i-nisce a-bout the days… of old…     with that old…  time…

| F                  |…       |
 rock and… roll…

GUITAR SOLO: [8 M] Play 'VERSE #2' Chord Pattern -
-----------

| F        |…       | Bb       |…       | C        |…       |


| F        | C                            |
           Won't go to hear 'em play a

VERSE #3: [8 M]
--------

| F              |…                              | Bb                  |
 tan-… go,…      I'd rath-er hear some blues or funk-y old… soul…

| Bb                             | C                 |…                         |
  There's on-ly one sure way to get me to go,…     start play-in' old… time…

| F                  |…                         |
 rock and… roll…     Call me a re-lic, call me

VERSE #4: [8 M]
--------

| F                  |…                               | Bb                 |
 what… you will…     Say I'm old-fash-ioned, say I'm o-ver the hill…

| Bb                       | C                     |…                      |
  To-day's… mu-sic ain't… got the same… soul…    I like that old… time…

| F                  | C                           |
 rock and… roll…     Still like that old… time…

CHORUS #2: [8 M]
---------

| F                  |…                        | Bb                    |
 rock and… roll…     The kind of mu-sic just… soothes… the soul…

| Bb                        | C                |…                     |
  I rem-i-nisce a-bout the days…

Forever And A Day chords – Michael Learns To Rock

 FOREVER AND A DAY
By :  Michael Learns To Rock
Album : Nothing To Lose

 
 A  ,  A/G#  ,  A/F#  ,  A/E  ,  D  ,  E  ,  A A A/G# 
When the night has come
          A/F# A/E 
and the day is done
 D A Esus E 
I'm always thinking of you 
     
        A A/G# 
You are in the air
          A/F# A/E 
you are everywhere
 B E 
in everything I do

     
 E/D F#m B E     
If I could keep this moment in time
 E/D F#m B E     
if I could make you forever mine 
 E/D F#m/C# F#m/C      
baby I'm lost in your love
       Bm 
from  heaven above
 D E F#m 
you came to bring me up
     
      Bm E F#m    -  B       
With you I feel that I could stay
     Bm E A 
in love forever and a day
       

(  A  ,  A/G#  ,  A/F#  ,  A/E  ,  D  ,  E  ,  A  )    

         A A/G# 
When I walk alone
           A/F# A/E 
through an empty home 
 D A Esus E 
I can't stop thinking of you 
         A A/G# 
Do you feel the pain 
          A/F# A/E 
could it be the same
 B E 
are you missing me too 

 E/D F#m B E  
I see your face when I close my eyes
 E/D F#m B E  
I see a glimpse of our own paradise 
 E/D F#m/C# F#m/C   
you came from heaven above 
      Bm 
I'm lost in your love 
      G 
free as the wind
  E E/F#  -  E/G# A 
you give me   wings   to   fly 


Solo


       Bm E F#m    -  B       
With you I feel that I could stay
     Bm E A 
in love forever and a day    
            A/G# A/F# 
(I could stay with you)
       A/E 
(Forevermore)
       
    Bm E F#m    -  B  
My girl I feel that I could stay 
     Bm E A 
in love forever and a day


Please rate if you like my tabs!

Rock Me Baby Tabs – Bb King V3

 ROCK ME BABY

As recorded by B.B. King
(From the 1964 Album ROCK ME BABY)

Words and Music by B.B. King & Joe Bihari

 Slowhand


Gtr I (E A D G B E) - 'B.B. King - Electric Guitar'


 Intro
  Q=90(8=s8)
  N.C.
 4/4
  Gtr I (Clean El. Gtr.)
                     ~~~~~~~              ~~~~~~~              ~~~~~~~
  W          E  E E  E  +Q   Q    E  E E  E  +Q   Q    E  E E  E  +Q   e E
|----------|------8-------------|------8-------------|------8----------8----|
|----------|--------11-(11)-----|--------11-(11)-----|--------11-(11)-------|
|----------|--------------------|--------------------|----------------------|
|----------|--------------------|--------------------|----------------------|
|----------|---10---------------|---10---------------|---10-----------------|
|----------|--------------------|--------------------|----------------------|


           ~~~~~~~               ~~~~~~~
  E  E  E  E  +Q   Q    E  E  E  E  +Q   Q
|------13-------------|------13-------------|
|---------16-(16)-----|---------16-(16)-----|
|---------------------|---------------------|
|---------------------|---------------------|
|---15----------------|---15----------------|
|---------------------|---------------------|


          ~~~~~~~               ~~~~~~~
  E  E E  E  +Q   e E   E  E E  E  +Q   e E
|------8----------8---|------8----------8---|
|--------11-(11)------|--------11-(11)------|
|---------------------|---------------------|
|---------------------|---------------------|
|---10----------------|---10----------------|
|---------------------|---------------------|


           ~~~~~~~               ~~~~~~~
  E  E  E  E  +Q   Q    E  E  E  E  +Q   Q
|------15-------------|------13-------------|
|---------18-(18)-----|---------16-(16)-----|
|---------------------|---------------------|
|---------------------|---------------------|
|---17----------------|---15----------------|
|---------------------|---------------------|


          ~~~~~~~              ~~~~~~~
  E  E E  E  +Q   Q    E  E E  E  +Q   Q
|------8-------------|------8-------------||
|--------11-(11)-----|--------11-(11)-----||
|--------------------|--------------------||
|--------------------|--------------------||
|---10---------------|---10---------------||
|--------------------|--------------------||


   1st - 3rd Verses
    $
    N.C.
            ~~~~~~~               ~~~~~~~
    E  E E  E  +Q   e E   E  E E  E  +Q   e E
||-------8----------8---|------8----------8---|
||o--------11-(11)------|--------11-(11)------|
||----------------------|---------------------|
||----------------------|---------------------|
||o---10----------------|---10----------------|
||----------------------|---------------------|


          ~~~~~~~               ~~~~~~~
  E  E E  E  +Q   e E   E  E E  E  +Q   e E
|------8----------8---|------8----------8----|
|--------11-(11)------|--------11-(11)-------|
|---------------------|----------------------|
|---------------------|----------------------|
|---10----------------|---10-----------------|
|---------------------|----------------------|


           ~~~~~~~               ~~~~~~~
  E  E  E  E  +Q   Q    E  E  E  E  +Q   Q
|------13-------------|------13-------------|
|---------16-(16)-----|---------16-(16)-----|
|---------------------|---------------------|
|---------------------|---------------------|
|---15----------------|---15----------------|
|---------------------|---------------------|


          ~~~~~~~               ~~~~~~~
  E  E E  E  +Q   e E   E  E E  E  +Q   e E
|------8----------8---|------8----------8---|
|--------11-(11)------|--------11-(11)------|
|---------------------|---------------------|
|---------------------|---------------------|
|---10----------------|---10----------------|
|---------------------|---------------------|


           ~~~~~~~               ~~~~~~~
  E  E  E  E  +Q   Q    E  E  E  E  +Q   Q
|------15-------------|------13-------------|
|---------18-(18)-----|---------16-(16)-----|
|-

Rock The Blues Away chords – Ac Dc

 SONG:   ROCK THE BLUES AWAY
ARTIST: AC/DC
TAB BY: DON CZARSKI
EMAIL:  GUITARZAN7@HOTMAIL.COM

NOTE: I like to keep this chord tab easy to read and play
      for beginners so I did not make the chords C5, G5,
      F5 and left them as C, G, F and Bb. If you wish 
      to use those and or power chords then please do so.
      I use them to play this song and mix them in.

                    ROCK THE BLUES AWAY
                           AC/DC

NOTE: This is what the  C C* C MEANS
      Extend your pinky finger to reach 
      out to the 7th fret.

     C    C*   C 
E -------------  
B -------------
G --5---5---5--
D --5---7---5--
A --3---3---3--
E -------------



INTRO:  

 C  C*  C G F C  C*  C G F C  C*  C G F C  C*  C G F C C  C*  C G F C  C*  C G F C 


VERSE:
  C F 
Drivin' in my car
  C G F C 
I'm headed for the local bar
  C F 
Pickin' up my girl tonight
 C G F C 
 Everything is gonna be alright


VERSE:
   C F 
Shootin' pool with my friends
 C G F C 
 Smokin' up cigarettes
  C F C 
Tellin' jokes out loud
                 G F C 
We're laughing way too proud


PRE-CHORUS:
         G C 
And we rock it (rock it)
         G C 
And we roll it (and we roll it)
            G C 
And we're laughing (laughing)
            G C 
And we're joking (and we're joking)
         F 
And we roll it
  Bb F 
Baby we rock it and roll it,

We won't get the blues because we


CHORUS:
  C     C*    C    C*  C G F   
Rock the blues a-way (a-way)
 C    C*    C    C*    C G F             
Up all night and day (and day)
   C     C*    C    C*  C G F   
Drink the night a-way (a-way)
   C G F C 
'Til the light of daaaay


VERSE:
  C F 
And when I'm on the way back home
 C G F C 
  I listen to the ra-di-o
 C F C 
I hear some great rock sounds
                      G F C 
That make you wanna sing out loud


PRE-CHORUS:
         G C 
And we rock it (rock it)
         G C 
And we roll it (and we roll it)
            G C 
And we're laughing (laughing)
            G C 
And we're joking (and we're joking)
         F 
And we roll it
  Bb F 
Baby we rock it and roll it,

We won't get the blues because we


CHORUS:
  C     C*    C    C*  C G F   
Rock the blues a-way (a-way)
 C    C*    C    C*    C G F             
Up all night and day (and day)
   C     C*    C    C*  C G F   
Drink the night a-way (a-way)
   C G F C 
'Til the light of daaaay


INSTRUMENTAL:  SOLO
 <sp

Sgt Rock Is Going To Help Me Tabs – Xtc

 -------------------------------------------------------------------------------------------
                             SGT. ROCK (IS GOING TO HELP ME) - XTC 
                       (tab for the guitar part on the 2nd and 3rd chorus)
-------------------------------------------------------------------------------------------
: Jordan Yeates
 jordanyeates@hotmail.co.uk

Tuning: standard E

e|-----------------------------------------------------------------------------------------|
B|-13-15-17-15-13-------18-------13-15-16-15-16----13-15-16-15-16--------------------------|
G|----------------16-15--------------------------------------------------------------------|
D|----------------------------------------------------------------------X2-----------------|
A|-(sgt-rock-is-~-to help-me!)-(make-~-girl-mine)-(keep-her~in-line)---(X4 on last chorus)-|
E|-----------------------------------------------------------------------------------------|

e|-----------------------------------------------------------------------------------------|
B|--13-15-16-15-16----13-15-16-15-16-18-16-------------------------------------------------|
G|-----------------------------------------------------------------------------------------|
D|-----------------------------------------------------------------------------------------|
A|-(make~girl-mine)--(WAVE-THE-VICTORY-SIGN!)----------------------------------------------|
E|-----------------------------------------------------------------------------------------|

************************************

Rock N Roll Nerd chords – Tim Minchin V4

 I didn't really like the other versions so I decided to do my own. The lyrics are those off his Heritage 
Orchestra recording. CAPO ON 5TH FRET.

 Em 
Doesn't have a problem with drugs,
                 Am 
He just doesn't get them,
      D          
He's fine that his mates have tattoos,
                            Em 
But he thinks they'll regret them,

 Em 
He likes going to pubs,
                                 Am 
But he hates it when the music's too loud,
     D 
He tends not to go to rock concerts,
                           Em 
'Cause he can't stand the crowd

     Am D 
But all he's ever wanted to be
      G Em   
Is a rock star on MTV,
        Am D 
But he knows that it's not fucking likely,
                  B 
He's in his mid thirties 

He knows that..

                Em 
He will always be
               D 
A rock'n'roll nerd,
                      G G/B 
He'll keep writing songs the world will never hear,
             Em G            
And though they won't be heard,
             Am Bm 
He'll just keep writing. Oh yeah,

         A Dm 
But you see the problem is,
           G7 C 
He always dreamt of being a star,
              F7 Bb                        
But he learnt piano instead of guitar,
                 A Dm 
Which in the nineties didn't get you very far,
                   G7 C                   
So while the other kids were learning Stairway,
               F7 Bb             
He was the piano to their forte,
        
                  A         
But he was convinced one day
                        Bb                    
He'd rock their fucking asses,
            A Bb 
And be an icon for the disenfranchised masses,
                   A Bb 
Grow his hair long and rebel against the state,
           Bb C 
But just for now that'd have to wait,
                      A D         
'Cause he's running late, for his morning classes.

                 Em 
And he will always be
                 D 
A rock'n'roll nerd,
                                 G G/B 
He'll keep playing gigs that no-one knows about,
         Em G 
And though it sounds absurd
                 Am Bm 
He'll just keep playing, oh yeah,

           A Dm 
But you see the problem is,
           G7 C 
There's not much depth in what he's singing,
                         F7 Bb                                
He's a victim of his happy middle class upbringing,
              A                        
So he can't write about the hood, or bling bling,

 Dm G7 C                  
So he sits and imagines his girlfriend is dead,
         F7 Bb                                       
To try to evoke some angst in his middle class head,
                         A                 
But the bitch is always fine at half past nine when they 
         Dm 
Go to bed,

                         G7 C 
And he's not spent a single night in prison,
          F7 Bb          
He has no issues with nutrition,
                             A Bb 
He has no drinking problem and no drug addiction.
                       A Bb

Heartache Acoustic chords by One Ok Rock

 -------------------------------------------------------------------------------
                             ONE OK ROCK - "HEARTACHE" (Acoustic)
-------------------------------------------------------------------------------

Tuning: standard EADGBE
Reference : https://www.youtube.com/watch?v=x9v8aNl6Aps [Studio Jam Session]
READ THIS CHORD BEFORE YOU PLAY!!!!!!!!!!!
Chord that we use: 
000232  D 
002230  Am 
022030  Em 
320033  G 
200033  D/F# 

INTRO 
 D  ~

VERSE
 D 
So they say that time
 Am 
Takes away the pain
                   Em G 
But I’m still the same ~ ohh ~
 D 
And they say that I 
      Am 
Will find another you
               Em G 
That can’t be true ~ ohh ~

PRE CHORUS
 Em G 
Why didn’t I realize? Why did I tell lies?
      D Am 
Yeah I wish that I could do it again ~ ohh
 Em 
Turnin’ back the time
 G 
back when you were mine 
 Am 
all mine

CHORUS
 D G 
So this is heartache? So this is heartache?
 Em Am 
Hiroi atsumeta kōkai wa namida e to kawari oh baby
 D G 
So this is heartache? So this is heartache?
 Em Am 
Ano hi no kimi no eiga wa omoide ni kawaru I miss you

INTERLUDE
 D G D G 

VERSE
 D Am Em G 
Boku no kokoro o yuiitsu mitashite satte yuku kimi ga 
 D Am Em G 
Boku no kokoro ni yuiitsu fure rareru koto ga dekita kimi wa ~ Oh baby

PRE CHORUS
 Em G 
Mō inai yo mō nani mo nai yo
        D Am 
Yeah I wish that I could do it again
 Em 
Turnin’ back the time
 G 
back when you were mine 
 Am 
all mine

CHORUS
 D G 
So this is heartache? So this is heartache?
 Em Am 
Hiroi atsumeta kōkai wa namida e to kawari oh baby
 D G 
So this is heartache? So this is heartache?
 Em Am 
Ano hi no kimi no eiga wa omoide ni kawaru I miss you

BRIDGE  
 G D Am Em 
It’s so hard to forget Kataku musunda sono musubime wa
 G D Am Em 
It’s so hard to forget Tsuyoku hikeba hiku hodo ni
 G D Am Em     
You and all the regret Hodokenaku natte hanare renaku natta
 G D 
Ima wa tsurai yo sore ga tsurai yo 
 G Am 
sugu wasuretai yo kimi o

CHORUS
 D G 
So this is heartache? So this is heartache?
 Em Am 
Hiroi atsumeta kōkai wa namida e to kawari oh baby
 D G 
So this is heartache? So this is heartache?
 Em Am D 
Ano hi no kimi no eiga wa omoide ni kawaru I miss you

END
 G     
I miss you
 D     
I miss you
 G F#  -  Em  -  D  ~~~
I miss youu~~



The Credit goes to MaximilianTay (http://profile.ultimate-guitar.com/MaximilianTay/) for the lyric.

Rock Bottom chords – Kenny Chesney

 
ROCK BOTTOM

 G F C G F C G 
SHE WAS GONE

LONG GONE THIS MORNING
     C 
SHE LEFT A NOTE
          G 
SAID I’M OUT OF HERE
                   C 
ADIOS MY DEAR AND THAT WAS ALL SHE WROTE

         G 
I TRIED HANK BUT THE HANK WASN’T TOUGH ENOUGH
          C          
COULDN’T TWANG THE PAIN WITH THE FLATTS AND SCRUFFS
        F 
HAD TO KEEP ON DRINKING
                 C 
KEEP ON SINKING DOWN, DOWN, DOWN, DOWN

DOWN TO THE GOOD STUFF

                G     
TIL I HIT ROCK BOTTOM
 F C 
AND I CRANKED IT UP
            G F 
I HIT THAT WATER BACK WITH A MARSHALL STACK
       C 
AND A KICK, KICK, KICK DRUM KICKING MY BUTT

 G F 
GOT A CALI CHICK CHECKING OUT THIS HICK
 C 
SPINNING THAT BACK IN BLACK
            G Dm 
I HIT ROCK BOTTOM
                        G F C 
STARTED BOUNCING BACK  OOOH OOOH  OOOH OOOH
                        G F C 
STARTED BOUNCING BACK  OOOH OOOH  OOOH OOOH

       G F 
SHE’S FLYING HIGH TONIGHT
 C 
JUST CROSS TOWN
      G 
THIS OLD HILLBILLY PLAYING STARDUST WILLIE
        C 
WASN’T EVEN GETTING OFF THE GROUND

           G 
TRIED THE HANK BUT THE HANK I HAD TO STOP
     C G 
GOT SAD WHEN THE JAY CASH NEEDLE DROPPED
          F 
COULDN’T WALK THE LINE
                        C 
SO I JUST KEPT SHINING DOWN, DOWN, DOWN, DOWN

DOWN THAT JUKEBOX

                G     
TIL I HIT ROCK BOTTOM
 F C 
AND I CRANKED IT UP
            G F 
I HIT THAT WATER BACK WITH A MARSHALL STACK
       C 
AND A KICK, KICK, KICK DRUM KICKING MY BUTT

 G F 
GOT A CALI CHICK CHECKING OUT THIS HICK
 C 
SPINNING THAT BACK IN BLACK
            G Dm 
I HIT ROCK BOTTOM
                        G F C          
STARTED BOUNCING BACK  OOOH OOOH  OOOH OOOH 
 G F C          
OOOH OOOH  OOOH OOOH  
                      
                G     
TIL I HIT ROCK BOTTOM
 F C 
AND I CRANKED IT UP
            G F 
I HIT THAT WATER BACK WITH A MARSHALL STACK
       C 
AND A KICK, KICK, KICK DRUM KICKING MY BUTT

 G F 
GOT A CALI CHICK CHECKING OUT THIS HICK
 C 
SPINNING THAT BACK IN BLACK
            G Dm 
I HIT ROCK BOTTOM 
                        G F C 
STARTED BOUNCING BACK  OOOH OOOH  OOOH OOOH
                        G F C 
STARTED BOUNCING BACK  OOOH OOOH  OOOH OOOH

 G F C G F C G

Punk Rock 101 chords – Bowling For Soup V2

 : Fabio BlenderBR

 - Give your rating and help others users to find the best versions of the songs -



Intro: 
 A Em B      (2x)
 Em F#m A A  (2x)


Verse 1:
 Em F#m A 
She works at Hot Topic his heart microscopic
 Em F#m A 
She thinks that it's love but to him it's sex
 Em F#m A 
He listens to emo but Fat Mike's his hero
 Em F#m A 
His bank account's zero what comes next
 A 
Same song different chorus


Chorus:
 Em F#m A 
It's stupid, contagious to be broke and famous
     Em F#m A                 
Can someone please save us from punk rock 101
    Em F#m A 
My dickies, your sweat pants, my spiked hair, your new vans
       Em F#m A 
Let's throw up our rock hands for punk rock 101


Verse 2:
 Em F#m A 
She bought him a skateboard a rail slide, his knee tore
 Em F#m A 
He traded it for drums at the local pawn shop
 Em F#m A 
She left him for staring at girls and not caring
 Em F#m A 
When she cried 'cause she thought Bon Jovi broke up
 A 
Same song second chorus


Chorus:
 Em F#m A 
It's stupid, contagious to be broke and famous
     Em F#m A                 
Can someone please save us from punk rock 101
    Em F#m A 
My dickies, your sweat pants my spiked hair, your new vans
       Em F#m A 
Let's throw up our rock hands for punk rock 101
 E 
Don't forget the delay, on the very last word


Bridge:
 C#m B 
Seven years later, he works as a waiter
     A Em 
She married a trucker and he's never there
     F#m G# 
The story never changes just the names and faces
      A B  
Like Tommy and Gina they’re living on a prayer  

Did you just say that?


Chorus:
         Em F#m A 
I said, it's stupid, contagious to be broke and famous
     Em F#m A                 
Can someone please save us from punk rock 101
    Em F#m A 
My dickies, your sweat pants, my spiked hair, your new vans
       Em F#m A 
Let's throw up our rock hands for punk rock 101

         Em F#m A 
I said, it's stupid, contagious to be broke and famous
     Em F#m A                 
Can someone please save us from punk rock 101
    Em F#m A 
My dickies, your sweat pants, my spiked hair, your new vans
       Em F#m A 
Let's throw up our rock hands for punk rock 101

         Em F#m A 
I said, it's stupid, contagious to be broke and famous
     Em F#m A                 
Can someone please save us from punk rock 101
    Em F#m A 
My dickies, your rock hands, my spiked hair, your new vans
       Em F#m A 
Let's shoplift some sweatbands From Punk Rock 101


Final:
 A Em B     (2x)

Jingle Bell Rock Tabs – Brenda Lee

 JINGLE BELL ROCK

As recorded by Brenda Lee
(From the 1964 Album MERRY CHRISTMAS FROM BRENDA LEE)


Words and Music by Joe Beal & Jim Boothe
 Slowhand


Gtr I (E A D G B E) - 'Hank Garland - Electric Guitar'


 Intro
  Q=126(8=s8)
  N.C.                                               F#m           N.C.
 4/4
  Gtr I
   E  E  Q   E  E  Q     E  E  E  E  E     E  E  E    W          E E Q  Q  Q
|-14-14-14--14-14-14--|-14-17----------------------|-----------|--------------||
|-15-15-15--14-14-14--|-15----15-17-------17-15----|-14--------|--------------||
|---------------------|-------14-16-15b16-16-14----|-14--------|--------------||
|---------------------|-------------------------17-|-16--------|--------------||
|---------------------|----------------------------|-----------|--------------||
|---------------------|----------------------------|-----------|---5-3--2--0--||


 1st Verse
  D       Dmaj7     D6      F#m       D6      D#°       Em      A7
  E E E E E E E E   E E E E E E E E   E E E E E E E E   E E E E E E E E
|-2-2-2-2-2-2-2-2-|-2-2-2-2-----2-2-|-2-2-2-2-2-2-2-2-|-0-0-0-0-0-0-0-0--|
|-3-3-3-3-2-2-2-2-|-0-0-0-0-----2-2-|-0-0-0-0-0-0-0-0-|-0-0-0-0-2-2-2-2--|
|-2-2-2-2-2-2-2-2-|-2-2-2-2-----2-2-|-2-2-2-2-2-2-2-2-|-0-0-0-0-0-0-0-0--|
|-0-0-0-0-0-0-0-0-|-0-0-0-0-2S4-----|-0-0-0-0-1-1-1-1-|-2-2-2-2-2-2-2-2--|
|-----------------|-----------------|-----------------|-2-2-2-2-0-0-0-0--|
|-----------------|-----------------|-----------------|-0-0-0-0----------|


  Em      A7        Em      A7        Em                A7
  E E E E E E E E   E E E E E E E E   E E E E E E E E   E E E E E E E E
|-0-0-0-0-0-0-0-0-|-0-0-0-0-0-0-0-0-|-0-0-0-0-0-0-0-0-|-0-0-0-0-0-0-0-0--||
|-0-0-0-0-2-2-2-2-|-0-0-0-0-2-2-2-2-|-0-0-0-0-0-0-0-0-|-2-2-2-2-2-2-2-2--||
|-0-0-0-0-0-0-0-0-|-0-0-0-0-0-0-0-0-|-0-0-0-0-0-0-0-0-|-0-0-0-0-0-0-0-0--||
|-2-2-2-2-2-2-2-2-|-2-2-2-2-2-2-2-2-|-2-2-2-2-2-2-2-2-|-2-2-2-2-2-2-2-2--||
|-2-2-2-2-0-0-0-0-|-2-2-2-2-0-0-0-0-|-2-2-2-2-2-2-2-2-|-0-0-0-0-0-0-0-0--||
|-0-0-0-0---------|-0-0-0-0---------|-0-0-0-0-0-0-0-0-|------------------||


 2nd Verse
  D       Dmaj7     D6      F#m       D6      D#°       Em      A7
  E E E E E E E E   E E E E E E E E   E E E E E E E E   E E E E E E E E
|-2-2-2-2-2-2-2-2-|-2-2-2-2-----2-2-|-2-2-2-2-2-2-2-2-|-0-0-0-0-0-0-0-0--|
|-3-3-3-3-2-2-2-2-|-0-0-0-0-----2-2-|-0-0-0-0-0-0-0-0-|-0-0-0-0-2-2-2-2--|
|-2-2-2-2-2-2-2-2-|-2-2-2-2-----2-2-|-2-2-2-2-2-2-2-2-|-0-0-0-0-0-0-0-0--|
|-0-0-0-0-0-0-0-0-|-0-0-0-0-2S4-----|-0-0-0-0-1-1-1-1-|-2-2-2-2-2-2-2-2--|
|-----------------|-----------------|-----------------|-2-2-2-2-0-0-0-0--|
|-----------------|-----------------|-----------------|-0-0-0-0----------|


  Em      A7        Em      A7        Em      A7        D
  E E E E E E E E   E E E E E E E E   E E E E E E E E   E E E Q  E Q
|-0-0-0-0-0-0-0-0-|-0-0-0-0-0-0-0-0-|-0-0-0-0-0-0-0-0-|-2-2-2-2--2-2---||
|-0-0-0-0-2-2-2-2-|-0-0-0-0-2-2-2-2-|-0-0-0-0-2-2-2-2-|-3-3-3-3--3-3---||
|-0-0-0-0-0-0-0-0-|-0-0-0-0-0-0-0-0-|-0-0-0-0-0-0-0-0-|-2-2-2-2--2-2---||
|-2-2-2-2-2-2-2-2-|-2-2-2-2-2-2-2-2-|-2-2-2-2-2-2-2-2-|-0-0-0-0--0-0---||
|-2-2-2-2-0-0-0-0-|-2-2-2-2-0-0-0-0-|-2-2-2-2-0-0-0-0-|----------------||
|-0-0-0-0---------|-0-0-0-0---------|-0-0-0-0---------|----------------||


 Bridge
  G               G#°             D
  E E E Q  E Q    E E E Q  E Q    E E E Q  E Q    E E E Q  E Q
|-3-3-3-3--3-3--|---------------|-2-2-2-2--2-2--|-2-2-2-2--2-2---|
|-3-3-3-3--3-3--|-3-3-3-3--3-3--|-3-3-3-3--3-3--|-3-3-3-3--3-3---|
|-0-0-0-0--0-0--|-4-4-4-4--4-4--|-2-2-2-2--2-2--|-2-2-2-2--2-2---|
|-0-0-0-0--0-0--|-0-0-0-0--0-0--|-0-0-0-0--0-0--|-0-0-0-0--0-0---|
|---------------|---------------|---------------|----------------|
|-3-3-3-3--3-3--|-4-4-4-4--4-4--|---------------|----------------|


  E               E7              A              N.C.
  E E E Q  E Q    E E E Q  E Q    Q  Q  H      E E Q  Q  Q
|-0-0-0-0--0-0--|-0-0-0-0--0-0--|------------|---------------||
|-0-0-0-0--0-0--|-0-0-0-0--0-0--|-2--------

Rock Around With Ollie Vee Tabs – Buddy Holly V2

 ROCK AROUND WITH OLLIE VEE

As recorded by Buddy Holly
(From the 1958 Album THAT'LL BE THE DAY )


Words and Music by Sonny Curtis
 Slowhand


Gtr I (E A D G B E) - 'Sonny Curtis - Electric Guitar'


 Intro 1
  Q=197(8=s8)
                           A7
 4/4
  Gtr I
   E  E  E  E  E  E  E E    E      E  E  E  E  E  Q
|--9--9--9--9--9--9--9---|-12-----12-12-12-12-12-----|
|-10-10-10-10-10-10-10---|-13b14==13-13-13-13-13r----|
|------------------------|---------------------------|
|------------------------|---------------------------|
|------------------------|---------------------------|
|------------------------|---------------------------|


  D7                        D#°
   E  E  E  E  E  E  E  E    E  E  E  E  E  E  E E
|-------------------------|------------------------||
|-10-10-10-10-10-10-10-10-|-10-10-10-10-10-10-10---||
|--7--7--7--7--7--7--7--7-|--8--8--8--8--8--8--8---||
|-------------------------|------------------------||
|-------------------------|------------------------||
|-------------------------|------------------------||


 Intro 2
  A                E7                  A      D         A
  Q  Q  +E  E Q    E Q   E +E  Q   E   Q  E E E Q   E   E E E E +E  E Q
|----5--(5)------|-------------------|----5-----------|-5-----------------||
|-----------5----|---5---------5-----|----------7-----|-------5-(5)-5-----||
|----6--------6--|-7-----7-(7)-------|----6-------7---|-----6---------6---||
|-7------7-------|-----6---------6---|-7------7-------|-7--------7--------||
|----------------|-7--------7--------|----------------|-------------------||
|----------------|-------------------|----------------|-------------------||
  Q  Q   Q    Q    Q   Q    Q    Q     Q  Q   Q   Q     Q   Q    Q    Q


   Chorus
    A                A7
    Q  Q  +E  E Q    E Q   E +E  E E +E
||-----5--(5)------|---5-----------------|
||o-----------5----|-------5-(5)-8p5-(5)-|
||-----6--------6--|-----6---------6-----|
||--7------7-------|-7--------7----------|
||o----------------|---------------------|
||-----------------|---------------------|
    Q  Q   Q    Q    Q   Q    Q    Q


  D7               B7
  E Q   E E E Q    E  Q   E  Q    E   E
|---5-----5---5--|-7------7-------7-----|
|-------7---7----|---10-----10-------10-|
|-----5-------5--|------8------8-(8)----|
|-7-------7------|-9---------9----------|
|----------------|----------------------|
|----------------|----------------------|
  Q   Q   Q   Q    Q    Q    E E +Q


  A                E7                  A      D         A
  Q  Q  +E  E Q    E Q   E +E  Q   E   Q  E E E Q   E   E E E E +E  E Q
|----5--(5)------|-------------------|----5-----------|-5-----------------||
|-----------5----|---5---------5-----|----------7-----|-------5-(5)-5-----||
|----6--------6--|-7-----7-(7)-------|----6-------7---|-----6---------6---||
|-7------7-------|-----6---------6---|-7------7-------|-7--------7--------||
|----------------|-7--------7--------|----------------|-------------------||
|----------------|-------------------|----------------|-------------------||
  Q  Q   Q    Q    Q   Q    Q    Q     Q  Q   Q   Q     Q   Q    Q    Q


 1st & 3rd Verses
  A                A7
  Q  Q  +E  E Q    E Q   E +E  E E +E
|----5--(5)------|---5-----------------|
|-----------5----|-------5-(5)-8p5-(5)-|
|----6--------6--|-----6---------6-----|
|-7------7-------|-7--------7----------|
|----------------|---------------------|
|----------------|---------------------|
  Q  Q   Q    Q    Q   Q    Q    Q


  D7               B7
  E Q   E E E Q    E  Q   E  Q    E   E
|---5-----5---5--|-7------7-------7------|
|-------7---7----|---10-----10-------10--|
|-----5-------5--|------8------8-(8)-----|
|-7-------7------|-9---------9-----------|
|----------------|-----------------------|
|----------------|-----------------------|
  Q   Q   Q   Q    Q    Q    E E +Q


  A                B     E       A      D         A
  Q  Q  +E  E Q    Q  Q  Q  Q    Q  E E E Q   E   E E E E +E  E Q
|----5--(5)------|

The Rock Wont Move chords Vtical Church Band V2

 4/4  Capo 4

INTRO:

1 2 3 4 |1 2 3 4 | 1 2 3 4 |1 2 3 4 |1 2 3 4 |1 2 3 4 |1 2 3 4|
 Em D/F# G Am Em C D 


Verse 1

/     Em     /    /    /    /     D/F#    /     G     
    When the ground beneath my feet gives way
    /    /    /    /    /    /   Am    /    Em  
    And I hear the sound of crashing waves
    /    /    /    /  /  /   C    /    D 
    All my world is washing out to sea
/    Em     /    /    /    /     D/F#    /     G     
    I'm hidden safe in the God who never moves
    /    /    /    /    /    /   Am    /    Em  
    Holding fast to the promise of the truth
    /    /    /    /    /    /      C    /    D 
    That You are holding tighter still to me

CHORUS
        C     /   /    /   /   /   /   /    /
The Rock won't move and his word is strong
        C    /    /    /    /    /   /    Em    /    D    /    /    /
The Rock won't move and his love can't be undone
        C     /   /    /   /   /   /   /    /
The Rock won't move and his word is strong
        C    /    /    /    /    /   /    Em    /    D    /    /    /
The Rock won't move and his love can't be undone
        Am    /   /   /    C               
The Rock of our Salvation

VERSE 2

/    Em     /    /    /    /     D/F#    /     G     
    My hope is in the promise of Your blood
    /    /    /    /    /    /   Am    /    Em  
    My support within the raging flood
    /    /    /    /  /  /   C    /    D 
    Even in the tempest, I can sing
/    Em     /    /    /    /     D/F#    /     G 
    I'm hidden safe in the God who never moves 
    /    /    /    /    /    /   Am    /    Em  
    Holding fast to the promise of Your truth  
    /    /    /    /    /    /      C    /    D 
    That You are holding tighter still to me

INTERLUDE
 Am  /  /  /  Em  / / / /   G   /  /  /   D  
Wo -  -  - oh,         Wo -  -  -  oh
 Am  / / /  Em  / / /     C    /     D   /   Am  
Wo - - - oh,     the Rock of our salvation

BRIDGE
      G         /        /        /
  On Christ the Solid Rock I stand
       C        /        /        /   
  All other ground is sinking sand
       G/B   /   /    /       C    /    /    /  
  The Rock won't move, the Rock won't move
        G       /        /        /   
  When darkness seems to hide His face
     C        /       /        /
  I rest in His unchanging grace
       G/B   /   /   /        C    /    /    / 
  The Rock won't move, the Rock won't move
      G/D       /        /        /  
  On Christ the Solid Rock I stand
       Am        /      /       / 
  All other ground is sinking sand
       Em     /     C     /     G/D     /    D    /
  The Rock won't move, the Rock won't move
        G     /     /    /     /     /   /   / 
  When darkness seems to hide His face 
     Am        /        /       /    
  I rest in His unchanging grace
       Em     /     C    /      G/D     /    D  
  The Rock won't move, the Rock won't move

CHORUS (2X) OUTRO
 Am  /  /  /  Em  / / / /   G   /  /  /   D  
Wo -  -  - oh,    

Rock Or Bust Tabs – Ac Dc

 -------------------------------------------------------------------------------
                             Rock Or Bust - AC/DC
-------------------------------------------------------------------------------
: Sam R
 


I can't guarantee that this is correct, I simply listened to the song and tried to make a sound from my 
guitar which was similar lol. I am sure that someone who actually knows what they are doing will release
a full tab of the entire song in the near future!!


Tuning: 1/4 Step Down. 

This is the whole song as played by Stevie Young (Rhythm guitar). I'm not good enough to recognise lead 
guitar parts by ear. I've tried to make it as simple as possible to follow.

Apologies for any mistakes with any lyrics I have put in. I have just added them to give an idea as to 
which part is played where. 


Enjoy!


Intro  (Angus starts off, then Stevie joins the for 2nd time)
e|---------------------------------------------------------------------------|
B|-----------------------3-3-3-----------------------------------------------|
G|-----4-4-4-4-----------2-2-2---2-2-2---1-1-1-------------------------------| Main Riff 
D|-----4-4-4-4-----------0-0-0---2-2-2---2-2-2-------------------------------|                         
A|-----2-2-2-2-------------------0-0-0---2-2-2-------------------------------|
E|---------------------------------------0-0-0-------------------------------|

e|---------------------------------------------------------------------------|
B|-----------------------3-3-3-----------------------------------------------| 
G|-----4-4-4-4-----------2-2-2---2-2-2---1-1-1-------------------------------| 
D|-----4-4-4-4-----------0-0-0---2-2-2---2-2-2-------------------------------|         
A|-----2-2-2-2-------------------0-0-0---2-2-2-------------------------------|
E|---------------------------------------0-0-0-------------------------------|

Verse
e|---------------------------------------------------------------------------|
B|---------------------------------------------------------------------------|
G|-----------4---------------------------------------------------------------|  
D|-----------4---------------------------------------------------------------| x4                       
A|-----------2-------------------0--2----------------------------------------|
E|---------------------------------------------------------------------------|

              "hey yeah!"
e|---------------------------------------------------------------------------|
B|-----------------------3-3-3-----------------------------------------------|
G|-----4-4-4-4-----------2-2-2---2-2-2---1-1-1-------------------------------| 
D|-----4-4-4-4-----------0-0-0---2-2-2---2-2-2-------------------------------|         
A|-----2-2-2-2-------------------0-0-0---2-2-2-------------------------------|
E|---------------------------------------0-0-0-------------------------------|

                "are ya ready?"
e|---------------------------------------------------------------------------|
B|-----------------------3-3-3-----------------------------------------------|
G|-----4-4-4-4-----------2-2-2---2-2-2---1-1-1-------------------------------| 
D|-----4-4-4-4-----------0-0-0---2-2-2---2-2-2-------------------------------|         
A|-----2-2-2-2-------------------0-0-0---2-2-2-------------------------------|
E|---------------------------------------0-0-0-------------------------------|

e|---------------------------------------------------------------------------|
B|-----------------------3-3-3-----------------------------------------------|
G|-----4-4-4-4-----------2-2-2---2-2-2---1-1-1-------------------------------| 
D|-----4-4-4-4-----------0-0-0---2-2-2---2-2-2-------------------------------|         
A|-----2-2-2-2-------------------0-0-0---2-2-2-------------------------------|
E|---------------------------------------0-0-0-------------------------------|

e|---------------------------------------------------------

The Remains Of Rock Roll solo Tabs by Broken Bells

 --------------Broken Bells, "The Remains of Rock & Roll"---------------------

   This is for the orchestrate instrumental at 0:25 in "The Remains of Rock & Roll". 
It's not originally played on guitar but it's pretty nifty to play, I played it a few times 
by ear and it sounds pretty spot on.

e|------------------------------------------------------------------|
B|-10-8-10-8----------------------10-8-10-8-------------------------|
G|------------7/9--9p8p7--9p8p7--------------7/9--9p8p7--9-7-5------|
D|--------------------------------------------------------------7---|
A|------------------------------------------------------------------|
E|------------------------------------------------------------------|

Lyrics:
It's too long to wait around for everyone to decide
I'm off to the promised land if anyone needs a ride
It's a small car but we'll fit inside if we leave our bags behind
We'll entertain ourselves just watching the world go by

Is something wrong
You don't look like you're having fun
The road is long
Got to let go of the things you've done

We prefer good love to gold
And the remains of rock and roll
When the moment's right
In the middle of the night
We can almost see the way to go

So long to everyone, 'cause they don't know who we are
Tell them you're sorry, but you'll have to break their hearts
Sister you're old enough to take the wheel and drive
Your hands, your heart, your eyes, have made me realize

I hear your call
All of my senses are trend on
We're on a roll
Suddenly Earth is far below

We prefer good love to gold
And the remains of rock and roll
When the moment's right
In the middle of the night
We can almost see the way to go

Can't you see me floating
Forward, backwards
Won't you lend a hand and help me out
Hear me on your doorstep
Knocking, knocking
Won't you open up and help me out

Celui-l chords – Rock Voisine

 Capo 2 (Original sans capo)

 G : [320003]     C  : [032010]   D  : [000232]
 Am7  : [002010] ou  Am  : [002210]


 G Am7 
Dans une plaine un village ou une ville
                                         C 
A la campagne à la montagne ou dans les îles
                         G 
Un cri s'élève dan la nuit
 G Am7 
Pour un enfant pour qui le temps est à l'orage
                                         C 
Pour qui la vie est une amie un peu sauvage
                                 G 
Pour qui demain c'est aujourd'hui

 G Am7 
Tous ces sourires qui vont mourir bien avant l'âge
                                             C    
C'est l'avenir comme un navire qui fait naufrage
                            G 
Dans son pays très loin d'ici
 G Am7 
Pour tout ce temps perdu prêtons main-forte
                                            C 
Pour cet enfant et pour l'amour que tu lui portes
                           G 
Cette chanson portera son cri

Refrain
 G Am7 
Na___,   na, na, na, na___
            C 
Na,na, na, na
               D 
Na, na, na, na___
 G Am7 
Na___,  na, na, na,
                 C 
Na,     na, na, na___
                 D 
Na, na, na, na___

        
 G Am7 
Nous on savoure le bleu du jour chaque seconde
                                             C 
Pour qu'il en soit de même à l'autre bout du monde
                         G 
Faudra revoir nos théories

 G Am7 
Ou que tu sois ne reste pas là immobile
                                         C 
Si tu y crois chante avec moi c'est si facile
                         G 
Ta chanson portera ton cri


 G Am7 
Na___,   na, na, na, na___
            C 
Na,na, na, na
               D 
Na, na, na, na___
 G Am7 
Na___,  na, na, na,
                 C 
Na,     na, na, na___
                 D 
Na, na, na, na___


(STOP) ==>  (Faire sonner les accords pour le dernier couplet)

 G Am7 
Si on voulait tendre la main à tous nos frères
                                         C 
Si ce refrain faisait demain un tour de terre
                         G 
Celui-là chanterait aussi


(Refrain) ==> Reprise progressive du rythme et de la rythmique

Rock The Casbah chords – The Clash

 Rock the Casbah by the Clash

D|--0--3--5--|
A|-----------|
E|-----------|

 Dm7 Am7 G7 Em7 F Em7 C Am7 Em7 
Now, the king told the boogie men,
             G7 Dm7 
you have to let that raga drop.
     Am7 Em7 
The oil down the desert way
          G7 Dm7 
has been shaken to the top.
     A7 Em7 
The sheik he drove his cadillac
           G7 Dm7 
he went a cruisin down the ville.
     Am7 Em7 
The Muezzin was a standing
        F 
On the radiator grille.

chorus:

    Dm7 Am7 G7 
Shareef don't like it.
 Em7 F Em7 C 
Rock the Casbah. Rock the Casbah.
   Dm7 Am7 G7 
Shareef don't like it.
 Em7 F Em7 C 
Rock the Casbah. Rock the Casbah.

By order of the prophet
We ban that boogie sound.
Degenerate the faithful
With that crazy Casbah sound.
But the Bedouin, they brought out the electric camel drum.
The local guitar picker got his guitar picking thumb.
As soon as the Shareef had cleared the square,
They began to wail.

chorus

     Am7 
Now over at the temple
Oh, they really pack em in.
The in crowd say it's cool
To dig this chanting thing.
            F 
But as the wind changed direction 
                               G7 
and the temple band took five
      Am7 
The crowd got a whiff
Of that crazy casbah jive.

chorus

The king called up his jet fighters,
He said, you better earn your pay.
Drop your bombs down between the minarets
Down the casbah way.
As sson as the Shareef was chauffered out of there,
The jet pilote tuned to the cockpit radio blare.
As soon as the Shareef was outta their hair
The jet pilots wailed.

chours x 2

He thinks it’s not kosher
Fundamentally he can’t take it.
You know he really hates it.

Dead Rock And Roll Stars chords – Wally Pleasant

 D Dsus2 A G 
   _____________________
    2     0     0     3
    3     3     2     3
    2     2     2     0
    0     0     2     0
    X     X     0     2
    X     X     X     3

Intro / Verse
E-2--2-0-0-2-0-0-2-2-2--2--2--2-2--2-2--2-2-2-2--3--3-3--3-3--3-3-3-3-3-|
B-3--3-3-3-3-3-3-3-3-3--2--2--2-2--2-2--2-2-2-2--3--3-3--3-3--3-3-3-3-3-|
G-2--2-2-2-2-2-2-2-2-2--2--2--2-2--2-2--2-2-2-2--0--0-0--0-0--0-0-0-0-0-|
D-0--0-0-0-0-0-0-0-0-0--0--0--0-0--0-0--0-0-0-0--0--0-0--0-0--0-0-0-0-0-|
A------------------------------------------------2--2-2--2-2--2-2-2-2-2-|
E------------------------------------------------3--3-3--3-3--3-3-3-3-3-|

E-2--2-0-0-2-0-0-2-2-2-|
B-3--3-3-3-3-3-3-3-3-3-|
G-2--2-2-2-2-2-2-2-2-2-|
D-0--0-0-0-0-0-0-0-0-0-|
A----------------------|
E----------------------|

They said when you die you'll never grow old ...
E-2--2-0-0-2-0-0-2-2-2--3--3-3--3-3--3-3-3-3-3--2--2-0-0-2-0-0-2-2-2-|
B-3--3-3-3-3-3-3-3-3-3--3--3-3--3-3--3-3-3-3-3--3--3-3-3-3-3-3-3-3-3-|
G-2--2-2-2-2-2-2-2-2-2--0--0-0--0-0--0-0-0-0-0--2--2-2-2-2-2-2-2-2-2-|
D-0--0-0-0-0-0-0-0-0-0--0--0-0--0-0--0-0-0-0-0--0--0-0-0-0-0-0-0-0-0-|
A-----------------------2--2-2--2-2--2-2-2-2-2-----------------------|
E-----------------------3--3-3--3-3--3-3-3-3-3-----------------------|

E-2--2--2-2--2-2--2-2-2-2--2--2-0-0-2-0-0-2-2-2--3--3-3--3-3--3-3-3-3-3-|
B-2--2--2-2--2-2--2-2-2-2--3--3-3-3-3-3-3-3-3-3--3--3-3--3-3--3-3-3-3-3-|
G-2--2--2-2--2-2--2-2-2-2--2--2-2-2-2-2-2-2-2-2--0--0-0--0-0--0-0-0-0-0-|
D-0--0--0-0--0-0--0-0-0-0--0--0-0-0-0-0-0-0-0-0--0--0-0--0-0--0-0-0-0-0-|
A------------------------------------------------2--2-2--2-2--2-2-2-2-2-|
E------------------------------------------------3--3-3--3-3--3-3-3-3-3-|

E-2--2-0-0-2-0-0-2-2-2--2-2-2-2-2-2-2-2-3-3-3-3-3-3-3-3-|
B-3--3-3-3-3-3-3-3-3-3--3-3-3-3-3-3-3-3-3-3-3-3-3-3-3-3-|
G-2--2-2-2-2-2-2-2-2-2--2-2-2-2-2-2-2-2-0-0-0-0-0-0-0-0-|
D-0--0-0-0-0-0-0-0-0-0--0-0-0-0-0-0-0-0-0-0-0-0-0-0-0-0-|
A---------------------------------------2-2-2-2-2-2-2-2-|
E---------------------------------------3-3-3-3-3-3-3-3-|





  D A G 
Last night I dreamed that all the dead rock n roll stars that I can think of
                      D 
were knockin at my door

   D A G D 
There was Jimi Hendix, Buddy Holly, Janis Joplin, Marvin Gaye, and many more

  D A G 
So I invited them all into my apartment and said hey guys make yourselves at
  D 
home

   D A G D 
Elvis came in and said he was hungry, Jim Morrison started writing a poem

 D A G 
Oh all the dead, all the dead, rock n roll stars, rock n roll stars were
                         D 
hanging out in my apartment

 D A G 
All the dead, all the dead, rock n roll stars, rock n roll stars were hanging
              D 
out in my dream

 D A G 
Well Keith Moon just started smashin all my stuff, Sid Vicious sat in the
         D 
corner trying to look tough

 D A G 
And Stevie Ray Vaughn was still singin the blues, Randy Rhodes was lying down
             D 
on my couch taking a snooze

 D A G D 
Eddie Cochran was getting high with Bob Marley Roy Orbison just pulled in on

his Harley

 D A G 
John Lennon was playing chess with Brian Jones Karen Carpenter was looking
        D 
like skin on bones


 D A G 
All the dead, all the dead, rock n roll stars, rock n roll stars were k

Rock And Roll All Nite chords – Kiss V3

 -----------------------------------------------------------------------------
                    ROCK AND ROLL ALL NITE - KISS
-----------------------------------------------------------------------------
 N3WW4V3N1NJ4
Standard tuning

Riff-based chords to Rock And Roll All Nite! (because it sounds awesome)

Intro:  G G G D G D A A E 
You show us everything you got
 A E 
You keep on dancing and the room gets hot
 D E G G G D G D A 
You drive us wild, we'll drive you crazy
 A E 
You say you wanna go for a spin
 A E 
The party's just begun, we'll let you in
 D E G G G D G D A 
You drive us wild, we'll drive you crazy
 G                            
Keep on shouting, you keep on shouting
 A D E 
I wanna rock and roll all nite AND PARTY EVERY DAY
 A D E 
I wanna rock and roll all nite AND PARTY EVERY DAY
 A E 
You keep on sayin' you'll be mine for awhile
 A E 
You're looking fancy and I like your style
 D E .                                G G G D G D A 
You drive us wild, we'll drive you crazy
 A E 
You show us everything you've got
 A E 
And baby, baby that's quite a lot
 D E G G G D G D A 
You drive us wild, we'll drive you crazy
 G 
Keep on shouting, you keep on shouting
 A D E 
I wanna rock and roll all nite AND PARTY EVERY DAY (repeat and fade.)