Tag: roll

Roll Me Easy chords – Glen Campbell

 Roll Me Easy
Glen Campbell

Intro   F Bb F C 

Verse 1

 F Bb F 
I am just a vagabond, a drifter on the run.
                                C Bb F 
An eloquent profanity, it just rolls right off my tongue.
                                       Bb C 
Now I have dinned in Palaces, I drank wine with Kings and Queens,
     F 
But darling sweet darling,
                C Bb F 
Now you’re the best thing I’ve ever seen.

Chorus 1

 (no Chords)                      Bb C F 
Singing roll me easy, roll me so nice and easy.
                              C F 
Take my independence with no apprehension, no tension, 
       Bb F C F Bb F 
We’ll walk and talk in sweet paradise.

Verse 2

 F Bb F 
Now I have crossed this country Lord, from Denver to the ocean.

But I’ve never met girls that could sing so sweet
       C Bb F 
As the angels that live in Houston.
 F Bb C F 
Singing harmony, and that you’re the sun. Sweet harmony.
           C Bb F 
You gotta raise your flag and I’ll beat my drum.

Outro

(beat G note 6th String)
Singing roll me easy. Now roll me so nice and easy.

I said roll me easy. Roll me so slow and easy.

I said roll me easy, roll me so slow and easy.
            F 
Ohh Yeahhh roll me easy.
                          Bb C F 
Why don’t you roll me so slow and easy 
                          Bb C F 
Why don’t you roll me so slow and easy   (repeat fade)


flyinglibra51
God Bless Glen Travis Campbell

Roll Me Away chords – Bob Seger And The Silver Bullet Band

 Roll Me Away - Bob Seger And the Silver Bullet Band (Bob Seger, 1982)
Chorded By: Skidaddy, Esq., G.Q.

4/4 TIME @ 128 and 132 BPM (4 Min. 42 Sec.) in 'G'.

Chords Used:
-----------
               GUITAR             KEYBOARD
           E A D G B   e     Bass|  Chord
         ------------------    --------------
C      -  x  3  2  0  1  0      C    G-C-E
Dm7/C  -  x  3  0  2  1  1      C    A-C-D-F
F/C    -  x  3  3  2  1  1      C    A-C-F
G      -  3  2  0  0  0  3      G    G-B-D    -OR-
       -  3  2  0  0  3  3
C/E    -  0  3  2  0  1  0      E    G-C-E    -OR-
       -  x  x  2  0  1  0
F/G    -  3  3  3  2  1  1      G    A-C-F    -OR-
       -  x  x  5  5  6  5 
Dm     -  x  x  0  2  3  1      D    A-D-F
Am     -  x  0  2  2  1  0      A    A-C-E
Em     -  0  2  2  0  0  0      E    G-B-E
F      -  1  3  3  2  1  1      F    A-C-F

INTRO: [8 M] ** TEMPO = 128 BPM -
-----

| C        | Dm7/C    | C        | F/C      | C        | Dm7/C    | C        | F/C      |

VERSE #1: [14 M]
--------

| C                       | Dm7/C                         | C                    |
      Took a look down a west-bound… road… Right a-way… I made my choice…

| F/C      | C                      | Dm7/C                      |
               Head-ed out to my big two… wheel-… er. I was

| C                        | F/C      | G                       |
 tired…  of my own voice…               Took a bead on the

| C                                   | F                  | C/E     | G       |…      |
 north-ern plains… and I just rolled… that pow-er on…

VERSE #2: [16 M] ** TEMPO = 132 BPM -
--------

| C                        | Dm7/C                                    |
      Twelve hours out of Mack-i-naw… Ci-ty, I stopped in-to a bar…

| C                  | F/C      | C                      |
… to have a brew…                 Met a girl and we

| Dm7/C                          | C                            | F/C       |
 had a few… drinks… and I told…  her what I'd de-cid-… ed to do…

| G F/G             | C                                      |
      She looked out the win-dow a long,… long… mo-ment, and then she looked in-

| F               | C/E      | G                        |…                |…       |
-to my… eyes…                  She did-n't have to say a thing…             I

| G                             |
 knew what she was think-in'…

CHORUS #1: [16 M]
---------

| C            | F/C                        | C                         | F/C      |
      Roll,…   roll… me a-way… Won't you roll… me a-way… to-night…

| C                  | F/C                              |
  I too am lost…  I feel dou-ble-crossed,…  and I'm… 

| C                                   | F/C          | G F     |
 sick of what's… wrong,… and what's… right…           She nev-er e-ven

| C                                 | F                        | C/E      |
 said a word… She just walked… out… and got on that bike…

| G                    |…       |…           |…                      |
      and we rolled,…                and we rolled…    clean out of

INTERLUDE #1: [8 M]
------------

| C          | F/C      | C        | F/C      | C        | F/C      | <s

Old Time Rock N Roll chords – Bob Seger And The Silver Bullet Band

 Old Time Rock N Roll - Bob Seger And The Silver Bullet Band (1977)
Written By: George Jackson and Thomas Earl Jones, III.
Chorded By: Skidaddy, Esq., G.Q.

4/4 TIME @ 124 BPM (3 Min. 20 Sec.) in 'F'.

Chords Used:
-----------
             GUITAR             KEYBOARD
         E A C F B   e     Bass|  Chord
       ------------------    ---------------
F5   -  x  8 10 10  x  x      F    F-C-F
Eb5  -  x  6  8  8  x  x      Eb   Eb-Bb-Eb
D5   -  x  5  7  7  x  x      D    D-A-D
C5   -  x  3  5  5  x  x      C    C-G-C
NC   -  NO CHORD
F    -  1  3  3  2  1  1      F    F-A-C
Bb   -  x  1  3  3  3  1      Bb   F-Bb-D
C    -  x  3  2  0  1  0      C    G-C-E

INTRO: [4 M]
-----

 1 2 3+   4  + …
| F5 Eb5 D5 C5 |NC      | F5 Eb5 D5 C5 |NC                            |
                                         Just take those old… re-cords

VERSE #1: [8 M]
--------

| F                  |…                           | Bb              |
 off… the shelf…     I'll sit and lis-ten to 'em by… my-self…

| Bb                       | C                     |…                      |
  To-day's… mu-sic ain't… got the same… soul…    I like that old… time…

| F                  |…                         |
 rock and… roll…     Don't try to take me to a

VERSE #2: [8 M]
--------

| F             |…                          | Bb                   |
 dis-… co…      You'll nev-er e-ven get me out on the floor…

| Bb                        | C                     |…                         |
  In ten… min-utes I'll be late for the door…     Start play-in' old… time…

| F                  | C                           |
 rock and… roll…     Still like that old… time…

CHORUS #1: [8 M]
---------

| F                  |…                        | Bb                    |
 rock and… roll…     The kind of mu-sic just… soothes… the soul…

| Bb                        | C                |…                     |
  I rem-i-nisce a-bout the days… of old…     with that old…  time…

| F                  |…       |
 rock and… roll…

GUITAR SOLO: [8 M] Play 'VERSE #2' Chord Pattern -
-----------

| F        |…       | Bb       |…       | C        |…       |


| F        | C                            |
           Won't go to hear 'em play a

VERSE #3: [8 M]
--------

| F              |…                              | Bb                  |
 tan-… go,…      I'd rath-er hear some blues or funk-y old… soul…

| Bb                             | C                 |…                         |
  There's on-ly one sure way to get me to go,…     start play-in' old… time…

| F                  |…                         |
 rock and… roll…     Call me a re-lic, call me

VERSE #4: [8 M]
--------

| F                  |…                               | Bb                 |
 what… you will…     Say I'm old-fash-ioned, say I'm o-ver the hill…

| Bb                       | C                     |…                      |
  To-day's… mu-sic ain't… got the same… soul…    I like that old… time…

| F                  | C                           |
 rock and… roll…     Still like that old… time…

CHORUS #2: [8 M]
---------

| F                  |…                        | Bb                    |
 rock and… roll…     The kind of mu-sic just… soothes… the soul…

| Bb                        | C                |…                     |
  I rem-i-nisce a-bout the days…

Rock N Roll Nerd chords – Tim Minchin V4

 I didn't really like the other versions so I decided to do my own. The lyrics are those off his Heritage 
Orchestra recording. CAPO ON 5TH FRET.

 Em 
Doesn't have a problem with drugs,
                 Am 
He just doesn't get them,
      D          
He's fine that his mates have tattoos,
                            Em 
But he thinks they'll regret them,

 Em 
He likes going to pubs,
                                 Am 
But he hates it when the music's too loud,
     D 
He tends not to go to rock concerts,
                           Em 
'Cause he can't stand the crowd

     Am D 
But all he's ever wanted to be
      G Em   
Is a rock star on MTV,
        Am D 
But he knows that it's not fucking likely,
                  B 
He's in his mid thirties 

He knows that..

                Em 
He will always be
               D 
A rock'n'roll nerd,
                      G G/B 
He'll keep writing songs the world will never hear,
             Em G            
And though they won't be heard,
             Am Bm 
He'll just keep writing. Oh yeah,

         A Dm 
But you see the problem is,
           G7 C 
He always dreamt of being a star,
              F7 Bb                        
But he learnt piano instead of guitar,
                 A Dm 
Which in the nineties didn't get you very far,
                   G7 C                   
So while the other kids were learning Stairway,
               F7 Bb             
He was the piano to their forte,
        
                  A         
But he was convinced one day
                        Bb                    
He'd rock their fucking asses,
            A Bb 
And be an icon for the disenfranchised masses,
                   A Bb 
Grow his hair long and rebel against the state,
           Bb C 
But just for now that'd have to wait,
                      A D         
'Cause he's running late, for his morning classes.

                 Em 
And he will always be
                 D 
A rock'n'roll nerd,
                                 G G/B 
He'll keep playing gigs that no-one knows about,
         Em G 
And though it sounds absurd
                 Am Bm 
He'll just keep playing, oh yeah,

           A Dm 
But you see the problem is,
           G7 C 
There's not much depth in what he's singing,
                         F7 Bb                                
He's a victim of his happy middle class upbringing,
              A                        
So he can't write about the hood, or bling bling,

 Dm G7 C                  
So he sits and imagines his girlfriend is dead,
         F7 Bb                                       
To try to evoke some angst in his middle class head,
                         A                 
But the bitch is always fine at half past nine when they 
         Dm 
Go to bed,

                         G7 C 
And he's not spent a single night in prison,
          F7 Bb          
He has no issues with nutrition,
                             A Bb 
He has no drinking problem and no drug addiction.
                       A Bb

The Remains Of Rock Roll solo Tabs by Broken Bells

 --------------Broken Bells, "The Remains of Rock & Roll"---------------------

   This is for the orchestrate instrumental at 0:25 in "The Remains of Rock & Roll". 
It's not originally played on guitar but it's pretty nifty to play, I played it a few times 
by ear and it sounds pretty spot on.

e|------------------------------------------------------------------|
B|-10-8-10-8----------------------10-8-10-8-------------------------|
G|------------7/9--9p8p7--9p8p7--------------7/9--9p8p7--9-7-5------|
D|--------------------------------------------------------------7---|
A|------------------------------------------------------------------|
E|------------------------------------------------------------------|

Lyrics:
It's too long to wait around for everyone to decide
I'm off to the promised land if anyone needs a ride
It's a small car but we'll fit inside if we leave our bags behind
We'll entertain ourselves just watching the world go by

Is something wrong
You don't look like you're having fun
The road is long
Got to let go of the things you've done

We prefer good love to gold
And the remains of rock and roll
When the moment's right
In the middle of the night
We can almost see the way to go

So long to everyone, 'cause they don't know who we are
Tell them you're sorry, but you'll have to break their hearts
Sister you're old enough to take the wheel and drive
Your hands, your heart, your eyes, have made me realize

I hear your call
All of my senses are trend on
We're on a roll
Suddenly Earth is far below

We prefer good love to gold
And the remains of rock and roll
When the moment's right
In the middle of the night
We can almost see the way to go

Can't you see me floating
Forward, backwards
Won't you lend a hand and help me out
Hear me on your doorstep
Knocking, knocking
Won't you open up and help me out

Roll To Me Tabs by Del Amitri V3

 -------------------------------------------------------------------------------
Roll To Me- Del Amitri
-------------------------------------------------------------------------------
:Nick V.
BlindTerry333
Tuning:

Figure #1 (intro/outro and end of each chorus)

e|---2----4-4--7-7-7--------------------------------------------------------|
B|-2---2--2-2--------9--7---------------------------------------------------|
G|------------------------8--6----------------------------------------------|
D|--------------------------------------------------------------------------|
A|--------------------------------------------------------------------------|
E|--------------------------------------------------------------------------|

or

e|---2----4-4--7-7-7----4-2-----------------------------------------------|
B|-2---2--2-2---------------4-2-------------------------------------------|
G|------------------------------------------------------------------------|
D|------------------------------------------------------------------------|
A|------------------------------------------------------------------------|
E|------------------------------------------------------------------------|

F#               B 
Look around your world, pretty baby.
F#                   B              C#
Is it everything you hoped it would be?
F#                    B   
 The wrong guy, the wrong situation
F#         B        F#
 The right time to roll to me.

F#             B
Look into your heart, pretty baby
      F#               B        C#
Is it aching with some nameless need? 
         F#                      B
Is there something wrong and you can't put your finger on it?
F#     B          F#
 Right then, roll to me

      C#m                Bm          F#         G#m
And I don't think I have ever seen a soul so in despair
    F#             B
So, if you want to talk the night through
G#m               C#
Guess who will be there?

    F#             B
So, don't try to deny it, pretty baby, 
            F#                   B      C#
You've been down so long you can hardly see
         F#                   B
When the engine's stalled, it won't stop runnin'
          F#      B           F#              
 It's the right time to roll to me

   F#               B
So look around your world, pretty baby
      F#             B              C#  
Is it everything you hoped it would be?
F#                    B
The wrong guy, the wrong situation
F#         B               F#
The right time to roll to me
           B               F#
The right time to roll to me.
           B               F#
The right time to roll to me


Repeat B and F# until fade


e|---2----4-4--7-7-7--------------------------------------------------------|
B|-2---2--2-2--------9--7---------------------------------------------------|
G|------------------------8--6----------------------------------------------|
D|--------------------------------------------------------------------------|
A|--------------------------------------------------------------------------|
E|--------------------------------------------------------------------------|

Jelly Roll intro Tabs by Joe Bonamassa V2

 -------------------------------------------------------------------------------
                             JELLY ROLL (ACOUSTIC) - Joe Bonamassa
-------------------------------------------------------------------------------
: Doug Koehler


Tuning: EADGBE (Capo on 3rd fret). Fret numbers are relative to the capo.

This is the version from An Acoustic Evening At The Vienna Opera House


Intro 1: (Repeat 4x)
e|---------------------------------------------------------------0---------|
B|---------------------------------------------------------0--3-----3--0---|
G|-(2)---2--0--------0--------------2-------2--0--------0------------------|
D|-(2)---------4--------2--0----------------------4------------------------|
A|--0-------------0-----------3--0-----0-------------0---------------------|
E|-------------------------------------------------------------------------|

Intro 2:
e|-------2--------2--------2--------2--------2--------2--------2-------------|
B|----------3--------3--------3--------3--------3--------3--------3----------|
G|-------------2--------2--------2--------2--------2--------2--------2-------|
D|--0-------------------------------------------------------------------0----|
A|---------------------------------------------------------------------------|
E|---------------------------------------------------------------------------|

e|-----------------------------------------------------0----2----3----2------|
B|-----------------------------------------------------0----3----3----3------|
G|-------2--0--------0--------------2-------2--0--2----1----2----0----2------|
D|-------------4--------2--0----------------------2----2----0----0----0------|
A|--0-------------0-----------3--0-----0----------0----2---------2-----------|
E|---------------------------------------------------------------3-----------|

e|---------------------------------------------------------------------------|
B|---------------------------------------------------------------------------|
G|-------2--0--------0--------------2-------2--0--2--------------------------|
D|-------------4--------2--0----------------------2--------------------------|
A|--0-------------0-----------3--0-----0----------0--------------------------|
E|---------------------------------------------------------------------------|

Dead Rock And Roll Stars chords – Wally Pleasant

 D Dsus2 A G 
   _____________________
    2     0     0     3
    3     3     2     3
    2     2     2     0
    0     0     2     0
    X     X     0     2
    X     X     X     3

Intro / Verse
E-2--2-0-0-2-0-0-2-2-2--2--2--2-2--2-2--2-2-2-2--3--3-3--3-3--3-3-3-3-3-|
B-3--3-3-3-3-3-3-3-3-3--2--2--2-2--2-2--2-2-2-2--3--3-3--3-3--3-3-3-3-3-|
G-2--2-2-2-2-2-2-2-2-2--2--2--2-2--2-2--2-2-2-2--0--0-0--0-0--0-0-0-0-0-|
D-0--0-0-0-0-0-0-0-0-0--0--0--0-0--0-0--0-0-0-0--0--0-0--0-0--0-0-0-0-0-|
A------------------------------------------------2--2-2--2-2--2-2-2-2-2-|
E------------------------------------------------3--3-3--3-3--3-3-3-3-3-|

E-2--2-0-0-2-0-0-2-2-2-|
B-3--3-3-3-3-3-3-3-3-3-|
G-2--2-2-2-2-2-2-2-2-2-|
D-0--0-0-0-0-0-0-0-0-0-|
A----------------------|
E----------------------|

They said when you die you'll never grow old ...
E-2--2-0-0-2-0-0-2-2-2--3--3-3--3-3--3-3-3-3-3--2--2-0-0-2-0-0-2-2-2-|
B-3--3-3-3-3-3-3-3-3-3--3--3-3--3-3--3-3-3-3-3--3--3-3-3-3-3-3-3-3-3-|
G-2--2-2-2-2-2-2-2-2-2--0--0-0--0-0--0-0-0-0-0--2--2-2-2-2-2-2-2-2-2-|
D-0--0-0-0-0-0-0-0-0-0--0--0-0--0-0--0-0-0-0-0--0--0-0-0-0-0-0-0-0-0-|
A-----------------------2--2-2--2-2--2-2-2-2-2-----------------------|
E-----------------------3--3-3--3-3--3-3-3-3-3-----------------------|

E-2--2--2-2--2-2--2-2-2-2--2--2-0-0-2-0-0-2-2-2--3--3-3--3-3--3-3-3-3-3-|
B-2--2--2-2--2-2--2-2-2-2--3--3-3-3-3-3-3-3-3-3--3--3-3--3-3--3-3-3-3-3-|
G-2--2--2-2--2-2--2-2-2-2--2--2-2-2-2-2-2-2-2-2--0--0-0--0-0--0-0-0-0-0-|
D-0--0--0-0--0-0--0-0-0-0--0--0-0-0-0-0-0-0-0-0--0--0-0--0-0--0-0-0-0-0-|
A------------------------------------------------2--2-2--2-2--2-2-2-2-2-|
E------------------------------------------------3--3-3--3-3--3-3-3-3-3-|

E-2--2-0-0-2-0-0-2-2-2--2-2-2-2-2-2-2-2-3-3-3-3-3-3-3-3-|
B-3--3-3-3-3-3-3-3-3-3--3-3-3-3-3-3-3-3-3-3-3-3-3-3-3-3-|
G-2--2-2-2-2-2-2-2-2-2--2-2-2-2-2-2-2-2-0-0-0-0-0-0-0-0-|
D-0--0-0-0-0-0-0-0-0-0--0-0-0-0-0-0-0-0-0-0-0-0-0-0-0-0-|
A---------------------------------------2-2-2-2-2-2-2-2-|
E---------------------------------------3-3-3-3-3-3-3-3-|





  D A G 
Last night I dreamed that all the dead rock n roll stars that I can think of
                      D 
were knockin at my door

   D A G D 
There was Jimi Hendix, Buddy Holly, Janis Joplin, Marvin Gaye, and many more

  D A G 
So I invited them all into my apartment and said hey guys make yourselves at
  D 
home

   D A G D 
Elvis came in and said he was hungry, Jim Morrison started writing a poem

 D A G 
Oh all the dead, all the dead, rock n roll stars, rock n roll stars were
                         D 
hanging out in my apartment

 D A G 
All the dead, all the dead, rock n roll stars, rock n roll stars were hanging
              D 
out in my dream

 D A G 
Well Keith Moon just started smashin all my stuff, Sid Vicious sat in the
         D 
corner trying to look tough

 D A G 
And Stevie Ray Vaughn was still singin the blues, Randy Rhodes was lying down
             D 
on my couch taking a snooze

 D A G D 
Eddie Cochran was getting high with Bob Marley Roy Orbison just pulled in on

his Harley

 D A G 
John Lennon was playing chess with Brian Jones Karen Carpenter was looking
        D 
like skin on bones


 D A G 
All the dead, all the dead, rock n roll stars, rock n roll stars were k

Shake Rattle And Roll chords – Bill Haley

 D 
Well, get out in that kitchen and rattle those pots and pans

 G D 
Yeah, get out in that kitchen and rattle those pots and pans

  A G D 
And don’t ruin my breakfast ‘cause I’m a hungry man

- - -

 D 
I said, shake, rattle and roll

Come on, shake, rattle and roll

          G 
You gotta shake, rattle and roll

         D 
You better shake, rattle and roll

     A G D 
Yeah, you never done nothin’ to save your doggone soul

- - -

 D 
Well, you’re wearin’ those dresses, your hair done up so nice

 G D 
Yeah, you’re wearin’ those dresses, your hair done up so nice

  A G D 
Well, you look so warm but your heart is cold as ice

- - -

 D 
I said, shake, rattle and roll

Come on, shake, rattle and roll

        G 
You gotta shake, rattle and roll

         D 
You better shake, rattle and roll

     A G D 
Yeah, you never done nothin’ to save your doggone soul

- - -

 D 
I’m like a one-eyed cat peepin’ in a seafood store

 G D 
Well, I’m like a one-eyed cat peepin’ in a seafood store

                 A G D 
And I can look at you and know you don’t love me no more


 D 
Well, I believed you were doin’ me wrong, and now I know

 G D 
Yeah, I believed you were doin’ me wrong, and now I know

               A G D 
And the more I work, the faster my money goes

- - -

 D 
I said, shake, rattle and roll

Come on, shake, rattle and roll

        G 
You gotta shake, rattle and roll

          D 
You better shake, rattle and roll

       A G D 
Yeah, you never done nothin’ to save your doggone soul

- - -

 D 
I said, shake, rattle and roll

Come on, shake, rattle and roll

              G 
You gotta shake, rattle and roll

               D 
You better shake, rattle and roll

   A G D 
Yeah, you never done nothin’ to save your doggone soul

   A G D 
Yeah, you never done nothin’ to save your doggone soul

Rock And Roll All Nite chords – Kiss V3

 -----------------------------------------------------------------------------
                    ROCK AND ROLL ALL NITE - KISS
-----------------------------------------------------------------------------
 N3WW4V3N1NJ4
Standard tuning

Riff-based chords to Rock And Roll All Nite! (because it sounds awesome)

Intro:  G G G D G D A A E 
You show us everything you got
 A E 
You keep on dancing and the room gets hot
 D E G G G D G D A 
You drive us wild, we'll drive you crazy
 A E 
You say you wanna go for a spin
 A E 
The party's just begun, we'll let you in
 D E G G G D G D A 
You drive us wild, we'll drive you crazy
 G                            
Keep on shouting, you keep on shouting
 A D E 
I wanna rock and roll all nite AND PARTY EVERY DAY
 A D E 
I wanna rock and roll all nite AND PARTY EVERY DAY
 A E 
You keep on sayin' you'll be mine for awhile
 A E 
You're looking fancy and I like your style
 D E .                                G G G D G D A 
You drive us wild, we'll drive you crazy
 A E 
You show us everything you've got
 A E 
And baby, baby that's quite a lot
 D E G G G D G D A 
You drive us wild, we'll drive you crazy
 G 
Keep on shouting, you keep on shouting
 A D E 
I wanna rock and roll all nite AND PARTY EVERY DAY (repeat and fade.)

Sweet Jelly Roll chords – The Altered Hours

 http://www.alteredhours.com/

 Bm             
Sweet Jelly roll
 A Bm 
I'm In Love with how you're always alone.
 A Bm 
Never really want to try out your game 
 A Bm 
I'm in Love with how you're always the same
 E 
Always the Same.

 Bm 
Sweet Jelly Roll 
 A Bm 
Like a Moth you fly under the moon
 A Bm 
Won't you come and see me soon?
 A Bm 
Ease my Fire while Making Me Blush
 A 
There is no Rush

 E A 
And it comes//And It Goes
And it comes//And It Goes
And it comes//And It Goes
And it comes//And It Goes

 Bm 
Sweet Jelly Roll
 A Bm 
I'm in love with how you whisper to me
 A Bm 
Hang Your Weights from all of my dreams
 A Bm 
Tried to Leave you're holding the key
 E 
Holding the key

 Bm 
Sweet Jelly Roll
 A Bm 
I'm in Love with how you're always alone
 E 
Always Alone

 E A 
And it comes//And It Goes
And it comes//And It Goes
And it comes//And It Goes
And it comes//And It Goes

Rock And Roll chords – Lou Reed

 C Bb6 F F G F C Bb6 
Jenny said, when she was just five years old
 F F G F 
you know there's nothin' happening at all
 C Bb6 
Every time she put on the radio
 F F G F 
there was nothin' goin' down at all
 C 
not at all

 C Bb6 
One fine mornin', she puts on a New York station
 F F G F 
and she couldn't believe what she heard at all
 C Bb6 
She started dancin' to that fine-fine-fine-fine music
 F F G F 
ooohhh, her life was saved by rock 'n' roll
 C 
hey baby, rock 'n' roll

 D F 
Despite all the amputation
 G F    
you could dance to a rock 'n' roll station
            C Bb6 
And it was all right  (It's alright)
            C Bb6 
it was all right      (It's alright)
 C 
hey babe

Solo:
 C Bb6 F F G F C Bb6 
Jenny said, when she was just five years old
 F F G F 
you know there's nothin' happening at all
 C Bb6 
Two TV sets, two Cadillac cars
 F F G F 
ahhh, hey, ain't help me nothin' at all
 C 
not at all

 C Bb6 
One fine morning, she heard on a New York station
 F F G F 
she couldn't believe what she heard at all
 C 
not at all

 D F 
Despite the amputation
 G F 
you could dance to a rock 'n' roll station
            C Bb6 
And it was all right  (It's alright)
            C Bb6 
it was all right      (It's alright)
 C 
oh, now here she comes now-now

Solo:
 C Bb6 C Bb6 C Bb6 C Bb6 C Bb6 C Bb6 C Bb6 C Bb6 
Like verse:
 C Bb6 F F G F C Bb6 
Jenny said, when she was just five years old
 F F G F 
you know there's nothin' happening at all
 C Bb6 
Yeah, every time she put on the radio
 F F G F 
there was nothin' goin' down at all
 C 
not at all

 C Bb6 
Then one fine morning, she put on a New York station
 F F G F 
and she couldn't believe what she heard at all
 C Bb6 
She started dancing to that fine-fine music
 F F G F 
ahh, her life was saved by rock 'n' roll
 C 
rock 'n' roll

 D F 
Despite all the amputation
 G F 
you could dance to the rock 'n' roll station

Break

 C Bb6 C Bb6 C Bb6 C Bb6 C Bb6 
It's all right, all right
 C Bb6 
all right, all right
 C Bb6 
All right, it's all right
 C Bb

Vi Fortstter Spela Rockn Roll Men Vi Hller P Att D chords – Nationalteatern V2

 Roffe å Jag!

Inget capo

tyckte att denna versionen lät bättre när man spelar med i låten

Enjoy!
 
VERS 1
 A E 
 Roffe och jag har ett band i ett garage 
  A E                  
Vi har gitarr och trummor men ännu ingen bas 
 Fm D A D      
Ett helt kvarter hatar oss och vår rasande musik         
 Fm D A D 
Men när pappa Rock är ett med oss ger vi fan i publik!  
 Em C G D 
Vi har gjort en egen låt, som är motstridig och tvär
    Em C G Am A 
Vi förstår den inte ens själva men det går ungefär så här, så häääär
 REF
 A D A D 
"Vi fortsätter spela rock'n'roll men vi håller på att dö!
 A D A D 
Vi fortsätter spela rock'n'roll men vi håller på att dö!
mellanspel:  A 
VERS 2
 A E 
Ibland när vi slutar spela i vårt garage
 A E  
blir det alldeles tyst det hörs dova ljud från stan...
 Fm D A D  
Det susar i rören och i min wah-wah-pedal 
 Fm D A D 
Roffe säger: "play it cool..." och fingrar på sin cymbal 
 Em C G D 
Då kan vi plötsligt få för oss att vårt garage är en slags borg!
  Em C G Am 
Då måste vi spela vår låt igen för att dränka vår konstiga sorg... 
           A 
konstiga sooorg
REF
 A D A D 
"Vi fortsätter spela rock'n'roll men vi håller på att dö!
 A D A D 
Vi fortsätter spela rock'n'roll men vi håller på att dö!
mellanspel:  A 
VER 3
 A E 
 Nu har vi börjat sova över i vårt garage
 A E  
Och vi ser inte nån skillnad på natt eller dag
  Fm D A D   
Dom har blivit mycket högre nu alla dova ljud från stan... 
 Fm D A D  
Vi kan höra tydligt hur tänder krossas mot en trottoar...! 
         Em C G D 
Det kommer stenar genom väggen och ormar under vår dörr 
     Em C G Am 
Förstärkaren skenar på maxvolym! och inget är som förr
     A  
som förr... 
 REF
 A D A D 
"Vi fortsätter spela rock'n'roll men vi håller på att dö!
 A D A D 
"Vi fortsätter spela rock'n'roll men vi håller på att dö!
 A D A D 
"Vi fortsätter spela rock'n'roll men vi håller på att dö!
 A D A D 
"Vi fortsätter spela rock'n'roll men vi håller på att dö!
 A D A D 
"Vi fortsätter spela rock'n'roll men vi håller på att dö!
 A D A D 
"Vi fortsätter spela rock'n'roll men vi håller på att dö!

This Is How We Roll chords – Florida Georgia Line V2

 Chord Progression-  G Cadd9 D  ( Em )

 C  is played as  Cadd9  (x32033)

Chords are picked in the verses

Capo 1st:

 Cadd9 G 
The mixtape's got a little Hank, little Drake
   D 
A little something bumping, thump, thumping on the wheel ride
 Cadd9 G 
The mix in our drink's a little stronger than you think
 D 
So get a grip, take a sip of that feel right
 Cadd9 G 
The truck's jacked up, flat bills flipped back
 D 
Yeah you can find us where the party's at


                Cadd9 G 
This is how we roll
 D Cadd9 G 
We hanging round singing out everything on the radio
 D 
We light it up with our hands up
                Cadd9 
This is how we roll
                G 
This is how we do
                        D Em 
We're burning down the night shooting bullets at the moon baby
                Cadd9 G D 
This is how we roll


                          Cadd9 
Yeah baby this is how we roll
                 G 
We rollin' into town
                      D Em 
With nothing else to do we take another lap around
                    Cadd9 G 
Yeah holla at your boy if you need a ride
                  D Em 
If you roll with me yeah you know we rollin' high
                Cadd9 G 
Up on those 37 Nittos, windows tinted hard to see though
                   D Em 
How fresh my baby is in the shotgun seat oh
                     Cadd9 G 
Them kisses are for me though, automatic like a free throw
                     D Em 
This life I live it might not be for you but it's for me though

Let's roll!

                Cadd9 G 
This is how we roll
 D Cadd9 G 
We hanging round singing out everything on the radio
 D 
We light it up with our hands up
                Cadd9 
This is how we roll
                G 
This is how we do
                      D Em 
When the world turns ugly I just turn and look at you baby
                Cadd9 G D 
This is how we roll

Luke Bryan Rap:
                        Cadd9 
Yeah we're proud to be young
                 G 
We stick to our guns
                D 
We love who we love and we wanna have fun
                      Cadd9 
Yeah we cuss on them Mondays
                  G 
And pray on them Sundays
         D 
Pass is around and we dream about one day

                Cadd9 G 
This is how we roll
 D Cadd9 G 
We hanging round singing out everything on the radio
 D 
We light it up with our hands up
                Cadd9 
This is how we roll
                G 
This is how we ride
                    D Em 
We slingin' up the mud, cuttin' through the countryside baby
                Cadd9 G D 
This is how we roll


                Cadd9 G 
This is how we roll
 D Cadd9 G 
We hanging round singing out everything on the radio
 D 
We light it up with our hands up
                Cadd9 
This is how we roll
                G 
This is ho

Ive Got A Rock And Roll Heart chords – Eric Clapton V2

 Transpose +5 steps with buttons on the left for original key, (or leave like this 
to sing with baritones!). Ask if you want chord fingering help.

Intro:  E C#m E C#m E A E C#m - B - E 
I've got a feeling, we could be serious girl
  E A E C#m - B - E 
Right at this moment, I could promise you the world
    A E               
Before we go crazy, before we explode,
 A B B7 
There's something 'bout me, baby, you got to know, you got to know

 E C#m A B E C#m A B 
I get off on '57 Chevys, I get off on screaming guitar
 E C#m A B  
Like the way it hits me every time it hits me
 A B E C#m E C#m E C#m E C#m 
I've got a rock and roll, I've got a rock and roll heart

 E A E C#m - B - E 
Feels like we're falling into the arms of the night
    E A E C#m - B - E 
So if you're not ready, don't be holdin' me so tight
 A E               
I guess there's nothing left for me to explain
  A B B7 
Here's what you're gettin' and I don't want to change, I don't want to change

 E C#m A B E C#m A B 
I get off on '57 Chevys, I get off on screaming guitar
 E C#m A B  
Like the way it hits me every time it hits me
 A B E 
I've got a rock and roll, I've got a rock and roll heart

Solo: (  E C#m A B  ) x3    A B B B B B 
I don't need to glitter, no Hollywood, all you got to do is lay it down and you lay it down good

 E C#m A B E C#m A B 
I get off on '57 Chevys, I get off on screaming guitar
 E C#m A B  
Like the way it hits me every time it hits me
 A B E C#m E C#m 
I've got a rock and roll, I've got a rock and roll heart
 E C#m E C#m 
I've got a (you've got a) rock and roll heart
 E C#m E C#m 
I've got a (you've got a) rock and roll heart
 E C#m E C#m 
I've got a (you've got a) rock and roll heart

Save Rock And Roll intro Tabs by Fall Out Boy

 -----------------------------------------------------------------------------
                             Save Rock and Roll - Fall Out Boy ft Elton John
-----------------------------------------------------------------------------
:missbananadog
acarter98@nycap.rr.com

Tuning:standard

e|------------------------------------------------------|
B|-0----0----2----2---0----2---0------------------------|
G|----1----1----1----1---1---1----1---------------------| x2
D|------------------------------------------------------|
A|------------------------------------------------------|
E|------------------------------------------------------|


e|------------------------------------------------------|
B|------------------------------------------------------|
G|--2-2-2-1---------------------------------------------| x2
D|-----------4-2----------------------------------------|
A|------------------------------------------------------|
E|------------------------------------------------------|


This lick is used throughout the verses and most of the rest of the song, except for 
when the key changes at the end.

Roll Away chords – Rust

 Intro:  D5 D  x2

Verse 1:
 D5 D D5    
Hey, Johnny. You Alright? You seem a bit shaken.
                    D Bm 
Your hearts beaten fast. What have you taken?
                          G A D5     
Come on, Johnny. Look at me. Look in my eyes. What did you do?

Verse 2:
 D5 D    
Take it easy, Johnny. Don’t go too fast.
        D5 Bm 
If you keep this up, ya know, you’re not gonna last.
              G A D5 
Just take it slow. Here, grab my hand. We gotta go.

Break:  D5 D D5 D Bm G A D5 

Verse 3:
 D5 D D5            
Hey there, Johnny. You’re going down. Your legs are falling out from under you. 
              Bm G 
You’re gonna hit the ground. You’re gonna hit the dirt.
          A D5 
Put your hands out or it’s gonna hurt.

Verse 4:
 D5 D D5 
Just stay down, Johnny. Don’t try to get up. They’ll be here in a second.
               Bm G  
We’ll have to tell them what’s up. Don’t be scared. Don’t be mad.
           A D5 
You’ll be fine. Don’t be sad. Just don’t break.

Break:  G A D5 D  x2

Verse 5:
 D5 D D5 D 
I hear the sirens, Johnny. They're gonna be here soon. Just close your eyes. 
                    Bm 
Think of something peaceful.
          G A D5 
And just try to sooth that old crazy mind.

Verse 6:
 D5 D 
Listen to me, Johnny. They're gonna take you away.
 D5 Bm 
So just find a happy place like a beach on the bay.
         G A 
Take it easy, John. I'll be home when you get back.
                     D5 
They're rolling you away.

Ending:  D5 D  (repeat to fade) 

Rock And Roll Lover Tabs by Russ Ballard

 -------------------------------------------------------------------------------
                        Rock & Roll Lover - Russ Ballard
-------------------------------------------------------------------------------
:DennisRockon

Tuning: E Standard

Really great song and i didn't see any tabs for it.I didn't tab out all the
guitar fills. leave a comment or a like if you found this tab helpfull.

Intro Solo
e|--15-15-15-15-15-14-15-14-12-10-12~---15-15-15-15-15-14-15-14-17b19-15~----|
B|---------------------------------------------------------------------------|
G|---------------------------------------------------------------------------|
D|---------------------------------------------------------------------------|
A|---------------------------------------------------------------------------|
E|---------------------------------------------------------------------------|

e|--15-15-15-15-15-14-15-14-12-10-12~-----15-15-15-15-15-14-15-14-12~--------|
B|---------------------------------------------------------------------------|
G|---------------------------------------------------------------------------|
D|---------------------------------------------------------------------------|
A|---------------------------------------------------------------------------|
E|---------------------------------------------------------------------------|
Intro Chords
e|---------------------------------------------------------------------------|
B|---------------------------------------------------------------------------|
G|-9-5-7--9-7-9--------------------------------------------------------------|
D|-9-5-7--9-7-9-X4-----------------------------------------------------------|
A|-7-3-5--7-5-7--------------------------------------------------------------|
E|---------------------------------------------------------------------------|
  Verse
e|---------------------------------------------------------------------------|
B|---------------------------------------------------------------------------|
G|-9-9/7-7/5-5/7--9-9/7-7/5-5\7---2-2-2-2-2-2-2-2-5-5-5-5-5-5-5-5------------|
D|-9-9/7-7/5-5/7--9-9/7-7/5-5\7---2-2-2-2-2-2-2-2-5-5-5-5-5-5-5-5--X2--------|
A|-7-7/5-5/3-3/5--7-7/5-5/3-3\5---0-0-0-0-0-0-0-0-3-3-3-3-3-3-3-3------------|
E|---------------------------------------------------------------------------|
  At the end of the Vers
e|---------------------------------------------------------------------------|
B|---------------------------------------------------------------------------|
G|-9-9/7-7/5-5\7-------------------------------------------------------------|
D|-9-9/7-7/5-5\7--4-4-4-4-4-4-4-9-9-9-9-9-9-9--------------------------------|
A|-7-7/5-5/3-3\5--4-4-4-4-4-4-4-9-9-9-9-9-9-9--------------------------------|
E|----------------2-2-2-2-2-2-2-7-7-7-7-7-7-7--------------------------------|
 Chorus
e|---------------------------------------------------------------------------|
B|---------------------------------------------------------------------------|
G|-9-5-7--9-7-9-----2-2-2-2-2-2-2-2-5-5-5-5-5-5-5-5--------------------------|
D|-9-5-7--9-7-9-X4--2-2-2-2-2-2-2-2-5-5-5-5-5-5-5-5--------------------------|
A|-7-3-5--7-5-7-----0-0-0-0-0-0-0-0-3-3-3-3-3-3-3-3--------------------------|
E|---------------------------------------------------------------------------|
 
 Intro (With vocals and tremolo picking, chords the same as the beginning)

e|--15TP--14TP-15TP-14TP-12TP-10TP-12TP------15TP-14TP-15TP-14TP-12TP--------|
B|---------------------------------------------------------------------------|
G|---------------------------------------------------------------------------|
D|----------------------------------------------------------------------X2---|
A|---------------------------------------------------------------------------|
E|---------------------------------------------------------------------------|

Bridge
   |pm...........................................

Rock And Roll Heaven chords – Righteous Brothers

 (I'm going to transpose this one up five later for my voice).  Ask if you need help with 
the chords.

Intro:  A D/A E/A A A  Bm/ A E/A A   / E =/ F# A Bm/A D E    -   A    / E =/ F# 
If you believe in forever, then life is just a one-night stand
 A Bm/A D          -        E      -    A D E 
If there's a rock n' roll heaven, well you know they've got a hell of a band, band, band

  Em A    -  A7 D                      / C#  - Bm7 
Jimi gave us rainbows and Janis, took a piece of our hearts
     G A D -/C#-/ B - A   /B=/ A =/ F# = D 
And Otis brought us all to the dock of a bay,
  Em A     -    A7 D               /C#- Bm7 
Sing a song to, light my fire, remember Jim that way
          G D/A Bm E    / E =/ F# 
They've all found another place, another place to play

 A Bm/A D E    -   A    / E =/ F# 
If you believe in forever, then life is just a one-night stand
 A Bm/A D          -        E      -    A D E 
If there's a rock n' roll heaven, well you know they've got a hell of a band, band, band

 Em A   -   A7 D                       / C#  - Bm7 
Remember bad bad Leroy Brown, hey Jimmy, touched us with that song
  G A D -/C#-/ B - A   /B=/ A =/ F# = D 
Time won't change a friend we came to know
 Em A    -     A7 D                  /C#- Bm7 
And Bobby Gave us Mack the Knife, well look out, he's back in town
          G D/A Bm E    / E =/ F# 
They'll all be there together, when they meet in one big show

 A Bm/A D E    -   A    / E =/ F# 
If you believe in forever, then life is just a one-night stand
 A Bm/A D          -        E      -    A D E 
If there's a rock n' roll heaven, well you know they've got a hell of a band, band, band

 CM7 FM7 Em7 A7 CM7 FM7 
There's a spotlight waiting, no matter who you are, 'cuz everybody's got a song to sing
 Bm7 E                                  / E =/ F# 
Everyone's a star (everybody's got to be a star)

 A Bm/A D E    -   A    / E =/ F# 
If you believe in forever, then life is just a one-night stand
 A Bm/A D          -        E      -    A    / E =/ F# 
If there's a rock n' roll heaven, well you know they've got a hell of a band
 A Bm/A D E    -   A    / E =/ F# 
If you believe in forever, then life is just a one-night stand
 A</spa

Rock And Roll Thugs chords – Icon For Hire

 F#m D E  for intro and verse

 D E F#m  For Chorus

For pre-chorus  E C#m 



The music is in my blood, you don't understand
The music is in my blood, you don't understand

Sleepless nights at the black and white keys
I'll let my fingers say it for me
Sometimes my spirit's still so scared
Once I put it in a melody it means so much more to me
Fate sealed, I guess this is how I feel
Sometimes I swear the lyrics write me
The lyrics write me

The melody a remedy to calm me down
You never did approve of the fix I found

Bury all the records in the backyard,
When you're not looking I'll go dig them back up
You can bury my body in the backyard,
When you're not looking I'll go dig myself up
And I know all about the drugs they hide inside the music, I know, I know
I know all about the drugs they hide inside the music

And the preacher at church must've told you about them too
'Cause you came home dead set on what you had to do
You said the demons and drugs hide in rock n roll thugs
If I wanna grow up nice, I better give the music up

The melody a remedy to keep me right
You never did approve of my sleepless nights

Bury all the records in the backyard,
When you're not looking I'll go dig them back up
You can bury my body in the backyard,
When you're not looking I'll go dig myself up
And I know all about the drugs they hide inside the music, I know, I know
I know all about the drugs they hide inside the music

Oh the words unwind, my hands rebel
I hide behind these notes too well
I can't pretend anymore

You're not listening, you don't understand
You're not listening, you don't understand
You're not listening, you don't understand
You're not listening, you don't understand

Bury all the records in the backyard,
When you're not looking I'll go dig them back up
You can bury my body in the backyard,
When you're not looking I'll go dig myself up

Bury all the records in the backyard,
When you're not looking I'll go dig them back up
You can bury my body in the backyard,
When you're not looking I'll go dig myself up
And I know all about the drugs they hide inside the music, I know, I know
I know all about the drugs they hide inside the music