Tag: roots

Roots Piano Chords by Zac Brown Band

INTRO:
B  F#  G#m  C#m  E E B
B  F#  G#m  C#m  B


VERSE:
B                    F#
My first best friend   was a 6 string
G#m                C#m          E
  Took him with me everywhere I go

 B            F#
When I was 18,  bought a Dodge van
G#m                   C#m               E
  Found a drummer and made the road my home


PRE-CHORUS:
G#m
  Ooh, I wouldn't change a thing
E                   F#
  It made the man I am today


CHORUS:
    B
My roo-oots 
F#
Always keep me grounded

G#m
Roo-oots  
   E
Remind me where I'm from
B                  F#
  Even when I'm a thousand miles away from my

G#m
Roo-oots  
     E
I'm home


VERSE:
B             F#
 Every Friday   you could find me
G#m             C#m              E
At Dixie Tavern playing with my band

 B                         F#
We'd start the show with a   round of whiskey
G#m                         C#m                E
And play our hearts out and wished it'd never end


PRE-CHORUS:
G#m
  Ooh, I wouldn't change a thing
E                   F#
  It made the man I am today


CHORUS:
    B
My roo-oots 
F#
Always keep me grounded

G#m
Roo-oots  
   E
Remind me where I'm from
B                  F#
  Even when I'm a thousand miles away from my

G#m
Roo-oots  
     E
I'm home


INSTRUMENTAL:
E B F# B
E B F# B 
E B F# B
E B F# G#m

E B F# B


VERSE:
 B                    F#
We'd get 'em singing "Don't Stop Believing"
G#m                   C#m             E      B
Then follow up with a cold beer on a Friday night

 B               F#
Always dreaming one day we'd play with
G#m               C#m          E
All our heroes we cover every night


PRE-CHORUS:
G#m
  Flying high all our dreams came true
E                  F#
  You've given me wings


CHORUS:
     B
And roo-oots 
F#
Always keep me grounded

G#m
Roo-oots  
   E
Remind me where I'm from
B                  F#
  Even when I'm a thousand miles away from my

G#m
Roo-oots  
     E
I'm home


CHORUS:
    B
My roo-oots 
F#
Always keep me grounded

G#m
Roo-oots  
   E
Remind me where I'm from

   C#m      N.C.
My roo-oots 
                 F#
Even when I'm a thousand miles away from my

G#m
Roo-oots  
     E
I'm home


BREAK:
 B
Don't give up
     F#
Hold on a little longer
G#m
What don't kill you
C#m              E
Only makes you stronger

 B
Don't give up
     F#
Hold on a little longer
G#m
What don't kill you
C#m              E
Only makes you stronger

 B
Don't give up
     F#
Hold on a little longer
G#m
What don't kill you
C#m              E
Only makes you stronger

 B
Don't give up
     F#
Hold on a little longer
G#m
What don't kill you
C#m              E
Only makes you stronger


OUTRO:
 B
Don't give up
     F#
Hold on a little longer
G#m
What don't kill you
C#m              E        B
Only gives you stronger roots


===================== CAPO: 4th FRET =====================



SONG:   ROOTS
ARTIST: ZAC BROWN BAND
TAB BY: DON CZARSKI
EMAIL:  GUITARZAN7@HOTMAIL.COM


                ROOTS
           ZAC BROWN BAND


CAPO: 4th FRET

INTRO:
G  D   Em   Am   C C G
G  D   Em   Am   G


VERSE:
G                    D
My first best friend   was a 6 string
Em                 Am           C
  Took him with me everywhere I go

 G            D
When I was 18,  bought a Dodge van
Em                    Am                C
  Found a drummer and made the road my home


PRE-CHORUS:
Em
  Ooh, I wouldn't change a thing
C                   D
  It made the man I am today


CHORUS:
    G
My roo-oots 
D
Always keep me grounded

Em
Roo-oots  
   C
Remind me where I'm from
G                  D
  Even when I'm a thousand miles away from my

Em
Roo-oots  
     C
I'm home


VERSE:
G             D
 Every Friday   you could find me
Em              Am               C
At Dixie Tavern playing with my band

 G                         D
We'd start the show with a   round of whiskey
Em                          Am                 C
And play our hearts out and wished it'd never end


PRE-CHORUS:
Em
  Ooh, I wouldn't change a thing
C                   D
  It made the man I am today


CHORUS:
    G
My roo-oots 
D
Always keep me grounded

Em
Roo-oots  
   C
Remind me where I'm from
G                  D
  Even when I'm a thousand miles away from my

Em
Roo-oots  
     C
I'm home


INSTRUMENTAL:
C G D  G
C G D  G
C G D  G
C G D  Em

C G D  G


VERSE:
 G                    D
We'd get 'em singing "Don't Stop Believing"
Em                    Am              C      G
Then follow up with a cold beer on a Friday night

 G               D
Always dreaming one day we'd play with
Em                Am           C
All our heroes we cover every night


PRE-CHORUS:
Em
  Flying high all our dreams came true
C                  D
  You've given me wings


CHORUS:
     G
And roo-oots 
D
Always keep me grounded

Em
Roo-oots  
   C
Remind me where I'm from
G                  D
  Even when I'm a thousand miles away from my

Em
Roo-oots  
     C
I'm home


CHORUS:
    G
My roo-oots 
D
Always keep me grounded

Em
Roo-oots  
   C
Remind me where I'm from

   Am      N.C.
My roo-oots 
                 D
Even when I'm a thousand miles away from my

Em
Roo-oots  
     C
I'm home


BREAK:
 G
Don't give up
     D
Hold on a little longer
Em
What don't kill you
Am               C
Only makes you stronger

 G
Don't give up
     D
Hold on a little longer
Em
What don't kill you
Am               C
Only makes you stronger

 G
Don't give up
     D
Hold on a little longer
Em
What don't kill you
Am               C
Only makes you stronger

 G
Don't give up
     D
Hold on a little longer
Em
What don't kill you
Am               C
Only makes you stronger


OUTRO:
 G
Don't give up
     D
Hold on a little longer
Em
What don't kill you
Am               C        G
Only gives you stronger roots

Roots Chords by Zac Brown Band

                ROOTS
           ZAC BROWN BAND


CAPO: NONE

INTRO:
B  F#  G#m  C#m  E E B
B  F#  G#m  C#m  B


VERSE:
B                    F#
My first best friend   was a 6 string
G#m                C#m          E
  Took him with me everywhere I go

 B            F#
When I was 18,  bought a Dodge van
G#m                   C#m               E
  Found a drummer and made the road my home


PRE-CHORUS:
G#m
  Ooh, I wouldn't change a thing
E                   F#
  It made the man I am today


CHORUS:
    B
My roo-oots 
F#
Always keep me grounded

G#m
Roo-oots  
   E
Remind me where I'm from
B                  F#
  Even when I'm a thousand miles away from my

G#m
Roo-oots  
     E
I'm home


VERSE:
B             F#
 Every Friday   you could find me
G#m             C#m              E
At Dixie Tavern playing with my band

 B                         F#
We'd start the show with a   round of whiskey
G#m                         C#m                E
And play our hearts out and wished it'd never end


PRE-CHORUS:
G#m
  Ooh, I wouldn't change a thing
E                   F#
  It made the man I am today


CHORUS:
    B
My roo-oots 
F#
Always keep me grounded

G#m
Roo-oots  
   E
Remind me where I'm from
B                  F#
  Even when I'm a thousand miles away from my

G#m
Roo-oots  
     E
I'm home


INSTRUMENTAL:
E B F# B
E B F# B 
E B F# B
E B F# G#m

E B F# B


VERSE:
 B                    F#
We'd get 'em singing "Don't Stop Believing"
G#m                   C#m             E      B
Then follow up with a cold beer on a Friday night

 B               F#
Always dreaming one day we'd play with
G#m               C#m          E
All our heroes we cover every night


PRE-CHORUS:
G#m
  Flying high all our dreams came true
E                  F#
  You've given me wings


CHORUS:
     B
And roo-oots 
F#
Always keep me grounded

G#m
Roo-oots  
   E
Remind me where I'm from
B                  F#
  Even when I'm a thousand miles away from my

G#m
Roo-oots  
     E
I'm home


CHORUS:
    B
My roo-oots 
F#
Always keep me grounded

G#m
Roo-oots  
   E
Remind me where I'm from

   C#m      N.C.
My roo-oots 
                 F#
Even when I'm a thousand miles away from my

G#m
Roo-oots  
     E
I'm home


BREAK:
 B
Don't give up
     F#
Hold on a little longer
G#m
What don't kill you
C#m              E
Only makes you stronger

 B
Don't give up
     F#
Hold on a little longer
G#m
What don't kill you
C#m              E
Only makes you stronger

 B
Don't give up
     F#
Hold on a little longer
G#m
What don't kill you
C#m              E
Only makes you stronger

 B
Don't give up
     F#
Hold on a little longer
G#m
What don't kill you
C#m              E
Only makes you stronger


OUTRO:
 B
Don't give up
     F#
Hold on a little longer
G#m
What don't kill you
C#m              E        B
Only gives you stronger roots


===================== CAPO: 4th FRET =====================



SONG:   ROOTS
ARTIST: ZAC BROWN BAND
TAB BY: DON CZARSKI
EMAIL:  GUITARZAN7@HOTMAIL.COM


                ROOTS
           ZAC BROWN BAND


CAPO: 4th FRET

INTRO:
G  D   Em   Am   C C G
G  D   Em   Am   G


VERSE:
G                    D
My first best friend   was a 6 string
Em                 Am           C
  Took him with me everywhere I go

 G            D
When I was 18,  bought a Dodge van
Em                    Am                C
  Found a drummer and made the road my home


PRE-CHORUS:
Em
  Ooh, I wouldn't change a thing
C                   D
  It made the man I am today


CHORUS:
    G
My roo-oots 
D
Always keep me grounded

Em
Roo-oots  
   C
Remind me where I'm from
G                  D
  Even when I'm a thousand miles away from my

Em
Roo-oots  
     C
I'm home


VERSE:
G             D
 Every Friday   you could find me
Em              Am               C
At Dixie Tavern playing with my band

 G                         D
We'd start the show with a   round of whiskey
Em                          Am                 C
And play our hearts out and wished it'd never end


PRE-CHORUS:
Em
  Ooh, I wouldn't change a thing
C                   D
  It made the man I am today


CHORUS:
    G
My roo-oots 
D
Always keep me grounded

Em
Roo-oots  
   C
Remind me where I'm from
G                  D
  Even when I'm a thousand miles away from my

Em
Roo-oots  
     C
I'm home


INSTRUMENTAL:
C G D  G
C G D  G
C G D  G
C G D  Em

C G D  G


VERSE:
 G                    D
We'd get 'em singing "Don't Stop Believing"
Em                    Am              C      G
Then follow up with a cold beer on a Friday night

 G               D
Always dreaming one day we'd play with
Em                Am           C
All our heroes we cover every night


PRE-CHORUS:
Em
  Flying high all our dreams came true
C                  D
  You've given me wings


CHORUS:
     G
And roo-oots 
D
Always keep me grounded

Em
Roo-oots  
   C
Remind me where I'm from
G                  D
  Even when I'm a thousand miles away from my

Em
Roo-oots  
     C
I'm home


CHORUS:
    G
My roo-oots 
D
Always keep me grounded

Em
Roo-oots  
   C
Remind me where I'm from

   Am      N.C.
My roo-oots 
                 D
Even when I'm a thousand miles away from my

Em
Roo-oots  
     C
I'm home


BREAK:
 G
Don't give up
     D
Hold on a little longer
Em
What don't kill you
Am               C
Only makes you stronger

 G
Don't give up
     D
Hold on a little longer
Em
What don't kill you
Am               C
Only makes you stronger

 G
Don't give up
     D
Hold on a little longer
Em
What don't kill you
Am               C
Only makes you stronger

 G
Don't give up
     D
Hold on a little longer
Em
What don't kill you
Am               C
Only makes you stronger


OUTRO:
 G
Don't give up
     D
Hold on a little longer
Em
What don't kill you
Am               C        G
Only gives you stronger roots

What They Do Tabs – The Roots

 -------------------------------------------------------------------------------
                             What They Do - The Roots
-------------------------------------------------------------------------------
Tuning: regular phat-jazz-dopeness 

Keys intro riff.                            Guitar
0:00                                    0:08
e|----------------------------------------|----8-10-11--/10-/10----------------------------------------|
B|----------------------------------------|---8---------/11--------------------------------------------|
G|---10-8-10--10-8-10---8----10--8----10--|----------------------/12-/12--10^(12)v10p8----------8------|
D|---10-8-10--10-8-10---8-10-10--8-10-10--|-------------------------------------------10----8h10-10----|
A|------------------------10-------10-----|------------------------------------------------------------|
E|----------------------------------------|------------------------------------------------------------|
0:11.                                               0:16
e|--------------------------------------------------------8h10p8--11h13p11--13h15\~ -------------------|
B|--------------------------------------------------------8-------11--------13   \~ -------------------|
G|--------------------------------------------------------8-------11--------13   \~ -------------------|
D|-----------------------------------------------------------------------------------------------------|
A|---8^(9)v8-6--8-6-------6-8--8^(10)-8^(10)v8---------------------------------------------------------|
E|------------------8----------------------------------------------------------------------------------|
0:19
e|-----------------------------------------------------------------------------13----11----------------|
B|--------13---13h16p13--------------------------------------------------11/13-13-13-11-13\11----------|
G|---13h15-------------13h15p13--------------------------8-----10----8---10/12----12----12\10----------|
D|-----------------------------13h15p13-----13-13---8/10-8--10-10-10-8---------------------------------|
A|-------------------------------------13h15--------8/10----10----10-----------------------------------|
E|-----------------------------------------------------------------------------------------------------|

Chorus.                                                      x2. Verses.        x3.v then v
e|---------/10~ -----------------------------------------------|---------------------------------------|
B|------11-/ 8~ --/11~ --8--7h8~ -------/8~ --/8-11--8---------|----------11/13\11~ -------------------|
G|---/12---/ 8~ --/ 8~ --8--8~ -------8-/8~ --/8-------8--8~ --|-8/10\8~ -10/12\10~ -------------------|
D|----------------/ 8~ -----7~ ----/10-------------------10~ --|-x--x-x--------------11/12--11/12\10~ -|
A|--------------------------------------------------------8~ --|-6/ 8\6~ -------------x--x---x--x--x---|
E|-------------------------------------------------------------|--------------------- 9/10-- 9/10\ 9~ -|

Fills @ 2:12/3:26   @ 3:00              @ 3:42.         @ 4:02
e|------------------|----------11-------|---------------|-8~ 8h11p8----/10p8-/13p10--------------------|
B|-11/13--13\11-/13-|-11/13\11-11-11/13-|--13-13-----11-|-9~ ------9p8-/ 8---/10---13-11---------------|
G|-10/12--12\10-/12-|-10/12\10----10/12-|-------13\12---|-8~ ----------/ 8 --/10-------12--10h12-10h12-|
D|------------------|-------------------|---------------|----------------------------------------------|
A|------------------|-------------------|---------------|----------------------------------------------|
E|------------------|-------------------|---------------|----------------------------------------------|

Chorus 2:30.                                                     x2 break 4:32 pm...
e|---------10--13\-10----------------------------------------------|-----------11-X-X-X----------------|
B|------11- 8---x---8--11--8------7h8~ ------/8~ --/8-11--8--------|-----------11-X-X

Oh You Are The Roots That Sleep Beneath My Feet And Hold The Earth In Place chords – Bright Eyes V2

 The version that was already up here had the interlude all wrong 
and a lot of the chords were misplaced throughout the song. 
This one should be more accurate. Enjoy!


    D Bm 
I met you through a common friend
           G D 
in the attic of my parent's house
          D Bm  
and though I didn't know it then
    G A  
I soon was finding out
              Bm G 
you are the roots that sleep beneath my feet 
      D A 
and hold the earth in place
              Bm  
each time a faucet opens
 G 
words are spoken
     D A 
the water runs away 
                 G 
and I hear your name
             D 
no, nothing has changed 


 D Bm G D D Bm 
there was this book I read and loved
       G D 
the story of a ship
         D Bm 
who sailed around the world and found
       G A 
that nothing else exists
            Bm 
beyond his own two sails
      G 
and wooden shell 
     D A 
and what is held within
             Bm 
all else is sure to pass
     G  
we clutch and grasp
      D A 
and debate what's truly permanent
                             G 
but when the wind starts to shift
                D 
there's no argument

[Interlude]
    D A  
I sing and drink and sleep on floors
      Bm G               
and try hard not to be annoyed
     F# Bm A 
by all these people worrying about me
   D A   
so when I'm suffering through some awful drive
          
        D G 
you occasionally cross my mind
          D Bm A 
it's my hidden hope that you are still among them

well are you?

[Interlude]
                 D G 
Oh, you are the roots that sleep beneath my feet 
       D A 
and hold the earth in place
               D 
each time a curtain opens
   G 
sunlight pours in
     D A 
a lifetime melts away
              G 
and we share a name
                      D 
on some picturesque grave

Resolve Tabs by Arcane Roots

 B|--14--| listen to track for rhythm pattern
G|--14--|

Intro
B|-----------------------------------------------------------|
G|-----------------------------------------------------------|
D|--2-4--4-4--4-4--4-4--4-4---4------7--7-7-77----9--9-9-99--|
A|--2-4--4-4--4-4--4-4--4-4---4------7--7-7-77----9--9-9-99--|
E|--0-2--0-2--0-2--0-2--0-2---0h2--0-5--0-5-05--0-7--0-7-07--|

B|-----------------------------------------------------------|
G|-----------------------------------------------------------|
D|--2-4--4-4--4-4--4-4--4-4---4------6--6-6-66----6--6-6-66--|
A|--2-4--4-4--4-4--4-4--4-4---4------7--7-7-77----6--6-6-66--|
E|--0-2--0-2--0-2--0-2--0-2---0h2--0-5--0-5-05--0-4--0-4-04--|

Verse (Crunch+delay)
E|-----------------------------------------------|
B|---------------------14------------------------|
G|------------------------13b(14)----------------|x4  *only play on  
D|---14-------------------------------13*--------|     4th repeat
A|------16---------------------------------------|
E|-----------------------------------------------|

Pre-chorus
E|--------------------------------------------------------------|
B|---t14p10p9---------------------------------------------------|
G|-------------t13p11p9--t13-p9---t13p11p9h11-------------------|
D|--------------------------------------------------t14--/--16--|
A|---------------------------------------------9h11-----h12-----|
E|--------------------------------------------------------------|

E|-----------------------------------------------------------------|
B|---t14p10p9------------------------------------------------------|
G|-------------t13p11p9--t13-p9---t13p11p9h11----------------------|
D|--------------------------------------------------t14--/--16\14--|
A|---------------------------------------------9h11-----h12--------|
E|-----------------------------------------------------------------|

Chorus
E|-----------(0)-----(0)------|
B|-----------(0)-----(0)------|
G|------------6-------8-------|
D|--4---------7-------9-------|
A|--4---------7-------9-------|x2
E|--2---------5-------7-------|

E|-------------0-----0------|    |--0-------0-------|
B|-------------0-----0------|    |--0-------0-------|
G|--6----------9-----8------|x3  |--6-------8-------|
D|--7----------x-----x------|    |--7-------9-------|
A|--7----------7-----6------|    |--7-------9-------|
E|--5----------9-----7------|    |--5-------7-------|

Break
B|-----------------------------------------------------------|
G|-----------------------------------------------------------|
D|--2-4--4-4--4-4--4-4--4-4---4------7--7-7-77----9--9-9-99--|
A|--2-4--4-4--4-4--4-4--4-4---4------7--7-7-77----9--9-9-99--|
E|--0-2--0-2--0-2--0-2--0-2---0h2--0-5--0-5-05--0-7--0-7-07--|

B|-----------------------------------------------------------|
G|-----------------------------------------------------------|
D|--2-4--4-4--4-4--4-4--4-4---4------6--6-6-66----6--6-6-66--|
A|--2-4--4-4--4-4--4-4--4-4---4------7--7-7-77----6--6-6-66--|
E|--0-2--0-2--0-2--0-2--0-2---0h2--0-5--0-5-05--0-4--0-4-04--|

Verse (Crunch+delay)
E|-----------------------------------------------|
B|---------------------14------------------------|
G|------------------------13b(14)----------------|x2  *only play on  
D|---14-------------------------------13*--------|     4th repeat
A|------16---------------------------------------|
E|-----------------------------------------------|

Pre-chorus
E|--------------------------------------------------------------|
B|---t14p10p9---------------------------------------------------|
G|-------------t13p11p9--t13-p9---t13p11p9h11-------------------|
D|--------------------------------------------------t14--/--16--|
A|---------------------------------------------9h11-----h12-----|
E|--------------------------------------------------------------|

E|-----------------------------------------------------------------|
B|---t14p10p9------------

Triptych Tabs by Arcane Roots

 ---------------------------------------------------
                Arcane Roots - Triptych
---------------------------------------------------

: Adam Doe
E-mail   : adamsdoe90


Tuning - Standard

Effects: Distortion, Octaver

Key:

[X] - Mute
[m] - Palm Mute
[v] - Vibrato
[*] - Pinch Harmonic


I actually got to meet Andrew after the band supported Coheed and Cambria
and i had the chance to ask him about how he played the intro, so massive 
thanks to him for pointing me in the right direction! I think this is very
close to, if not exactly what he plays. As for the middle section, i've
broken it down into parts, because it's mental. Best thing is to just listen
to the song for the rhythms and timings. A stunning track by a truly 
amazing band, enjoy!



[Verse]

E|-------------------------------------0h5h7p5p0-------------------------|       
B|-----0h7h8p7p0---------------------------------10p8p0h8p7p0h7h8p7p0----|               
G|-----------------7h9p7p0--0h7h9p0--------------------------------------| X8            
D|-----------------------------------------------------------------------|      
A|-----------------------------------------------------------------------|     
E|--0--------------------------------0-----------------------------------|       

E|-------------|
B|-------------|    [End of
G|------*10b9--|    verse 2]
D|-------------|
A|-------------|
E|--0----------|


[Chorus]

E|-0---0--0--0-------|
B|-0---0--0--0-------|
G|-9---x--x--x-------|  X2
D|-9--10--7--5--4----|
A|-7--10--7--5--4----|
E|-----8--5--3--2----|



[Bridge]

E|------------|
B|------------|
G|---12-------|
D|------------|
A|---10-------|
E|------------|


[VERSE]


[CHORUS]


[Bridge #2]
 
E|-------------------|
B|-------------------|
G|--12--11--14--13---|  X2
D|-------------------|
A|--10--9---12--11---|
E|-------------------|



  
[Middle Section - Part I]


E|---------------------------------------------------------------------------|
B|---------------------------------------------------------------------------|
G|-----------3-3-3----------------------------------3---3-3-3---3-3-3-3-3-3--|
D|-8\--------2-2-2----8\---------8\-----------------2---2-2-2---2-2-2-2-2-2--|
A|-7\--------1-1-1----7\---------7\------1----------1---1-1-1---1-1-1-1-1-1--|
E|-6\--2-3-x-0-0-0-x--6\--2-3-x--6\--2-3---2--3p2p0-0-x-0-0-0---0-0-0-0-0-0--| 


E|---------------------------------------------------------------------------|
B|---------------------------------------------------------------------------|
G|--3-3-3----------------------------------------------3--3--3--3--3---------|
D|--2-2-2----------------------------------------------2--2--2--2--2--3------|
A|--1-1-1---------------------------------1--1---------1--1--1--1--1---------|
E|--0-0-0-x---12\--2--2--2--2h3---3--3--0--------2--3--0--0--0--0--0---------|
                    [m][m]      [m][m]
 

E|-------------------------------------|
B|-------------------------------------|
G|-3--3--3---------3--3--3--3----------|
D|-2--2--2--3---1--2--2--2--2----------|
A|-1--1--1---------1--1--1--1----------|
E|-0--0--0----0----0--0--0--0----------|


(This where I turn the octaver on, i'm not sure what he actually does
or whether he uses one but it sounded right)
E|---------------------------------------------------------------------------|
B|---------------------------------------------------------------------------|
G|---------------------------------------------------------------------------|
D|-----3--------1--------3-------1-----3--1-----3--------1--------------1----|
A|---------------------------------------------------------------------------|
E|--2-----1--2-----2--3----1--2-----2--------0-----1--2-----2--3--0--1-----2-|


E|------------------------------|
B|------------------------------|
G|------------------------------|
D|-3--1-----------1-----3--1--

Second Breath Tabs by Arcane Roots

 Intro
E|----------------------------------|
B|----------------------------------|
G|----------------------------------|
D|--7-7-7-7-7-7-7-7--7-7-7-7-7-7-7--|
A|--5-5-5-5-5-5-5-5--5-5-5-5-6-6-6--|
E|----------------------------------|

Verse
E|----------------------------------|
B|----------------------------------|
G|--8-7-7-7-7-7-7-7--7-7-7-7-8-8-8--|
D|--7-7-7-7-7-7-7-7--7-7-7-7-7-7-7--|x2
A|--6-5-5-5-5-5-5-5--5-5-5-5-6-6-6--|
E|----------------------------------|
                                                        PM------     
E|----------------------------------------------------------------|
B|----------------------------------------------------------------|
G|----------------------------------------------------------------|
D|-5-5-5-5-6-6-6-6--5-5-5-6-6-6-6-5-5-5-5-6-6-6-6--5-5-5-5-6-7-8--|
A|-5-5-5-5-5-5-5-5--5-5-5-5-5-5-5-5-5-5-5-5-5-5-5--5-5-5-5-6-7-8--|
E|-3-3-3-3-4-4-4-4--3-3-3-4-4-4-4-3-3-3-3-4-4-4-4--3-3-3-3-4-5-6--|

E|----------------------------------|
B|----------------------------------|
G|--8-7-7-7-7-7-7-7--7-7-7-7-8-8-8--|
D|--7-7-7-7-7-7-7-7--7-7-7-7-7-7-7--|x2
A|--6-5-5-5-5-5-5-5--5-5-5-5-6-6-6--|
E|----------------------------------|

E|----------------------------------------------------------------|
B|----------------------------------------------------------------|
G|----------------------------------------------------------------|
D|-5-5-5-5-6-6-6-6--5-5-5-6-6-6-6-5-5-5-5-6-6-6-6--5-5-5-6-6-6-6--|
A|-5-5-5-5-5-5-5-5--5-5-5-5-5-5-5-5-5-5-5-5-5-5-5--5-5-5-5-5-5-5--|
E|-3-3-3-3-4-4-4-4--3-3-3-4-4-4-4-3-3-3-3-4-4-4-4--3-3-3-4-4-4-4--|

Pre Chorus                                                        NH
E|----------------------------------|---------------------------------|
B|----------------------------------|---------------------------------|
G|----------------------------------|-----------------------------5---|
D|----------------------------------|-----------------------------5---|
A|----------------------------------|---------------------------------|
E|--4-3-0-1-3-0-4-3-0-1-3-4-3-0-1-3-|-4-3-0-1-3-0-4-3-0-1-3-4-3-0-----|

Chorus
E|-----------------------------------|    |----------|
B|-----------------------------------|    |----0-----|Feedback into next section
G|--7-7---1010--1010--------10101010-|    |----0-----|
D|--7-7---1010--------9-9-9-9-9-9-9--|x4  |----0-----|
A|--5-5---8-8---1010--8-8-8-8-8-8-8--|    |----0-----|
E|--------------8-8---7-7-7-7-7-7-7--|    |----------|

Pre Chorus                                                         NH
E|----------------------------------|---------------------------------|
B|----------------------------------|---------------------------------|
G|----------------------------------|------------------------------5--|
D|----------------------------------|------------------------------5--|
A|----------------------------------|---------------------------------|
E|--4-3-0-1-3-0-4-3-0-1-3-4-3-0-1-3-|-4-3-0-1-3-0-4-3-0-1-3-4-3-0-----|

Chorus
E|-----------------------------------|    
B|-----------------------------------|    
G|--7-7---1010--1010--------10101010-|    
D|--7-7---1010--------9-9-9-9-9-9-9--|x4  
A|--5-5---8-8---1010--8-8-8-8-8-8-8--|    
E|--------------8-8---7-7-7-7-7-7-7--| 

E|------------------------------------|
B|------------------------------------|
G|-7-------------6--------------------|
D|-8-------------7--------------------|
A|-8-------------7--------------------|
E|-6-------------5--------------------|

Break
E|-----------------------------------------------------------------------|
B|-----------------------------------------------------------------------|
G|---------------------------8-------------------------------------------|
D|-----------------------------------------------------------------------|x2
A|--5---5--6-5--5-6b---5--5----5-6b---5---5--6-5--5-6b-------------------|
E|------------------------------------------------------4-3-0-1-

Roots chords – Orla Gartland V2

 Capo:4

Intro: 
e|-------------0---------------|
B|-----1----3-----1------------|
G|-------0----------0----------|
D|-----------------------------|
A|--3------------------3-------|
E|-----------------------------|


Verse: 
   
    C 
Light don't stick to you
                    F 
Like they used to do 

Think you've lost your shine

    C 
Wishing days away
                 F 
Busy chasing trains

Leaving us behind


PreChorus:

    Am G 
Let's get a ticket for those tracks 
                                 F 
Don't say a word and don't look back

Let's get out of here (x2)
     Am G 
We can get lost between the rails
                              F 
We've never been afraid to fail

Chorus:
     C 
If you dig up your roots
                       F 
Then I'll dig up my roots

And we can take them with us
              C 
Wherever we go

And all that we are
                      F 
Is in the beat of hearts 

And I know we're ready
                    Am , G , F C  
To dive into the unknown, 'cause I'm caught in the middle
   Am G F C 
I'd rather break out on my own, than be caught in the middle


Verse 2: 
 C 
Sights set to the sky
                   F 
Sick of standing by
    
Getting itchy feet
  
 C 
Need some new places
                    F 
Meet some fresh faces

No one left to please

(PreChorus)
(Chorus)

 Am G 
We're carrying our roots
                  Am 
In everything we do
                            G 
You know there's nothing left here for us  

 Am G 
We've got everything we need
                               Am 
It takes a leap to plant the seed
                             G 
You know there's nothing left here for us

(Chorus x2) 


With Roots Above And Branches Below Tab by The Devil Wears Prada

Song: Sassafras
Band: The Devil Wears Prada

Tuning: Drop D (D A D G B E)

Tabbed by: BILLYutm

-----------------------

PM or - = palm mute
T = tremolo pick
~ = hold note
* = harmonic
B = bend
x = silent/muted

-----------------------

NOTE: Guitar III is sort of overlayed behind both guitars, playing through both 
speakers. It's sorta difficult to hear sometimes.

Intro (0:04 - 0:13) play twice

Guitar I
|----------------------------------|
|----------------------------------|
|----------------------------------|
|----------------------------------|
|-1-----1---------------------5----|
|---0-0---x-0-x-1-0-1h4-x-0-0---x--|
PM  - -   -   -   -     -   -   -

|---------------------------|
|---------------------------|
|---------------------------|
|---------------------------|
|-1-----1---------------1~--|
|---0-0---x-7-0-4-0-3-x-1~--|
PM  - -   -   -   -   -

Guitar II
|-----------------------------|
|-----------------------------|
|-----------------------------|
|-0~--------------------------|
|-0~--------------------------|
|-0~--------------------------|

(0:14 - 0:32) play twice

Guitars I, II
|---------------------------------|x3
|---------------------------------|
|---------------------------------|
|---------------------------------|
|-0-0-0-0--0-0-0-0-0-0--0-0-0-0---|
|-1-1-1-1--1-1-1-1-1-1--1-1-1-1---|
PM- - - -  - - - - - -  - - - -

then
|----------------------------|
|----------------------------|
|----------------------------|
|----------------------------|
|-0-0-0-0--0-0--0000--0000---|
|-1-1-1-1--1-1--1111--1111---|
PM- - - -  - -  ----  ----

(0:33 - 0:37)

Guitar I
|----------------------------------|
|----------------------------------|
|----------------------------------|
|----------------------------------|
|-1-----1---------------------5----|
|---0-0---x-0-x-1-0-1h4-x-0-0---x--|
PM  - -   -   -   -     - -     -

|---------------------------|
|---------------------------|
|---------------------------|
|---------------------------|
|-1-----1---------------1~--|
|---0-0---x-7-0-4-0-3-x-1~--|
PM  - -   -   -   -   -

Guitar II
|-----------------------------|
|-----------------------------|
|-----------------------------|
|-0~--------------------------|
|-0~--------------------------|
|-0~--------------------------|

Verse (0:38 - 0:46)

Guitars I, II
|----------------------------------|
|----------------------------------|
|----------------------------------|
|----------------------------------|
|-1-----1---------------------5----|
|---0-0---x-0-x-1-0-1h4-x-0-0---x--|
PM  - -   -   -   -     - -     -

|---------------------------|
|---------------------------|
|---------------------------|
|---------------------------|
|-1-----1---------------1~--|
|---0-0---x-7-0-4-0-3-x-1~--|
PM  - -   -   -   -   -

(0:47 - 0:56) play twice

Guitars I, II
|--------------------------------------|
|--------------------------------------|
|--------------------------------------|
|--------------------------------------|
|-000--000-000--000--000-000-000--000--|
|-000--000-000--000--000-000-000--000--|
PM---  --- ---  ---  --- --- --- ---

Guitar III (tremolo picked, kinda quiet)
|-----------------------------|
|-----------------------------|
|-----------------------------|
|-----------------------------|
|-5---------------------------|
|----8-7-8-7-5-8-5-3-5-3--1---|

Interlude (0:58 - 1:05)

Guitar I
|-----------------------------------------|
|-----------------------------------------|
|-----------------------------------------|
|-----------------------------------------|
|--------------------0~-------------------|
|-000--000-000--000--0~--4-3-1-0-4-3-1-0--|
PM---  --- ---  ---      - - - - - - - -

Guitar II
|-----------------------------------------|
|-----------------------------------------|
|-----------------------------------------|
|-----------------------------------------|
|--------------------0~-------------------|
|--------------------0~--4-3-1-0-4-3-1-0--|
                         - - - - - - - -

Guitar III (has some sort of delay effect)
|------------------------------|
|------------------------------|
|-10(x8)--9(x8)--7(x8)---------|
|-----------------------7(x8)--|
|------------------------------|
|------------------------------|

(contd.)
Guitar I
|-------------------------------------|
|-------------------------------------|
|-------------------------------------|
|-------------------------------------|
|-0----------1--0---------------------|
|-0----------1--0--0-0-4-3-1-0--3b*---|
PM                 - - - - - -

Guitar II
|-------------------------------------|
|-------------------------------------|
|-------------------------------------|
|-------------------------------------|
|-0----------1--0---------------3b*---|
|-0-000-000--1--0--0-0-4-3-1-0--------|
PM  --- ---        - - - - - -

Guitar III (has some sort of delay effect)
|--------------------------|
|--------------------------|
|-10(x8)--9(x6)--12(x18)---|
|--------------------------|
|--------------------------|
|--------------------------|

(1:06 - 1:24) play twice

Guitars I, II
|-------------------------------------------|
|-------------------------------------------|
|-------------------------------------------|
|-------------------------------------------|
|-000--000-000--000--000-000-000-000--000---|
|-000--000-000--000--000-000-000-000--000---|
PM---  --- ---  ---  --- --- --- ---  ---

Guitar III
|------------------------------|
|------------------------------|
|-10(x8)--9(x8)--7(x8)---------|
|--x------x------x------7(x8)--|
|--8------7------5------x------|
|-----------------------7------|

(contd.)
Guitars I, II
|-------------------------------------------|
|-------------------------------------------|
|-------------------------------------------|
|-------------------------------------------|
|-000--000-000--000--000-000-000-000--000---|
|-000--000-000--000--000-000-000-000--000---|
PM---  --- ---  ---  --- --- --- ---  ---

|---------------------------------|
|---------------------------------|
|-10(x8)--9(x6)--17(x10)--12(x8)--|
|--x------x-------x--------x------|
|--8------7------15-------10------|
|---------------------------------|

(1:25 - 1:42) play twice

Guitar I
|----------------------------------|
|----------------------------------|
|----------------------------------|
|----------------------------------|
|-5-----5-----5---8-----8-----8----|
|---0-0---0-0---0---0-0---0-0---0--|
PM  - -   - -   -   - -   - -   -

Guitar II
|--------------|
|--------------|
|--------------|
|-0~-----------|
|-0~-----------|
|-0~-----------|

|----------------------------------------|
|----------------------------------------|
|----------------------------------------|
|----------------------------------------|
|-10-----10-----10---12-----12-----12----|
|----0-0----0-0----0----0-0----0-0----0--|
PM   - -    - -    -    - -    - -    -

Guitar II
|--------------|
|--------------|
|--------------|
|-0~-----------|
|-0~-----------|
|-0~-----------|

(contd.)
Guitar I
|----------------------------------|
|----------------------------------|
|----------------------------------|
|----------------------------------|
|-5-----5-----5---8-----8-----8----|
|---0-0---0-0---0---0-0---0-0---0--|
PM  - -   - -   -   - -   - -   -

Guitar II
|--------------|
|--------------|
|--------------|
|-8~-----------|
|-8~-----------|
|-8~-----------|

|----------------------------------------|
|----------------------------------------|
|----------------------------------------|
|----------------------------------------|
|-10-----10-----10---12-----12-----12----|
|----0-0----0-0----0----0-0----0-0----0--|
PM   - -    - -    -    - -    - -    -

Guitar II
|--------------|
|--------------|
|--------------|
|-8~-----------|
|-8~-----------|
|-8~-----------|

(1:42 - 1:44)

Guitar III
|---------------------|
|---------------------|
|---------------------|
|---------------------|
|---------------------|
|-0--0-0--0--0-0--0-0-|
PM   - -     - -

Breakdown (1:44 - 2:03) play twice

Guitars I, II
|---------------------------------|x3
|---------------------------------|
|---------------------------------|
|---------------------------------|
|-0-0-0-0--0-0-0-0-0-0--0-0-0-0---|
|-0-0-0-0--0-0-0-0-0-0--0-0-0-0---|
PM- - - -  - - - - - -  - - - -

then
|----------------------------|
|----------------------------|
|----------------------------|
|----------------------------|
|-0-0-0-0--0-0--0000--0000---|
|-0-0-0-0--0-0--0000--0000---|
PM- - - -  - -  ----  ----

PAUSE, FADE

Guitars I, II
|-------------|
|-------------|
|-------------|
|-0~~---------|
|-0~~---------|
|-0~~---------|

Chorus (2:05 - 2:43) play four times

Guitar I
|-------------------------------|
|-------------------------------|
|-7(x12)---14(x4)---12(x16)-----|
|-x---------x--------x----------|
|-5--------12-------10----------|
|-------------------------------|

Guitar II
|---------------------------------|
|---------------------------------|
|---------------------------------|
|---------------------------------|
|-8-8-8-8-8-8-8-8-5-5-5-5-5-5-5-5-|
|-8-8-8-8-8-8-8-8-5-5-5-5-5-5-5-5-|

(contd.)
Guitar I
|-------------------------------|
|-------------------------------|
|-7-(x16)---9-(x6)---17(x10)----|
|-x-----------------------------|
|-5-----------------------------|
|-------------------------------|

Guitar II
|---------------------------------|
|---------------------------------|
|---------------------------------|
|---------------------------------|
|-0-0-0-0-0-0-0-0-0-0-0-0-0-0-0-0-|
|-0-0-0-0-0-0-0-0-0-0-0-0-0-0-0-0-|

(2:44 - 2:48)

Guitar III
|------------------------|
|------------------------|
|--7-(x28)---------------|
|--x---------------------|
|--5---------------------|
|-----------TREMOLO BAR--|

(2:49 - 2:57) play twice

Guitars I, II
|-------------------------------|x4
|-------------------------------|
|-------------------------------|
|-0--12\------------------------|
|-0--12\---0-0-0x---0-0x-0x-0x---|
|-0--12\---0-0-0x---0-0x-0x-0x---|

Guitar III
|------------|
|-7-(x32)----|
|-x----------|
|-5----------|
|------------|
|------------|

(2:58 - 3:05)

Guitars I, II
|-------------------------------|x2
|-------------------------------|
|-------------------------------|
|-0--12\------------------------|
|-0--12\---0-0-0x---0-0x-0x-0x---|
|-0--12\---0-0-0x---0-0x-0x-0x---|

Guitar III (after second time)
|-------------------------------------------------|
|-------------------------------------------------|
|-10-10-10-10-10-10-10-10-12-12-12-12-12-12-12-12-|
|--x--x--x--x--x--x--x--x--x--x--x--x--x--x--x--x-|
|--8--8--8--8--8--8--8--8-10-10-10-10-10-10-10-10-|
|-------------------------------------------------|

Outro (3:06 - 3:12)

Guitar I
|-------------------------------------------------|
|-------------------------------------------------|
|-14-14-14-14-14-14-14-14-14-14-14-14-14-14-14-14-|
|--x--x--x--x--x--x--x--x--x--x--x--x--x--x--x--x-|
|-12-12-12-12-12-12-12-12-12-12-12-12-12-12-12-12-|
|-------------------------------------------------|

Guitar II
|-------------------------------------------------|
|-------------------------------------------------|
|-10-10-10-10-10-10-10-10-10-10-10-10-10-10-10-10-|
|--x--x--x--x--x--x--x--x--x--x--x--x--x--x--x--x-|
|--8--8--8--8--8--8--8--8--8--8--8--8--8--8--8--8-|
|-------------------------------------------------|

(contd.)
Guitar I
|-------------------------------------------------|
|-------------------------------------------------|
|-15-15-15-15-15-15-15-15-17-17-17-17-17-17-17-17-|
|--x--x--x--x--x--x--x--x--x--x--x--x--x--x--x--x-|
|-13-13-13-13-13-13-13-13-15-15-15-15-15-15-15-15-|
|-------------------------------------------------|

Guitar II
|-------------------------------------------------|
|-------------------------------------------------|
|-12-12-12-12-12-12-12-12-14-14-14-14-14-14-14-14-|
|--x--x--x--x--x--x--x--x--x--x--x--x--x--x--x--x-|
|-10-10-10-10-10-10-10-10-12-12-12-12-12-12-12-12-|
|-------------------------------------------------|

(3:13 - END)

Guitars I, II
|---------------------|
|---------------------|
|---------------------|
|-0--12\--------------|
|-0--12\---0x-0x-0x---|
|-0--12\---0x-0x-0x---|

===============================================================

Song: I Hate Buffering
Band: The Devil Wears prada

Tuning: Drop B

Tabbed by: BILLYutm

|--------------------------------------------------------------------------|
|--------------------------------------------------------------------------|
|7----------7/10--10--------10/9-9--------9/6--6---------------------------|
|x--000-----x/x----x--000----x/x-x--000---x/x--x---------------------------|
|5--000-x6--5/8----8--000x2--8/7-7--000x2-7/4--4---------------------------|
|---000---------------000-----------000------------------------------------|
     ...               ...           ...
|--------------------------------------------------------------------------|
|--------------------------------------------------------------------------|
|-------7/10-10--------10/9-9--------9/10-10-------------------------------|
|000----x/x---x--000----x/x-x-000----x/x---x----000------------------------|
|000x6--5/8---8--000x2--8/7-7-000x2--7/8---8----000x6----------------------|
|000-------------000----------000---------------000------------------------|
 ...             ...          ...               ...
|--------------------------------------------------------------------------|
|--------------------------------------------------------------------------|
|10/14-14---------14/12-12----------12/9-9---------------------------------|
|-x/-x--x--000-----x/-x--x--000------x/x-x---000---------------------------|
|-8/12-12--000x2--12/10-10--000x2---10/7-7---000x6-------------------------|
|----------000--------------000--------------000---------------------------|
           ...              ...              ...
|-------------------------------------------------------------------|
|-------------------------------------------------------------------|
|10/14-14---------14/12-12----------12/7-7--------------------------|
|-x/-x--x--000-----x/-x--x--000------x/x-x--------------------------|
|-8/12-12--000x2--12/10-10--000x2---10/5-5--------------------------|
|----------000--------------000-------------------------------------|
           ...              ...
|--------------------------------------------------------------------------|
|--------------------------------------------------------------------------|
|----7---------------------------------------------------------------------|
|0---x--0--------------------------------0------0-0--0-0-------------------|
|0---5--0----------10-12-8-10-7-8-5-7----0------0-0--0-0-------------------|
|0------0--------------------------------0------0-0--0-0-------------------|
  .      .         ^(tremelo palm mute)^  .        .
(figure out pattern for mutes)

|--------------------------|-first time-----|-second time-----|
|--------------------------|----------------|-----------------|
|10-------12--------14-----|-14/15/14/10/12-|--9h10p9----7~---|(x2)
|x-(x8)----x-(x8)----x(x8)-|--x/-x/-x/-x/-x-|---------10------|
|8--------10--------12-----|-12/13/12/-8/10-|-----------------|
|--------------------------|----------------|-----------------|

|-------Other guitar----------------------------|
|-----------------------------------------------|
|-7---------------------------------------------|
|-x--------(with a bend now and then)-----------|
|-5---------------------------------------------|
|-----------------------------------------------|

|---------|---|-----(this)-------|---(or this)----------|Either of these
|---------|---|------------------|--------13--13--------|work after two
|---------|---|---------17-------|10--10----------------|of the first part
|0-0---00-|(x2)--14------x(x4)---|--14--14--14--14------|
|0-0---00-|---|--12(x4)-15-------|----------------------|
|0-0---00-|---|------------------|----------------------|
    .

|--------------------------------------------------------------------------|
|--------------------------------------------------------------------------|
|--------------------------------------------------------------------------|
|0~--p/----8-7-0-00------------0-0-0--000---8-0-0--------0-0--10-0-0-------|
|0~--p/----8-7-0-00---12-10-8--0-0-0--000x2-8-0-0--10-12-0-0--10-0-0-12-15-|
|0~--p/----8-7-0-00-----0--0---0-0-0--000---8-0-0----0---0-0--10-0-0---0---|
                  ..     .  .   . . .  ...     . .    .   . .     . .   .

|--------------------------------------------------------------------------|
|--------------------------------------------------------------------------|
|--------------------------------------------------------------------------|
|-00-0-00-----------0-0-0--000---0-00-10---00-0-00-8----0-0-0--------------|
|-00-0-00--12-10-8--0-0-0--000x2-0-00---12-00-0-00--12--0-0-0---+10--------|
|-00-0-00----0--0---0-0-0--000---0-00------00-0-00------0-0-0--------------|
   ..   ..    .  .   . . .  ...     ..      ..   ..      . . .
|--------------------------------------------------------------------------|
|--------------------------------------------------------------------------|
|--------------------------------------------------------------------------|
|0-0-0--000------------10-----------8------0-0-0-------0-0-0-000-----------|
|0-0-0--000x2------------12----------12----0-0-0-+10---0-0-0-000x2---------|
|0-0-0--000-----0-0-0-------0-0-0----------0-0-0-------0-0-0-000-----------|
  . . .  ...     . . .       . . .          . . .       . . . ...
|--------------------------|-----------------------|--{21}-----------------|
|--------------------------|-----------------------|-----{21}--------------|
|--------------------------|-----------------------|---------{21}----------|
|------10------------8-----|(x2)----0~----00--0-0-0|(x2)---------{21}------|
|--------12-----------12---|--------0~----00--0-0-0|-----------------------|
|0-0-0--------0-0-0--------|--------0~----00--0-0-0|-----------------------|
  . . .        . . .                       ..  . . .

|------------------------------------|------------|
|------------------------------------|------------|
|------------------------------------|------------|
|8------10-------12--------10--------|(x4)--------|
|8(x16)-10(x16)--12(x16)---10(x16)---|------------|
|8------10-------12--------10--------|------------|

The ending is...
|---------|---|-----(this)-------|---(or this)----------|Either of these
|---------|---|------------------|--------13--13--------|work after two
|---------|---|---------17-------|10--10----------------|of the first part
|0-0---00-|(x2)--14------x(x4)---|--14--14--14--14------|
|0-0---00-|---|--12(x4)-15-------|----------------------|
|0-0---00-|---|------------------|----------------------|
    .
...with some pull offs on a low note towards the end.

{ } =Harmonic
+   =Pinch

=========================================================================

Assistant to the Regional Manager
The Devil Wears Prada
With Roots Above and Branches Below
Tabbed by: Conner
Email: www.youtube.com/KillswitchEngage42
I have a video up on Youtube under the name KillswitchEngage42. Check it out :) Rate and 
please too. And if you have corrections, which there probably will be, Just leave a 
and I'll fix it.

Tuning: Drop B

Intro: WIth Delay x however many, I think you can figure it out
e|----8---------------------------------------------------------------------|
B|-------6-8-10-----10--8-6-------------------------------------------------|
G|-7-------------7----------------------------------------------------------|
D|--------------------------------------------------------------------------|
A|--------------------------------------------------------------------------|
E|--------------------------------------------------------------------------|

Little verse thing :) x2
e|--------------------------------------------------------------------------|
B|--------------------------------------------------------------------------|
G|--------------------------------------------------------------------------|
D|--------------------------------------------------------------------------|
A|--------------------------------------------------------8--8--8/12-10-8---|
E|000-15-00-1414-14\-0000-888-00-33---000-15-00-1414--0000--0--0------------|
  ...    ..          ....     ..      ...    ..       ....  .  .

Clean vox part: Love Jeremy's voice here
e|--------------------------------------------------------------------------|
B|--------------------------------------------------------------------------|
G|--------------------------------------------------------------------------|
D|------------------------33-3---33-3---33-33-------------------------------|
A|00-0---00-0---00-00-x2--11-1---11-1---11-11---55-5---55-5---55-55---------|
E|00-0---00-0---00-00---------------------------55-5---55-5---55-55---------|
  .      .      .. .      .      .      .. .    .      .      .. .

Beautiful sweeping part with delay x2
e|17p13-------13h17p13-------------------------------------------------------|
B|-----15---15--------15-----------------------------------------------------|
G|-------14-------------14--14h15p14-----------------------------------------|
D|----------------------------------15h17-14h15p14---------------------------|
A|------------------------------------------------15h17----------------------|
E|---------------------------------------------------------------------------|

e|17p13------13h17p13--------------------------17/20-------------------------|
B|-----15--15--------15------------------------------------------------------|
G|-------14------------14--14h15p14------17\14-------------------------------|
D|---------------------------------15h17-------------------------------------|
A|---------------------------------------------------------------------------|
E|---------------------------------------------------------------------------|

Bridge to next verse with open B power chords
e|--------------------------------------------------------------------------|
B|--------------------------------------------------------------------------|
G|--------------------------------------------------------------------------|
D|--------------------------------------------------------------------------|
A|0-0-0-0-0-0-0-0-----------------------------------------------------------|
E|0-0-0-0-0-0-0-0-PICK SLIDE -----------------------------------------------|

Verse sort of deal- the little fill riff in the left speaker I'm not sure about so leave 
comment of what you think it is :)
e|--------------------------------------------------------------------------|
B|--------------------------------------------------------------------------|
G|--------------------------------------------------------------------------|
D|--------------------------------------------------------------------------|
A|---7-5-----8-7--0000000000000000-second time-000-000-000-000--------------|
E|55--5---88--8---0000000000000000-------------000-000-000-000--------------|
   .  .    .  .   ................             ... ... ... ...

Love the Keys here
e|--------------------------------------------------------------------------|
B|--------------------------------------------------------------------------|
G|--------------------------------------------------------------------------|
D|--------------------------------------------------------------------------|
A|000-000-000-000-000-000-000---000-000-0h8h12-0h812-0h7h10-0h5h8-----------|
E|000-000-000-000-000-000-000---000-000-------------------------------------|
  ... ... ... ... ... ... ...   ... ...

e|--------------------------------------------------------------------------|
B|--------------------------------------------------------------------------|
G|--------------------------------------------------------------------------|
D|--------------------------------------------------------------------------|
A|000-000-000-000-000-000-000---000-000-0h7h10-0h7h10-0h5h8-0h4h7-----------|
E|000-000-000-000-000-000-000---000-000-------------------------------------|
  ... ... ... ... ... ... ...   ... ...
this part x2 except the last time

e|--------------------------------------------------------------------------|
B|--------------------------------------------------------------------------|
G|--------------------------------------------------------------------------|
D|----------------------------------------------------------------0---------|
A|000-000-000-000-000-000-000---000-000-0h7h10-0h7h10-0h5h8-0h4h5-0hold-----|
E|000-000-000-000-000-000-000---000-000---------------------------0---------|
  ... ... ... ... ... ... ...   ... ...

With delay
e|------------------------------------------------17--17---------------------|
B|15--1515--1515--18--1818----18--15--1515--15-------------------------------|
G|--17----17----17--17----1717--17--17----17--1717--17-----------------------|
D|---------------------------------------------------------------------------|
A|---------------------------------------------------------------------------|
E|---------------------------------------------------------------------------|

e|--------------------------------------------------------------------------|
B|--------------------------------------------------------------------------|
G|--------------------------------------------------------------------------|
D|--------------------------------------------------------------------------|
A|0000000000000000-333333333333333-0000000000000000-5555555588888888--------|
E|0000000000000000-333333333333333-0000000000000000-5555555588888888--------|
  THe next is same but palm muted

The first verse repeated but with an exta 8/12 10 8 at the end and then...
e|--------------------------------------------------------------------------|
B|--------------------------------------------------------------------------|
G|--------------------------------------------------------------------------|
D|--------------------------------------------------------------------------|
A|8-3---------------0321012--------------0320-------------------------------|
E|8-3--11-1~-11-1~--0321012--11-1~-11-1~-0320-------------------------------|
       .     .               .     .
Breakdown
e|--------------------------------------------------------------------------|
B|--------------------------------------------------------------------------|
G|--------------------------------------------------------------------------|
D|--------------------------------------------------------------------------|
A|00-00-0-0--0-0-0-0--00-00-0-0-0-0-0000------x2----------------------------|
E|00-00-0-0--0-0-0-0--00-00-0-0-0-0-0000slide-------------------------------|  .. .. . . 
. . . .  .. .. . . . . ....

All the rest includes palm muted 1's instead of palm muted 0's. And then go back and 
the same pattern that is listed above to end the song.

| /  slide up
| \  slide down
| h  hammer-on
| p  pull-off
| ~  vibrato

====================================================================

Tabbed by: BILLYutm

Song: Dez Moines
Band: The Devil Wears Prada

Tuning:Drop D

e|------------------|
B|------------------|
G|-7---9---10--12---|
D|------------------|
A|-5---7---8---10---|
D|------------------|

with delay
e|--------------------------------------------------------------|
B|-----------------------------10101010-8--11-10-131313131313---|
G|-99999--10--9-999-1212-1010-----------------------------------| 2X
D|--------------------------------------------------------------|
A|--------------------------------------------------------------|
D|--------------------------------------------------------------|

e|------------------|
B|------------------|
G|------------------|
D|-0-------8---10---|
A|-0-------8---10---|
D|-0-------8---10---|

e|-------------------------------------------------------------|
B|-------------------------------------------------------------|
G|-------------------------------------------------------------|
D|-------------------------------------------------------------|
A|------12---------1212------12-----88888888-1010101010101010--|
D|-0000----0-0-000------0000----0-0-88888888-1010101010101010--|

e|-------------------------------------------------------------------------|
B|-------------------------------------------------------------------------|
G|-----------------------------------------------14-14-14---12-12-12-------|
D|-------------------------------------------------------------------------|
A|--------12----------------1212-------12--------12-12-12---10-10-10-------|
D|-0000000--0000000000000000----0000000--000000----------------------------|

e|-----|
B|-----|
G|-----|
D|-0---|
A|-0---|
D|-0---|

Cool Riff
e|---------------------------------------|
B|---------------------------------------|
G|---------------------------------------| 4x
D|---------------------------------------|
A|-12----13-12-15-13-12----------10-8-7--|
D|---000----------------00000000---------|

e|---------------------------------------|
B|---------------------------------------|
G|---------------------------------------| 
D|---------------------------------------|
A|-12----13-12-15-17-15--------13-12-----|
D|---000----------------000000-----------|

e|---------------------|
B|---------------------|
G|---------------------|
D|---------------------|
A|-0--00-00-00-00-00---|
D|-0--00-00-00-00-00---|

e|---------------------------------------|
B|---------------------------------------|
G|---------------------------------------| 
D|---------------------------------------|
A|-12----13-12-15-17-15--------13-12-----|
D|---000----------------000000-----------|

e|-------------------------------------|
B|-------------------------------------|
G|-------------------------------------|
D|-------------------------------------|
A|-0--00-00-00--00-00-00--00-00-0------|
D|-0--00-00-00--00-00-00--00-00-0------|

e|----------------------------------------------|
B|----------------------------------------------|
G|-------------------------------------14-12----|
D|----------------------------------------------|
A|-0--00-00-00--00-00-00--00-00-00-00--12-10----|
D|-0--00-00-00--00-00-00--00-00-00-00-----------|

e|-------15h17p15--------|  |-------15h17p15-----| repeat
B|-13h15----------18-17--|  |-13h15----------15--| both 4x
G|-----------------------|  |--------------------|
D|-----------------------|  |--------------------|
A|-----------------------|  |--------------------|
D|-----------------------|  |--------------------|

e|-------------|
B|-------------|
G|-------------|you figure out stumming patturn
D|-8--5--0--0--|
A|-8--5--0--0--|
D|-8--5--0--0--|

e|---------|
B|---------|
G|---------|
D|-8---5---|
A|-8---5---|
D|-8---5---|

e|---------------------------------------|
B|---------------------------------------|
G|---------------------------------------|
D|---------------------------------------|
A|------------------4444444444444444-----|
D|-0000000000000000----------------------|

e|------------------------------------|
B|------------------------------------|you figure out stumming patturn
G|-14--15--17--18--19--21--22--24-----|
D|------------------------------------|
A|-12--13--15--16--17--19--20--22-----|
D|------------------------------------|

e|-------------------|
B|-------------------|
G|-------------------|
D|-------------------|
A|-------------------|
D|-0000000000000000--|

Breakdown
e|-----------------------------------------------------------|
B|-----------------------------------------------------------|
G|-----------------------------------------------------------|
D|---------7---------------------------7---------------------|
A|-----8-5-------------------------8-5---------------8-7-8---|
D|-000-------0-0-000-0-000-000-000-------0-0-000-000---------|

e|-----------------------------------------------------------------|
B|-----------------------------------------------------------------|
G|-----------------------------------------------------------------|
D|----------10----------------------------10-----------------------|
A|-----12-8--------------------------12-8----------------12-10-12--|
D|-000---------0-0-000-0-000-000-000---------0-0-000-000-----------|

e|-------------------------------|
B|-------------------------------| 2x
G|-------------------------------|
D|-------------------------------|
A|-000------------000-0-000-000--|
D|-000------------000-0-000-000--|

e|---------------------------------------------------------------|
B|---------------------------------------------------------------|
G|---------------------------------------------------------------|
D|---------7---------------------------7-------------------------|
A|-----8-5-------------------------8-5---------------------------|
D|-000-------0-0-000-0-000-000-000-------0-0-0-0000000000000000--|

this next part is pick very fast
so basiclly double what i wrote down on the next part

with delay 
e|-----------------------------------------------------------------------|
B|----------------------------------------------66666666666666666666666--|
G|-777777777777777777777777777777--999999999999--------------------------|
D|-----------------------------------------------------------------------|
A|-----------------------------------------------------------------------|
D|-----------------------------------------------------------------------|

e|---------------------------------------------------------------|
B|-1010101010101010--12121212-14141414-101010101010101010101010--|
G|---------------------------------------------------------------|
D|---------------------------------------------------------------|
A|---------------------------------------------------------------|
D|---------------------------------------------------------------|

e|-------------------------------------------------------------------------|
B|151515151515151515151515151515151515--1717171717171717--1818181818181818-|
G|-------------------------------------------------------------------------|
D|-------------------------------------------------------------------------|
A|-------------------------------------------------------------------------|
D|-------------------------------------------------------------------------|

e|-20--18--17--18--17--|
B|---------------------|
G|---------------------|
D|---------------------|
A|---------------------|
D|---------------------|

e|---------------------------------------|
B|---------------------------------------|
G|---------------------------------------| 4x
D|---------------------------------------|
A|-12----13-12-15-13-12----------10-8-7--|
D|---000----------------00000000---------|

e|---------------------------------------|
B|---------------------------------------|
G|---------------------------------------| 
D|---------------------------------------|
A|-12----13-12-15-17-15--------13-12-----|
D|---000----------------000000-----------|

e|---------------------|
B|---------------------|
G|---------------------|
D|---------------------|
A|-0--00-00-00-00-00---|
D|-0--00-00-00-00-00---|

e|---------------------------------------|
B|---------------------------------------|
G|---------------------------------------| 
D|---------------------------------------|
A|-12----13-12-15-17-15--------13-12-----|
D|---000----------------000000-----------|

e|-------------------------------------|
B|-------------------------------------|
G|-------------------------------------|
D|-------------------------------------|
A|-0--00-00-00--00-00-00--00-00-0------|
D|-0--00-00-00--00-00-00--00-00-0------|

Thanks for checking this out =]

| /  slide up
| \  slide down
| h  hammer-on
| p  pull-off
| ~  vibrato
| +  harmonic
| x  Mute note

================================================================

Tabbed by: catalan123

Song: Big Wiggly Style
Band: The Devil Wears Prada

Tuning: Drop D.

Guitar 1 & 2 do this section twice
E|------------------------------------------------------------|
B|------------------------------------------------------------|
G|------------------------------------------------------------|
D|------------------------------------------------------------|
A|-0-0--0-0----0----0--------------0-0-0-0-0-0-0-0------------|
D|-0-0--0-0----0----0--------------0-0-0-0-0-0-0-0------------|
   . .  . .    .    .              . . . . . . . .
E|------------------------------------------------------------|
B|------------------------------------------------------------|
G|------------------------------------------------------------|
D|------------------------------------------------------------| 
A|-0-0--0-0----0----0----0----0----0-0-0-0-0-0-0-0------------|
D|-0-0--0-0----0----0----0----0----0-0-0-0-0-0-0-0------------|
   . .  . .    .    .    .    .    . . . . . . . .

Guitar 1 (Left)
E|------------------------------|------------------------------|
B|------------------------------|------------------------------|
G|-7----7----7---10--9--12--10--|-9----10--12----7~----6~------|
D|----0----0--------------------|----0---------0---------------|
A|----.----.--------------------|----.---------.---------------|
D|------------------------------|------------------------------|
  Guitar 2 (Right)
E|--------------------------------|------------------------------|
B|--------------------------------|------------------------------|
G|-10---10---10---14--12--15--14--|-12---14--15----10~----9~-----|
D|----0----0----------------------|----0---------0---------------|
A|----.----.----------------------|----.---------.---------------|
D|--------------------------------|------------------------------|

Guitar 1 (Left)
E|------------------------------|-------------------------------|
B|------------------------------|-------------------------------|
G|-7----7----7---10--9--12--10--|-9----10--12-------------------|
D|----0----0--------------------|----0---------0--8------7------|
A|----.----.--------------------|----.---------.--8------7------|
D|------------------------------|-----------------8------7------|
Guitar 2 (Right)
E|--------------------------------|------------------------------|
B|--------------------------------|------------------------------|
G|-10---10---10---14--12--15--14--|-12---14--15------------------|
D|----0----0----------------------|----0---------0--8------7-----|
A|----.----.----------------------|----.---------.--8------7-----|
D|--------------------------------|-----------------8------7-----|

Both Guitars
E|--------------------------------|
B|--------------------------------|
G|--------------------------------|
D|-0------------8--8--7-----------|
A|-0--0-0-0--0--8--8--7-----------|
D|-0--0-0-0--0--8--8--7-----------|
      . . .  .

Guitar 1 (left)
E|---------------------------------------------------------|
B|---------------------------------------------------------|
G|---------------------------------------------------------|
D|-------------------------------------------------10h12---|
A|-0-0-0--0-0-0--7h8p7--0--0-0--0-0--0-0-0--7h8p7----------|
D|-0-0-0--0-0-0---------0--0-0--0-0--0-0-0-----------------|
   . . .  . . .         .  . .  . .  . . .
Guitar 2 (Right)
E|---------------------------------------------------------------|
B|---------------------------------------------------------------|
G|---------------------------------------------------------------|
D|-------------------------------------------------------14h15---|
A|-0-0-0--0-0-0--10h12p10--0--0-0--0-0--0-0-0--10h12p10----------|
D|-0-0-0—-0-0-0------------0--0-0--0-0--0-0-0--------------------|
   . . .  . . .            .  . .  . .  . . .

Guitar 1 (left)
E|----------------------------------------------------------|
B|----------------------------------------------------------|
G|----------------------------------------------------------|
D|----------------------------------------------------------|
A|-0-0-0--0-0-0--7h8p7--0--0-0--0-0--0-0-0---8h10p8--7h8p7--|
D|-0-0-0—-0-0-0---------0--0-0--0-0--0-0-0------------------|
   . . .  . . .         .  . .  . .  . . .
Guitar 2 (Right)
E|----------------------------------------------------------------|
B|----------------------------------------------------------------|
G|----------------------------------------------------------------|
D|----------------------------------------------------------------|
A|-0-0-0--0-0-0--10h12p10--0--0-0--0-0--0-0-0---10h12p10--8h10p8--|
D|-0-0-0--0-0-0------------0--0-0--0-0--0-0-0---------------------|
   . . .  . . .            .  . .  . .  . . .

Guitar 1 (left)
E|---------------------------------------------------------|
B|---------------------------------------------------------|
G|---------------------------------------------------------|
D|-------------------------------------------------10h12---|
A|-0-0-0--0-0-0--7h8p7--0--0-0--0-0--0-0-0--7h8p7----------|
D|-0-0-0--0-0-0---------0--0-0--0-0--0-0-0-----------------|
   . . .  . . .         .  . .  . .  . . .
Guitar 2 (Right)
E|---------------------------------------------------------------|
B|---------------------------------------------------------------|
G|---------------------------------------------------------------|
D|-------------------------------------------------------14h15---|
A|-0-0-0--0-0-0--10h12p10--0--0-0--0-0--0-0-0--10h12p10----------|
D|-0-0-0—-0-0-0------------0--0-0--0-0--0-0-0--------------------|
   . . .  . . .            .  . .  . .  . . .

Guitar 1 (left)
E|----------------------------------------------------|
B|----------------------------------------------------|
G|----------------------------------------------------|
D|----------------------------------------------------|
A|-0-0-0--0-0-0--7h8p7--0--0-0--0-0--0-0-0------------|
D|-0-0-0--0-0-0---------0--0-0--0-0--0-0-0--8*--------|
   . . .  . . .         .  . .  . .  . . .
Guitar 2 (Right)
E|-----------------------------------------------------|
B|-----------------------------------------------------|
G|-----------------------------------------------------|
D|-----------------------------------------------------|
A|-0-0-0--0-0-0--10h12p10--0--0-0--0-0--0-0-0----------|
D|-0-0-0—-0-0-0------------0--0-0--0-0--0-0-0--8*------|
   . . .  . . .            .  . .  . .  . . .

Guitar 1 (left)
E|-------------------------------------------------------|
B|-------------------------------------------------------|
G|-------------------------------------------------------|
D|-------------------------------------------------------|
A|-0-0-0--0-0-0---------0--0-0--0-0--0-0-0--0-0-0-0------|
D|-0-0-0--0-0-0---------0--0-0--0-0--0-0-0--0-0-0-0------|
   . . .  . . .         .  . .  . .  . . .  . . . .
Guitar 2 (Right)
E|-------------------------------------------------------|
B|-------------------------------------------------------|
G|-------------------------------------------------------|
D|-------------------------------------------------------|
A|-0-0-0--0-0-0---------0--0-0--0-0--0-0-0--0-0-0-0------|
D|-0-0-0--0-0-0---------0--0-0--0-0--0-0-0--0-0-0-0------|
   . . .  . . .         .  . .  . .  . . .  . . . .

Guitar 1 (left)
E|---------------------------------------------------------|
B|---------------------------------------------------------|
G|---------------------------------------------------------|
D|---------------------------------------------------------|
A|-0-0-0--0-0-0---------0--0-0--0-0--0-0-0--0-0-0-0--8*----|
D|-0-0-0--0-0-0---------0--0-0--0-0--0-0-0--0-0-0-0--------|
   . . .  . . .         .  . .  . .  . . .  . . . .
Guitar 2 (Right)
E|---------------------------------------------------------|
B|---------------------------------------------------------|
G|---------------------------------------------------------|
D|---------------------------------------------------------|
A|-0-0-0--0-0-0---------0--0-0--0-0--0-0-0--0-0-0-0--------|
D|-0-0-0--0-0-0---------0--0-0--0-0--0-0-0--0-0-0-0----8*--|
   . . .  . . .         .  . .  . .  . . .  . . . .

Guitar 1 (left)
E|-------------------------------------------------------|
B|-------------------------------------------------------|
G|-------------------------------------------------------|
D|-------------------------------------------------------|
A|-0-0-0--0-0-0---------0--0-0--0-0--0-0-0--0-0-0-0------|
D|-0-0-0--0-0-0---------0--0-0--0-0--0-0-0--0-0-0-0------|
   . . .  . . .         .  . .  . .  . . .  . . . .
Guitar 2 (Right)
E|-------------------------------------------------------|
B|-------------------------------------------------------|
G|-------------------------------------------------------|
D|-------------------------------------------------------|
A|-0-0-0--0-0-0---------0--0-0--0-0--0-0-0--0-0-0-0------|
D|-0-0-0--0-0-0---------0--0-0--0-0--0-0-0--0-0-0-0------|
   . . .  . . .         .  . .  . .  . . .  . . . .

Both Guitars
E|---------------------------------------------------------------------|
B|---------------------------------------------------------------------|
G|---------------------------------------------------------------------|
D|---------------------------------------------------8--7--5--0--------|
A|-0-0-0--0-0-0---------0--0-0--0-0--0-0-0--0-0-0-0--8--7--5--0--------|
D|-0-0-0--0-0-0---------0--0-0--0-0--0-0-0--0-0-0-0--8--7--5--0--------|
   . . .  . . .         .  . .  . .  . . .  . . . .

Both Guitars (Blood to the sky)
E|-------------|
B|-------------|
G|-------------|
D|-0-----------|
A|-0-----------|
D|-0-----------|
   .

Guitar 1 
Sorry guys I tried so hard to figure out the lead riff on this
part but I just could'nt sorry. If anyone figures it out or 
knows it please post it as a correction or comment. Thanx =)

Guitar 2 (Right)
E|------------------------------------------------------|
B|------------------------------------------------------|
G|------------------------------------------------------|
D|-3----3------5----5------0---0------0----0------------| Repeat 2x
A|-3----3-x14--5----5-x14--0---0-x14--0----0-x14--------|
D|-3----3------5----5------0---0------0----0------------|

1:25
Both Guitars
E|-----------------------|-----------------------|
B|-----------------------|-----------------------|
G|-----------------------|-----------------------|
D|-----------------------|-----------------------| 
A|-0--0-0-0-0------------|---------------0----0--|
D|-0--0-0-0-0------------|---------------0----0--|
   .  . . . .                            .    .     Reapeat 2x
E|-----------------------|-----------------------|
B|-----------------------|-----------------------|
G|-----------------------|-----------------------|
D|-----------------------|------------8---7---5--| 
A|----0-0-0-0----0----0--|----0----0--8---7---5--|
D|----0-0-0-0----0----0--|----0----0--8---7---5--|
      . . . .    .    .       .    .  

1:37
Both Guitars (play this slower)
E|-----------------------|-----------------------|
B|-----------------------|-----------------------|
G|-----------------------|-----------------------|
D|-----------------------|-----------------------| 
A|-0--0-0-0-0------------|---------------0----0--|
D|-0--0-0-0-0------------|---------------0----0--|
   .  . . . .                            .    .     Reapeat 2x
E|-----------------------|-----------------------|
B|-----------------------|-----------------------|
G|-----------------------|-----------------------|
D|-----------------------|------------8---7---5--| 
A|-0--0-0-0-0----0----0--|----0----0--8---7---5--|
D|-0--0-0-0-0----0----0--|----0----0--8---7---5--|
   .  . . . .    .    .       .    .  

Guitar 1 (Left)
E|-------------|
B|-------------|
G|-------------|
D|-8-----------|
A|-8--x32------|
D|-8-----------|
Guitar 2 (Right)
E|------------------------------|
B|------------------------------|
G|------------------------------|
D|-10------14-----12-----17-----|
A|-x--x12--x--x4--x--x8--x--x8--|
D|-8-------12-----10-----15-----|

1:58
Guitar 1 (Left)
E|------------------------------------------------------|
B|------------------------------------------------------|
G|------------------------------------------------------|
D|------------------------------------------------------| 
A|-5---------5p3h5---------8p7h8---------12----10----8--|
D|---0-0-0-0-------0-0-0-0-------0-0-0-0---0-0---0-0----|
     . . . .       . . . .       . . . .   . .   . .
Guitar 2 (Right)
E|------------------------------------------------------|
B|------------------------------------------------------|
G|------------------------------------------------------|
D|-0--------0-0-0---------0-0-0---------0-----0---------| 
A|-0--------0-0-0---------0-0-0---------0-----0------0--|
D|-0--------0-0-0---------0-0-0---------0-----0------0--|
   .        . . .         . . .         .     .      .

Guitar 1 (Left)
E|------------------------------------------------------|
B|------------------------------------------------------|
G|------------------------------------------------------|
D|-------------10---------------------------------------| 
A|--------------------8-----10-----10-----12-----10-----|
D|-0-0-0-0-0-0----0-0---0-0----0-0----0-0----0-0--------|
   . . . . . .    . .   . .    . .    . .    . .
Guitar 2 (Right)
E|-------------|-------------|
B|-------------|-------------|
G|-------------|-------------|
D|-8-----------|-------------|
A|-8-----------|-(pickslide)-|
D|-8-----------|-------------|

2:03
Guitar 1 (Left)
E|------------------------------------------------------|
B|------------------------------------------------------|
G|------------------------------------------------------|
D|------------------------------------------------------| 
A|-5---------5p3h5---------8p7h8---------12----10----8--|
D|---0-0-0-0-------0-0-0-0-------0-0-0-0---0-0---0-0----|
     . . . .       . . . .       . . . .   . .   . .
Guitar 2 (Right)
E|-----------------------------------------------------------|
B|-----------------------------------------------------------|
G|-----------------------------------------------------------|
D|-----------------------------------------------------------| 
A|-8---------8p7h8---------12p10h12--------15------13----12--|
D|---0-0-0-0-------0-0-0-0----------0-0-0-0----0-0---0-0-----|
     . . . .       . . . .          . . . .    . .   . .

Guitar 1 (Left)
E|------------------------------------------------------|
B|------------------------------------------------------|
G|------------------------------------------------------|
D|-------------10---------------------------------------| 
A|--------------------8-----10-----10-----12-----10-----|
D|-0-0-0-0-0-0----0-0---0-0----0-0----0-0----0-0--------|
   . . . . . .    . .   . .    . .    . .    . .
Guitar 2 (Right)
E|-------------------------------|
B|-------------------------------|
G|-------------------------------|
D|------8----8---------5----5----|
A|------8----8---------5----5----|
D|-8-x8-8----8----5-x8-5----5----|
   .              .

Guitar 1 (Left)
E|------------------------------------------------------|
B|------------------------------------------------------|
G|------------------------------------------------------|
D|------------------------------------------------------| 
A|-5---------5p3h5---------8p7h8---------12----10----8--|
D|---0-0-0-0-------0-0-0-0-------0-0-0-0---0-0---0-0----|
     . . . .       . . . .       . . . .   . .   . .
Guitar 2 (Right)
E|-----------------------------------------------------------|
B|-----------------------------------------------------------|
G|-----------------------------------------------------------|
D|-----------------------------------------------------------| 
A|-8---------8p7h8---------12p10h12--------15------13----12--|
D|---0-0-0-0-------0-0-0-0----------0-0-0-0----0-0---0-0-----|
     . . . .       . . . .          . . . .    . .   . .

Guitar 1 (Left)
E|------------------------------------------------------|
B|------------------------------------------------------|
G|------------------------------------------------------|
D|-------------10---------------------------------------| 
A|--------------------8-----10-----10-----12------------|
D|-0-0-0-0-0-0----0-0---0-0----0-0----0-0---------------|
   . . . . . .    . .   . .    . .    . .    
Guitar 2 (Right)
E|-------------------------------|
B|-------------------------------|
G|-------------------------------|
D|------8----8---------7---------|
A|------8----8---------7---------|
D|-8-x8-8----8----7-x8-7---------|
   .              .

2:16
Guitar 1 (Left)
E|------------------------------------------------------|
B|------------------------------------------------------|
G|------------------------------------------------------|
D|------------------------------------------------------| 
A|-5---------5p3h5---------8p7h8---------12----10----8--|
D|---0-0-0-0-------0-0-0-0-------0-0-0-0---0-0---0-0----|
     . . . .       . . . .       . . . .   . .   . .
Guitar 2 (Right)
E|------------------------------------------------------|
B|------------------------------------------------------|
G|------------------------------------------------------|
D|------------------------------------------------------| 
A|-0--------0-0-0---------0-0-0-------------0-0-0-0-0-0-|
D|-0--------0-0-0---------0-0-0-------------0-0-0-0-0-0-|
   .        . . .         . . .             . . . . . .       

Guitar 1 (Left)
E|----------------------------------------------------------|
B|----------------------------------------------------------|
G|----------------------------------------------------------|
D|----------------------------------------------------------| 
A|-------------8p7h8----------7p5h7---------5p3h5-----8*----|
D|-0-0-0-0-0-0-------0-0-0-0--------0-0-0-0-------0-0-------|
   . . . . . .       . . . .        . . . .       . .
Guitar 2 (Right)                                               Repeat 2x
E|------------------------------------------------------|
B|------------------------------------------------------|
G|------------------------------------------------------|
D|------------------------------------------------------| 
A|-8-8--------8-8-8-8--------8-8------------------------|
D|-8-8--------8-8-8-8--------8-8--5-x16-----------------|
   . .        . . . .        . .  .        

2:29
Guitar 1 (Left)
E|-----------------------------------------------------------------|
B|-----------------------------------------------------------------|
G|-----------------------------------------------------------------|
D|-----------------------------------------------------------------| 
A|-----------------------------------------5-5-5-5---------5-5-5-5-|
D|-8-8-8-8-8-8-8-8-8-8-8-8-7-7-7-7-5-5-5-5---------5-5-5-5---------|
Guitar 2 (Right)
E|-----------------------------------------------------------------|
B|-----------------------------------------------------------------|
G|-----------------------------------------------------------------|
D|-----------------------------------------------------------------| 
A|-----------------------------------------8-8-8-8---------8-8-8-8-|
D|-8-8-8-8-8-8-8-8-8-8-8-8-7-7-7-7-5-5-5-5---------5-5-5-5---------|

Guitar 1 (Left)
E|------------------------------------------------------------------------|
B|------------------------------------------------------------------------|
G|------------------------------------------------------------------------|
D|------------------------------------------------------------------------| 
A|-------------------------------------------------12-12-12-12-------10-x4|
D|-8-8-8-8-8-8-8-8-8-8-8-8-10-10-10-10-12-12-12-12-------------10-x4------|
Guitar 2 (Right)
E|------------------------------------------------------------------------|
B|------------------------------------------------------------------------|
G|------------------------------------------------------------------------|
D|------------------------------------------------------------------------| 
A|-------------------------------------------------15-15-15-15-------13-x4|
D|-8-8-8-8-8-8-8-8-8-8-8-8-10-10-10-10-12-12-12-12-------------10-x4------|

Guitar 1 (Left)
E|-----------------------------------------------------------------|
B|-----------------------------------------------------------------|
G|-----------------------------------------------------------------|
D|-----------------------------------------------------------------| 
A|-----------------------------------------5-5-5-5---------5-5-5-5-|
D|-8-8-8-8-8-8-8-8-8-8-8-8-7-7-7-7-5-5-5-5---------5-5-5-5---------|
Guitar 2 (Right)
E|-----------------------------------------------------------------|
B|-----------------------------------------------------------------|
G|-----------------------------------------------------------------|
D|-----------------------------------------------------------------| 
A|-----------------------------------------8-8-8-8---------8-8-8-8-|
D|-8-8-8-8-8-8-8-8-8-8-8-8-7-7-7-7-5-5-5-5---------5-5-5-5---------|

Guitar 1 (Left)
E|------------------------------------------------------------------------|
B|------------------------------------------------------------------------|
G|------------------------------------------------------------------------|
D|------------------------------------------------------------------------| 
A|-------------------------------------------------12-12-12-12-------15-x4|
D|-8-8-8-8-8-8-8-8-8-8-8-8-10-10-10-10-12-12-12-12-------------10-x4------|
Guitar 2 (Right)
E|------------------------------------------------------------------------|
B|------------------------------------------------------------------------|
G|------------------------------------------------------------------------|
D|------------------------------------------------------------------------| 
A|-------------------------------------------------15-15-15-15-------15-x4|
D|-8-8-8-8-8-8-8-8-8-8-8-8-10-10-10-10-12-12-12-12-------------10-x4------|

Guitar 1 (Left)
E|-----------------------------------------------------------------|
B|-----------------------------------------------------------------|
G|-----------------------------------------------------------------|
D|-----------------------------------------------------------------| 
A|-----------------------------------------5-5-5-5---------5-5-5-5-|
D|-8-8-8-8-8-8-8-8-8-8-8-8-7-7-7-7-5-5-5-5---------5-5-5-5---------|
Guitar 2 (Right)
E|-----------------------------------------------------------------|
B|-----------------------------------------------------------------|
G|-----------------------------------------------------------------|
D|-----------------------------------------------------------------| 
A|-----------------------------------------8-8-8-8---------8-8-8-8-|
D|-8-8-8-8-8-8-8-8-8-8-8-8-7-7-7-7-5-5-5-5---------5-5-5-5---------|

Guitar 1 (Left)
E|-----------------------------------------------------------------|
B|-----------------------------------------------------------------|
G|-----------------------------------------------------------------|
D|-----------------------------------------------------------------| 
A|-------------------------------------------------12~---10~-------|
D|-8-8-8-8-8-8-8-8-8-8-8-8-10-10-10-10-12-12-12-12-----------------|
Guitar 2 (Right)
E|------------------------------------------------------------------|
B|------------------------------------------------------------------|
G|------------------------------------------------------------------|
D|------------------------------------------------------------------| 
A|-------------------------------------------------8~---7~----------|
D|-8-8-8-8-8-8-8-8-8-8-8-8-10-10-10-10-12-12-12-12------------------|

2:53
Guitar 1 (Left)
E|-----------------------------------------------------------------| --
B|-----------------------------------------------------------------|  |
G|-----------------------------------------------------------------|  |
D|-----------------------------------------------------------------|  |
A|-5-5-5-5-5-5-5-5-5-5-5-5-5-5-5-5-5-5-5-5-5-5-5-5-7-7-7-7-8-8-8-8-|  | 
D|-----------------------------------------------------------------|  | 
Guitar 2 (Right)                                                      |
E|-------------|                                                      |
B|-------------|                                                      |
G|-------------|                                                      |
D|-0-----------|                                                      |
A|-0-----------|                                                      |
D|-0-----------|                                                      |
                                                                      |
Guitar 1 (Left)                                                       |
E|-------------------------------------------------|                  |
B|-------------------------------------------------|                  |
G|-------------------------------------------------|                  |
D|-------------------------------------------------|                  |
A|-7-7-7-7-7-7-7-7-7-7-7-7-7-7-7-7-7-7-7-7-7-7-7-7-|                  |
D|-------------------------------------------------|                  |
Guitar 2 (Right)                                                      |
E|-------------|                                                      |
B|-------------|                                                      |
G|-------------|                                                      |
D|-3-----------|                                                      |
A|-3-----------|                                   Repeat all of this |-2x
D|-3-----------|                                                      |
                                                                      |
Guitar 1 (Left)                                                       |
E|------------------------------|                                     |
B|------------------------------|                                     |
G|------------------------------|                                     |
D|------------------------------|                                     |
A|-12-x24-10-10-10-10-8-8-10-10-|                                     |
D|------------------------------|                                     |
Guitar 2 (Right)                                                      |
E|-------------|                                                      |
B|-------------|                                                      |
G|-------------|                                                      |
D|-8-----------|                                                      |
A|-8-----------|                                                      |
D|-8-----------|                                                      |
                                                                      |
Guitar 1 (Left)                                                       |
E|---------|                                                          |
B|---------|                                                          |
G|---------|                                                          |
D|---------|                                                          |
A|-15-x24--|                                                          |
D|---------|                                                          |
Guitar 2 (Right)                                                      |
E|-------------|-------------------|                                   |
B|-------------|-------------------|                                   |
G|-------------|-------------------|                                   |
D|-5-----------|-5-----------------| on the second time                |
A|-5-----------|-5-----5-x14-------| play this part like this.         |
D|-5-----------|-5-----5-----------|------------------------------------
                       .

3:18
Guitar 1 (Left)                                           
E|-------------------------------------------------|
B|-------------------------------------------------|
G|-------------------------------------------------|
D|-------------------------------------------------|
A|-17-17-17-17-17-17-20-20-20-20-20-20-19-x20------|
D|-------------------------------------------------|
Guitar 2 (Right)
E|-----------------|
B|-----------------|
G|-----------------|
D|-0---------------|
A|-0---0-x12--5p3--|
D|-0---0-----------|
       .

Guitar 1 (Left)                                           
E|-------------------------------------------------|
B|-------------------------------------------------|
G|-------------------------------------17-x20------|
D|-------------------15-15-15-15-15-15-------------|
A|-15-15-15-15-15-15-------------------------------|
D|-------------------------------------------------|
Guitar 2 (Right)
E|--------------------------|
B|--------------------------|
G|--------------------------|
D|--------------------------|
A|-3~----0-x9--3h5--0--3h5--|
D|-------0----------0-------|
         .          .

Guitar 1 (Left)                                           
E|-------------------------------------------------|
B|-------------------------------------------------|
G|-------------------------------------------------|
D|-------------------------------------------------|
A|-17-17-17-17-17-17-20-20-20-20-20-20-19-x20------|
D|-------------------------------------------------|
Guitar 2 (Right)
E|------------------|
B|------------------|
G|------------------|
D|------------------|
A|-3~---0-x12--5p3--|
D|------0-----------|
        .

Guitar 1 (Left)                                           
E|-----------------|
B|-----------------|
G|--19-x16--17x16--|
D|-----------------|
A|-----------------|
D|-----------------|
Guitar 2 (Right)
E|------------------|
B|------------------|
G|------------------|
D|------------5-----|
A|-3~---5-x6--5-x8--|
D|------5-----5-----|
        .

3:31 Repeat this part twice from here...

Guitar 1 (Left)                                           
E|-------------------------------------------------13-x16--|
B|--------------------15-15-15-15-15-15--------------------|
G|--17-17-17-17-17-17-------------------14-14-14-14--------|
D|---------------------------------------------------------|
A|---------------------------------------------------------|
D|---------------------------------------------------------|
Guitar 2 (Right)
E|-------------------------------------------------|
B|-------------------------------------------------|
G|-------------------------------------------------|
D|-7--7--7--7--7--7--7--7--7--7--7--7--7--7--7--7--|
A|-x--x--x--x--x--x--x--x--x--x--x--x--x--x--x--x--|
D|-5--5--5--5--5--5--5--5--5--5--5--5--5--5--5--5--|

Guitar 1 (Left)                                           
E|-------------------------------------------------15-x16--|
B|--------------------15-15-15-15-15-15--------------------|
G|--17-17-17-17-17-17-------------------14-14-14-14--------|
D|---------------------------------------------------------|
A|---------------------------------------------------------|
D|---------------------------------------------------------|
Guitar 2 (Right)
E|-------------------------------------------------|
B|-------------------------------------------------|
G|-------------------------------------------------|
D|-10-10-10-10-10-10-10-10-10-10-10-10-10-10-10-10-|
A|-x--x--x--x--x--x--x--x--x--x--x--x--x--x--x--x--|
D|-8--8--8--8--8--8--8--8--8--8--8--8--8--8--8--8--|

Guitar 1 (Left)                                           
E|-------------------------------------------------13-x16--|
B|--------------------15-15-15-15-15-15--------------------|
G|--17-17-17-17-17-17-------------------14-14-14-14--------|
D|---------------------------------------------------------|
A|---------------------------------------------------------|
D|---------------------------------------------------------|
Guitar 2 (Right)
E|-------------------------------------------------|
B|-------------------------------------------------|
G|-------------------------------------------------|
D|-7--7--7--7--7--7--7--7--7--7--7--7--7--7--7--7--|
A|-x--x--x--x--x--x--x--x--x--x--x--x--x--x--x--x--|
D|-5--5--5--5--5--5--5--5--5--5--5--5--5--5--5--5--|

Guitar 1 (Left) 
E|--17-x16--15-x16--|
B|------------------|
G|------------------|
D|------------------|
A|------------------|
D|------------------|
Guitar 2 (Right)
E|-------------------------------------------------|
B|-------------------------------------------------|
G|-------------------------------------------------|
D|-12-12-12-12-12-12-12-12/14-14-14-14-14-14-14-14-|
A|-x--x--x--x--x--x--x--x--x--x--x--x--x--x--x--x--|
D|-10-10-10-10-10-10-10-10/12-12-12-12-12-12-12-12-|

....to here.

Outro: Repeat the following twice.

Guitar 1 (Left) 
E|----------------------|-13-------------------|
B|--------15------------|----------------------|
G|-17-------------14----|----------------------|
D|----------------------|----------------------|
A|----------------------|----------------------|
D|----------------------|----------------------|
Guitar 2 (Right)
E|-------------|
B|-------------|
G|-------------|
D|-0-----------|
A|-0-----------|
D|-0-----------|

Guitar 1 (Left) 
E|----------------------|-15-------------------|
B|--------15------------|----------------------|
G|-17-------------14----|----------------------|
D|----------------------|----------------------|
A|----------------------|----------------------|
D|----------------------|----------------------|
Guitar 2 (Right)
E|----------------|
B|----------------|
G|----------------|
D|-let-it-Ring----|
A|----------------|
D|----------------|

=====================================================================

-------------------------------------------------------------------------------
			     Danger: Wildman - The Devil Wears Prada
-------------------------------------------------------------------------------
Tabbed by: Me

Let me know if there are any flub ups.
Sometimes type one thing when I mean to type something else......
Let me know if I need to fix anything, and i will :]

Tuning: Droppith to the D

Guitar 1 and 2
e|----|-------------------------------------------|
B|----|-------------------------------------------|
G|----|-------------------------------------------|[x2]
D|-0--|-------------------------------------------|
A|-0--|--------4p5-5------------------------------|
D|-0--|---------------00-0-0-0-0-0-0-0-0-0-000000-|
   .                 ..   .   .   .   .   ......

e|------------------------------------|
B|------------------------------------|
G|------------------------------------|[x2]
D|------------------------------------|
A|-3p4-4------------------------------|
D|--------00-0-0-0-0-0-0-0-0-0-000000-|
          ..   .   .   .   .   ......

  Repeat from top, guiar 2 does this the second time: 

e|------------------------------------|
B|------------------------------------|
G|------------------------------------|[x2]
D|------------------------------------|
A|-7p8-8------------------------------|
D|--------00-0-0-0-0-0-0-0-0-0-000000-|
          ..   .   .   .   .   ......

e|------------------------------------|
B|------------------------------------|
G|------------------------------------|[x2]
D|------------------------------------|
A|-6p7-7------------------------------|
D|--------00-0-0-0-0-0-0-0-0-0-000000-|
          ..   .   .   .   .   ......

and end with:
e|-------|
B|-------|
G|-------|
D|---0---|
A|---0---|
E|---0---|

  [Both guitars]
e|----------------------------|
B|----------------------------|
G|----------------------------|
D|-00000-00-00-00-00000-00-00-|[x4 1/2]
A|-00000-00-00-00-00000-00-00-|
E|-00000-00-00-00-00000-00-00-|

  Guitar 2 plays the above again while guitar 1 plays this:
e|---------------------------------------------------------------------------|
B|---------------------------------------------------------------------------|
G|---------------------------------------------------------------------------|
D|-3333333333333333-2222222222222222-7777777777777777-55555555-88888888------|
A|---------------------------------------------------------------------------|
E|---------------------------------------------------------------------------|

                                               Both guitars
e|--------------------------------------------------------------|
B|--------------------------------------------------------------|
G|--------------------------------------------10-10-10-12-12-12-|
D|-3333333333333333-2222222222222222-00000000-x--x--x--x--x--x--|
A|--------------------------------------------8--8--8--10-10-10-|
E|--------------------------------------------------------------|

  "as long as these struggles......" [Both Guitars]
e|-----------------------------------------|
B|-----------------------------------------|
G|-----------------------------------------|
D|-00000000-55555555-88888888-77777777-0~~-|
A|-00000000-55555555-88888888-77777777-0~~-|
E|-00000000-55555555-88888888-77777777-0~~-|

*Pick slides*

  Guitar 1
e|-------------------------------------------------|
B|-------------------------------------------------|
G|-------------------------------------------------|
D|-------------------------------------------------|
A|-8-10-7-7-8-5-7-8-5-4-----8-10-7-7-8-5-7-8-5-4-5-|
E|-------------------------------------------------|

e|-------------------------------------------------------|
B|-------------------------------------------------------|
G|-------------------------------------------------------|
D|-------------------------------------------------------|
A|-12-13-10-10-8-10-12-8-7-----12-13-10-10-8-10-12-8-7-8-|
E|-------------------------------------------------------|

Guitar 2
e|-------------------------------------------------|
B|-------------------------------------------------|
G|-------------------------------------------------|
D|-------------------------------------------------|[x2]
A|-8-10-7-7-8-5-7-8-5-4-----8-10-7-7-8-5-7-8-5-4-5-|
E|-------------------------------------------------|

Here's an alternative to the top riff.
This is the way Jeremy Plays it on this video:
 3Q4Vy3UP8OY
So if you want to play it exactly like them here you go
I just think the other way is easier
e|-------------------------------------------------|
B|-------------------------------------------------|
G|-------------------------------------------------|
D|-3-5-2-2-3-0-2-3---------3-5-2-2-3-0-2-3---------|
A|-----------------5-4---------------------5-4-5---|
E|-------------------------------------------------|
You decide

e|------------------------------------------------------------------|
B|------------------------------------------------------------------|
G|------------------------------------------------------------------|
D|------------------------------------------------------------------|[x2]
A|------------4-3-1-0-----------------------4-3-1-00000000----------|
E|-0-00000000---------00000000-1-00000000-0----------------44444444-|
     ........         ........   ........

e|-------------------------------------|
B|-------------------------------------|
G|-10-10-10-10-10-10-12-12-12-12-12-12-|
D|-x--x--x--x--x--x--x--x--x--x--x--x--|
A|-8--8--8--8--8--8--10-10-10-10-10-10-|
E|-------------------------------------|

  "as long......when worded......" [Both Guitars]
e|----------------------------------------------|
B|----------------------------------------------|
G|----------------------------------------------|
D|-00000000-55555555-88888888-77777777------0~~-|
A|-00000000-55555555-88888888-77777777-[x2]-0~~-|
E|-00000000-55555555-88888888-77777777------0~~-|
(I can't figure out if it goes like that^ or if I
should change the 777's to 555's.  What do you think?)

No guitar until massive breakdown.

e|----------------------------|
B|----------------------------|
G|----------------------------|
D|-00000-00-00-00-00000-00-00-|[x4]
A|-00000-00-00-00-00000-00-00-|
E|-00000-00-00-00-00000-00-00-|

e|-------------------|
B|-------------------|
G|-10-10-10-12-12-12-|
D|-x--x--x--x--x--x--|
A|-8--8--8--10-10-10-|
E|-------------------|

  One guitar does this, I'm not sure what the other one does with it
  Let me know if you know
e|---------------------------------------------------------------|
B|---------------------------------------------------------------|
G|-10-----9------6-------14-------12------14-----15------18------|
D|-x-[x8]-x-[x8]-x-[x16]--x-[x12]--x-[x2]--x-[x2--x-[x8]--x-[x8]-|[x2]
A|-8------7------4-------12-------10------12-----13------16------|
E|---------------------------------------------------------------|

  "when worded correctly......"[Both guitars]
e|------------------------------------------|
B|------------------------------------------|
G|------------------------------------------|
D|-00000000-55555555-88888888-77777777--0~~-|
A|-00000000-55555555-88888888-77777777--0~~-|
E|-00000000-55555555-88888888-77777777--0~~-|

Let me know if the choruses end in 7 or 5,  That's
the part i'm most unsure about.