Tag: run

Run Towards Your Fears chords by Cigarettes After Sex

INTRO:
C   Em   Dm   G
GUITAR 2: (Starts at the Dm chord)
Dm
E -1-0-1-0-1-0-1-0-1-0-1-0-1-0-1-0-
B ---------------------------------
G ---------------------------------
D ---------------------------------
A ---------------------------------
E ---------------------------------
VERSE:
C
Here,
Em
Right here
Dm
When it's too much
G
For me to take
C
They
Em
Can't see straight
Dm
When it's too much
G
For you to take
CHORUS:
C              F   Am  G
You're the only one
C              F   Am
You're the only one
G            C   Em  Dm  G
I'm the only one
VERSE:
C
You're
Em
Dressed in black
Dm
And following
G
The purple string
C
So run
Em
Towards your fears
Dm
When it's too much
G
For you to take
CHORUS:
C              F   Am  G
You're the only one
C              F   Am  G
You're the only one
C              F   Am
You're the only one
G            C  F   Am  G
I'm the only one
INSTRUMENTAL:
F  C  Am  C
F  C  Am  C
F  C  Am  C
F  C  Am  C
BREAK:
F
I can't
C
Believe
G
The way
C
You breathe
F
On the
C
Mirror
Leaves
G     C
Of-ten marks
F
I draw
C
Your name
G
Inside
C
The cloud
F
You laugh
C
So what
G
Begins?
CHORUS:
C              F   Am  G
You're the only one
C              F   Am  G
You're the only one
C              F   Am
You're the only one
G            C  F   Am
I'm the only one
G            C  F   Am  Em  Dm  Dm  G  G
I'm the only one
OUTRO:
C   Em   Dm   G   C

You Cant Run Away From Your Heart chords – Patty Loveless

 Patty Loveless - You Can't Run Away From Your Heart
INTRO:  D 
When you said you love me
A G F  
I believed it was true
D 
It was true
And now you say you're leaving
A G F  
Now you got me needing you
D 
You go and say we're through
PRE-CHORUS:
G Bb 
You say nothing lasts forever, that's so easy
G Bb 
You can walk away, but you won't be free
CHORUS:
N.C.     D 
You can run every time we touch
A 
You can run when you feel too much
Bb G D 
You can lie all alone in the dark
You can run from the one you need
A 
You can run from the memories
Bb C D 
But you can't run away from your heart
You said our love was real, baby
A G F  
More than any love you knew
D 
It was good to you
But when I held you near me
A G F  
I could feel all the fear in you
D 
Running through and through
PRE-CHORUS:
G Bb 
You think tears are all that lie in true love's shadow
G Bb 
There's no place that you can run, our love won't follow
CHORUS:
N.C.     D 
You can run every time we touch
A 
You can run when you feel too much
Bb G D 
You can lie all alone in the dark
You can run from the one you need
A 
You can run from the memories
Bb C D G Bb G Bb 
But you can't run away from your heart
CHORUS:
N.C.     D 
You can run every time we touch
A 
You can run when you feel too much
Bb G D 
You can lie all alone in the dark
You can run from the one you need
A 
You can run from the memories
Bb C D G Bb G Bb 
But you can't run away from your heart
Bb C  
No, you can't run away
N.C.       D 
From your heart

I Found chords – Amber Run V3

 ****Capo on The 3rd Fret****
Em Em/D C 
I'll use you as a warning sign
Am C Em 
That if you talk enough sense then you'll lose your mind
Em Em/D C 
And I'll use you as a focal point
Am C Em 
So i don't lose sight of what I want
Em Em/D C 
And I moved further than I thought I could
Am C Em 
But I miss you more than I thought I would
Em Em/D C 
I'll use you as a warning sign
Am C Em 
That if you talk enough sense then you'll lose your mind
C Em Em/D C 
Oh cause i found love where it wasn't supposed to be
Am C 
Right in front of me
Em Em/D 
Talk some sense to me
C Em Em/D C 
Oh I found love where it wasn't supposed to be
Am C 
Right in front of me
Em Em/D 
Talk some sense to me
Em Em/D C 
And I'll use you as a makeshift gauge
Am C Em 
Of how much to give and how much to take
Em Em/D C 
I'll use you as a warning sign
Am C Em 
That if you talk enough sense then you'll lose your mind
C Em Em/D C 
Oh cause i found love where it wasn't supposed to be
Am C 
Right in front of me
Em Em/D 
Talk some sense to me
C Em Em/D C 
Oh I found love where it wasn't supposed to be
Am C 
Right in front of me
Em Em/D 
Talk some sense to me

Run Tabs – Emma Bale

 -------------------------------------------------------------------------------
RUN- EMMA BALE
-------------------------------------------------------------------------------
: DS
nigel.gman182
Tuning: standard
i've been searching for this tab for while and i 
couldn't find it so i thought i'll try to figure it out myself.
this is my first tab.
it sounds pretty accurate.
leave a comment if you think i made  mistake
e|---------------------------------------------------|
B|---------------------------------------------------|
G|---------------------------------------------------|
D|------6-----6-----6-----6-----6-----6-----6-----6--|
A|---4-----4-----4-----4-----------------------------|
E|---------------------------5-----5-----5-----5-----|
e|---------------------------------------------------|
B|---------------------------------------------------|
G|---------------------------------------------------|
D|------6-----6-----6-----6-----6-----4--------------|
A|------------------------------------------6-----7--|
E|---0-----0-----0-----0-----0-----0----(0)---(0)----|
e|---------------------------------------------------|
B|---------------------------------------------------|
G|---------------------------------------------------|
D|------6-----6-----6-----6-----6-----6-----6-----6--| 
A|---4-----4-----4-----4-----0-----0-----0-----0-----|
E|---------------------------------------------------|
e|---------------------------------------------------|
B|---------------------------------------------------|
G|---------------------------------------------------|
D|------6-----6-----6-----6-----6-----4--------------|
A|------------------------------------------6-----7--|
E|---0-----0-----0-----0-----0-----0----(0)---(0)----|
CAN BE USED THROUGHOUT THE WHOLE SONG
preferbly : C#m , A and E  for the pre-chorus

Run chords – Emma Bale

 E flat tuning (standard tuning -> half step down)
RUN - EMMA BALE
Intro
C#m A E C#m A E 
Verse 1
C#m A E 
Run to the water, and see 
C#m A E 

no one knows, except for me
C#m A E 

and I know the time has come

C#m A E 

so run to the water baby run

Chorus 1
C#m A E 

Oohh Oohh
C#m A E 

Oohh Oohh

Verse 2

C#m A E 

Take my hand, I’ll give you strength
C#m A E 

Guide you home trough forgotten lands
C#m A E 

See the world, it’s at your feet

                   C#m A E 
If you close your eyes, you’ll never see the deep

Chorus' 2
C#m A E 

Oohh Oohh
C#m A E 

Oohh Oohh
C#m A E B 

Run to the water baby, run to the water

 F#m A 
Run to the water baby, run
Bridge

F#m                                   

Whatever it is, you know that I'll guide you
A 

wherever you go, you know that I'll find you
E B 

nothing can take you, lead you away from home
F#m 

whenever you need me, I’ll be beside you
A 

carry you with me, I’ll light the way back  (home)
Chorus" 3
C#m A E 

home
C#m A E 

The way back home
Outro
C#m A E 
Run to the water and see

C#m A E 
Trust yourself and you'll be free

Never Run Out Of Love chords – Cheap Trick

 -------------------------------------------------------------------------------
Never Run Out of Love-Cheap Trick
-------------------------------------------------------------------------------
:Nick V.
BlindTerry333
From 1994's Woke Up With a Monster.
Tuning:EADGBE
[Riff #1]        
e|------------0----------------------------------------------------------------|
B|------------0----------------------------------------------------------------|
G|------------1----------------------------------------------------------------|
D|------------2----------------------------------------------------------------|
A|------------2----------------------------------------------------------------|
E|-0-3b-0-3b--0----------------------------------------------------------------|
Verse:
E 
I will never run out of love for you
Asus2 Bsus4 
I'll never run out of love
B 
Midnight, don't seem right
E 
I lie awake just wonderin' about you
B                        [Riff #1]
Wound up much too tight
E 
Can't think about livin' without you
C#m E        
The day you put your spell on me
C#m F#m 
I guess I was the last to know
Bsus B 
So, please remember before you go
Chorus:
E     
That I will never run out of love for you
Asus2 Bsus4 
I'll never run out of love
E 
I will never run out of love for you
Asus2        
Got more than enough, more than enough
E Bsus 
No, I will never run out of love
Verse:
B 
For so long, deep and strong 
E 
Love flowed mighty as a river
B                     [Riff #1]
Long road, heavy load 
E 
Hard times couldn't keep us apart
C#m E 
Never thought you would break the promise, oh no
C#m F#m 
Now it seems there's a part of me that just can't let you go
Bsus B 
So, please remember that you can come back home
Chorus:
E     
I will never run out of love for you
Asus2 Bsus4 
I'll never run out of love
E 
I will never run out of love for you
Asus2        
Got more than enough, more than enough
E Bsus 
No, I will never run out of love\
Bridge:
C#m 
No, no baby, don't you leave me
A  
No, no baby, don't go
C#m 
No, no baby, if you run away
A 
I still hope you know
Bsus B 
I need you so
Bsus B 
I can't take no more
Chorus:
E     
I will never run out of love for you
Asus2 Bsus4 
I'll never run out of love
E 
I will never run out of love for you
Asus2        
Got more than enough, more than enough
E Bsus 
No, I will never run out of love
E     
I will never run out of love for you
Asus2 Bsus4 
I'll never run out of love
E 
I will never run out of love for you
Asus2        
Got more than enough, more than enough
E Bsus 
No, I will never run out of love
Asus2 Bsus4 Bsus 
e|-0-----0---------------------------------------------------------------------|
B|-0-----0-------5-------------------------------------------------------------|
G|-2-----4-------4-------------------------------------------------------------|
D|-2-----4--

Run Wild chords – For King And Country

 Artist: For King And Country
Run Wild, Live Free, Love Strong
Song: Run Wild
Key: Gm | Capo: 3
Intro:  C D A Cadd9  -  D C D Em Em Bm7 D A Bm7 
Are the walls to lock you in or to keep others away
Em Bm7 D Em A     
And if the doors were to be opened would you leave or would you stay
Em Bm7 D A Bm7 
The comfort of your misery you cherish dearly, you cherish dearly
Em            
And you haven't started dreaming
Bm7 D Em A 
‘cause you’re still fast asleep, you’re fast asleep
C 
But don't you want to
D Em D/F# G        
Run wild, live free
D Em 
Love strong, you and me
Em Bm7 D A Bm7  
You’re a lion full of power who forgot how to roar
Em Bm7 D Em A  
You’re an eagle full of beauty but you can’t seem to soar
Em Bm7 D A Bm7 
Will you return to the garden where we were first made whole
Em Bm7 D Em A  
Will you turn to the One who can liberate your soul
C 
But don't you want to
D Em D/F# G        
Run wild, live free
D A 
Love strong, you and me
C D Em D/F# G 
Run wild, live free
D Em 
Love strong
Em D 
To every soul locked in a cage
Am C D 
In the prison of your past mistakes
Em D 
No, there's no time left to waste
A 
Yeah, you can make your great escape
C D Em D/F#   
We’re made to run wild, run wild, run wild
D C D Em D/F#  
We’re made to run wild, run wild, run wild
D 
We're made to
Em Bm7 D                                
Run forest, all depends what direction
A Bm7          
Some people run from fear, some from their own reflection
Em Bm7 D 
Some people run their mouth, some people run their house
Em 
Ruling with the heart of a tyrant
A 
Some people run their block, bust shot with a 4-4-5 and
Em Bm7 
That’s the environment, how we were raised
D 
Living like lions but trapped in a cage
A Bm7 
Back to a mine gold day with the blood of a king but the heart of a slave
C 
Don’t you wanna run
D Em D/F# G        
Run wild, live free
D A 
Love strong, you and me
C D Em D/F# G 
Run wild, live free
D Em 
Love strong
Em D 
To every soul locked in a cage
Am C D 
In the prison of your past mistakes
<span

Run chords – Nicole Scherzinger V2

 Nicole Scherzinger - 'Run'
No Capo
Standard tuning
Enjoy x
G 
Here's some advise for the next one
C 
Don't let him lead you to the dark
G 
Don't tell him all your secrets
C 
He'll leave you with a broken heart
Em 
He'll try and tell you that he wants you
G 
Just to keep you on the line
C 
And right when you're about to move on
G Dsus4 
He pulls you back in every time
Chorus
Em 
Here's advice for the next one
G C G 
Run, run, run
Em 
Here's advice for the next one
G C G 
Run, run, run
Verse 2
G 
Darling I know that you're just like me
C 
You give your love up way too fast
G 
But once it's gone it's gone forever
C 
And there's no coming back from that
Em 
He's got this perfect way about him
G 
He'll make you think that you come first
C 
But you'll get lost in the challenge
G Dsus4 
You're trying not to get hurt
Chorus
Em 
Here's advice for the next one
G C G 
Run, run, run
Em 
Here's advice for the next one
G C G 
Run, run, run
Bridge
Em 
Don't even search for that four-letter word
G 
You'll never get it out
You try, and try, and try
C 
But he'll just shut you down
Don't want to say I told you so
G 
So please go now
Chorus
Em 
Here's advice for the next one
G C G 
Run, run, run
Em 
Here's advice for the next one
G C G 
Run, run, run

Run Tabs – San Cisco

 San Cisco - Run 
Matt Roberts
Email: mmaattis
Standard tuning
========================================================
INTRODUCTION 
The intro is just bass, but it can be played more or less 
on a guitar: 
e|-----------------------------------------------------|
B|-----------------------------------------------------|
G|-----------------------------------------------------|
D|-----------------------------------------------------|
A|--4--4-----------------------------------------------|
E|-----------------------------------------------------|
e|-----------------------------------------------------|
B|-----------------------------------------------------|
G|-----------------------------------------------------|
D|-----------------------------------------------------|
A|--4--4----4-4----4---------------------------2---2---|
E|--------------------4--4----2--2----2-2----4---4-----|  (repeats for most of the song) 
========================================================
VERSE 1
e|-----------------------------------------------------|
B|-----------------------------------------------------|
G|-----------------------------------------------------|
D|-----------------------------------------------------|
A|--4-4-6-6-7-7-6-6-4-4-6-6-7-7-6-6--------------------|
E|-----------------------------------------------------|  
e|-----------------------------------------------------|
B|-----------------------------------------------------|
G|-----------------------------------------------------|
D|-----------------------------------------------------|
A|--4-4-6-6-7-7-6-6-7-7-6-6-4-4-6-4--------------------|
E|-----------------------------------------------------| 
========================================================
PRE CHORUS
Gave my heart...      She's bad news...                
e|--9------------------------7------------5------------|
B|--9------------------------7------------5------------|
G|--10-----------------------8------------6------------|
D|--9------------------------7------------5------------|
A|--11-----------------------9------------7------------|
E|--9------------------------7------------5------------| 
Gave my heart...
e|--9--------------------------------------------------|
B|--9--------------------------------------------------|
G|--10-------------------------------------------------|
D|--9--------------------------------------------------|
A|--11-------------------------------------------------|
E|--9--------------------------------------------------| 
========================================================
CHORUS
e|-----------------------------------------------------|
B|-----------------------------------------------------|
G|-----------------------------------------------------|
D|-----------------------------------------------------|
A|--16-14-16--16--14--11--14-16-14-16--16--14--11--14--|
E|-----------------------------------------------------| 
e|-----------------------------------------------------|
B|-----------------------------------------------------|
G|-----------------------------------------------------|
D|-----------------------------------------------------|
A|--14--14-----14--11--9-----------------------9--11---|
E|-------------------------12--11--9--------12---------|
e|-----------------------------------------------------|
B|-----------------------------------------------------|
G|-----------------------------------------------------|
D|-----------------------------------------------------|
A|--16-x-16---16--14-11-14---16-x-16--16----14-11-14---|
E|-----------------------------------------------------| 
e|-----------------------------------------------------|
B|-----------------------------------------------------|
G|-----------------------------------------------------|
D|-----------------------------------------------------|
A|--14--14-----14--11--9-----------------------9--11---|
E|-------------------------12--11--9--------12---------|
=============

Run Tabs by The Maine

 The Maine - Run
Forever Halloween
henricoimbra@hotmail.com
Just try to figure out the strum pattern in intro/verse/chorus and everything will be 
ok! Have fun ◠‿◠
Standard Tuning, no capo.
Intro (Guitar I)
E|---------------------------------------------------------------------|
B|-11-11--11-11-11--11----8-8--8-8-8--8----6-6--6-6-6--6---4-4-4-4-4-2-|
G|---------------------------------------------------------------------|
D|---------------------------------------------------------------------|
A|-10-10--10-10-10--10----6-6--6-6-6--6----5-5--5-5-5--5---3-3-3-3-3-1-|
E|---------------------------------------------------------------------|
Intro (Guitar II)
E|----------------|
B|----------------|
G|-12-12----12-12-|
D|----------------|
A|-10-10----10-10-|
E|----------------|
Verse (Guitar I)
E|---------------------------------|
B|---------------------------------|
G|---------8-8-8-8-----------------|
D|-5-5-5-5-8-8-8-8-8-8-8-8-3-3-3-3-|
A|-5-5-5-5-6-6-6-6-8-8-8-8-3-3-3-3-|
E|-3-3-3-3---------6-6-6-6-1-1-1-1-|
Verse (Guitar II)
E|------|
B|-11---|
G|------|
D|------|
A|-10---|
E|------|
E|------------------------------------------------------------------------------------------|
B|------11------11------11------11------11------11------11------11--------------------------|
G|--12------12------12------12--------------------------------------------------------------|
D|----------------------------------13------13------13------13------------------------------|
A|------------------------------------------------------------------------------------------|
E|------------------------------------------------------------------------------------------|
E|------------------------------------------------------------------|
B|------11------11------11------11------11------11------11------11--|
G|--10------10------10------10--------------------------------------|
D|----------------------------------13------13------13------13------|
A|------------------------------------------------------------------|
E|------------------------------------------------------------------|
Chorus
E|-----------------------------------|
B|-----------------------------------|
G|---------8-8-8-8-8-----------------|
D|-8-8-8-8-8-8-8-8-8-5-5-5-5-3-3-3-3-|
A|-8-8-8-8-6-6-6-6-6-5-5-5-5-3-3-3-3-|
E|-6-6-6-6-----------3-3-3-3-1-1-1-1-|
Guitar Solo (w/ whammy + delay)
E|-------------------------------------------------------------------------|
B|-------------------------------------------------------------------------|
G|-12-12-12-10-12-12-12-------------------10-10-12-12-12-12b14-12-12-12b14-|
D|----------------------10-12-12-12-10-12----------------------------------|
A|-------------------------------------------------------------------------|
E|-------------------------------------------------------------------------|
E|----------------------------------------------------------------------------|
B|-------------------------------------15-15-15-15-16-16-16-18-18-18-20-20-20-|
G|-14-14-15-15-17-17-17-17-15-15-15-15----------------------------------------|
D|----------------------------------------------------------------------------|
A|----------------------------------------------------------------------------|
E|----------------------------------------------------------------------------|
Chorus
E|-----------------------------------|
B|-----------------------------------|
G|---------8-8-8-8-8-----------------|
D|-8-8-8-8-8-8-8-8-8-5-5-5-5-3-3-3-3-|
A|-8-8-8-8-6-6-6-6-6-5-5-5-5-3-3-3-3-|
E|-6-6-6-6-----------3-3-3-3-1-1-1-1-|
Ending
E|---------------------------------------------------------------------|
B|-11-11--11-11-11--11----8-8--8-8-8--8----6-6--6-6-6--6---4-4-4-4-4-2-|
G|---------------------------------------------------------------------|
D|---------------------------------------------------------------------|

And We Run Tabs by Within Temptation

 Within Temptation-And We Run (Guitar Tab) Drop-Bb-F-Bb-Eb-G-C-F tuning
Intro
F------------------------------------------------------------------\
C------------------------------------------------------------------ \
G------------------------------------------------------------------  \
Eb-----------------------------------------------------------------   \
Bb-----------------------------------------------------------------    \
F------------------------------------------------------------------     \
Bb--7-7-7-7-7-7-7-7-7-7-7-7-7-7-7-3-3-3-3-3-3-3-3-3-3-3-3-3-3-3-3--      \
PM  . . . . . . . . . . . . . . . . . . . . . . . . . . . . . . .
X2
F------------------------------------------------------------------      /
C------------------------------------------------------------------     /
G------------------------------------------------------------------    /
Eb-----------------------------------------------------------------   /
Bb-----------------------------------------------------------------  /
F---3-3-3-3-3-3-3-3-3-3-3-3-3-3-3---------------------------------- /
Bb--------------------------------2-2-2-2-2-2-2-2-2-2-2-2-2-2-2-2--/
PM  . . . . . . . . . . . . . . . . . . . . . . . . . . . . . . .  
F----------------------------------------------------------------------|
C----------------------------------------------------------------------|
G----------------------------------------------------------------------|
Eb---------------------------------------------------------------------|
Bb---------------------------------------------------------------------|
F----------------------------------------------------------------------|
Bb--3-3-3-3-3-3-3-3-3-3-3-3-/-5-5-5-/-7-7-7-7-7-7-7-7-7-7-7-7-\-5-5-5--|
F--------------------------------------------|
C--------------------------------------------|
G--------------------------------------------|
Eb-------------------------------------------|
Bb--------------------------------------2~~~~|
F---------------------------------------2~~~~|
Bb--3-3-3-3-3-3-3-0-0-0-0-2-2-2-2-2-2-2-2~~~~|
Pauze.
Chorus (Starts At. 1:28 Min)
F------------------------------------------------------------------------------|
C------------------------------------------------------------------------------|
G------------------------------------------------------------------------------|
Eb-----------------------------------------------------------------------------|
Bb--------------7-7-7-7-7-7-7-7-7-7-7-7-7-7-7-3-3-3-3-3-3-3-3-3-3-3-3-3-3-3-3--|
F---------------7-7-7-7-7-7-7-7-7-7-7-7-7-7-7-3-3-3-3-3-3-3-3-3-3-3-3-3-3-3-3--|
Bb--7-/-12-\-3--7-7-7-7-7-7-7-7-7-7-7-7-7-7-7-3-3-3-3-3-3-3-3-3-3-3-3-3-3-3-3--|
F-------------------------------------------------------------------|
C-------------------------------------------------------------------|
G-------------------------------------------------------------------|
Eb------------------------------------------------------------------|
Bb--5-5-5-5-5-5-5-5-5-5-5-5-5-5-5-2-2-2-2-2-2-2-2-2-2-2-2-----------|
F---3-3-3-3-3-3-3-3-3-3-3-3-3-3-3-2-2-2-2-2-2-2-2-2-2-2-2--5-3-2----|
Bb--------------------------------2-2-2-2-2-2-2-2-2-2-2-2--------2--|
F------------------------------------------------------------------------------|
C------------------------------------------------------------------------------|
G------------------------------------------------------------------------------|
Eb-----------------------------------------------------------------------------|
Bb--------------7-7-7-7-7-7-7-7-7-7-7-7-7-7-7-3-3-3-3-3-3-3-3-3-3-3-3-3-3-3-3--|
F---------------7-7-7-7-7-7-7-7-7-7-7-7-7-7-7-3-3-3-3-3-3-3-3-3-3-3-3-3-3-3-3--|
Bb--7-/-12-\-3--7-7-7-7-7-7-7-7-7-7-7-7-7-7-7-3-3-3-3-3-3-3-3-3-3-3-3-3-3-3-3--|
F------------------------------------------------------------------|
C---------------------------------------------------

Drug You chords – Half Moon Run

 SONG:   DRUG YOU
ARTIST: HALF MOON RUN
TAB BY: DON CZARSKI
EMAIL:  GUITARZAN7@HOTMAIL.COM
DRUG YOU
HALF MOON RUN
NO CAPO
INTRO:    Dm G Dm G Dm 
NOTE: When the Dm is played either
play the chord or this little
RIFF over and over. Same for G.
Dm            
E -----------|
B -----------|
G -----------|
D -----------|
A -10h12-10--|
E -----------|
G 
E -----------|
B -----------|
G -----------|
D -10h12-10--|
A -----------|
E -----------|
F 
Drug you
Love you
Drug you
Love you
Drugs you
F 
Take to reveal it
G Dm 
All your wishes come true
F 
Drug you
Love you
Drug you
Love you
Drugs you
F 
Take to believe it
G Dm 
All your wishes come true
F G 
I still am full of hate
Am 
I still am full of pride
F G 
I still am full of hate
Dm 
I still am full of pride
F G 
Is it all that you need
Dm Am 
When it's all that you got
Dm 
Is it all that you need
F 
Cuz it's all that I want
G 
When it's all that you need
Dm 
Cuz it's all that you got
G 
Then it's all that you want
F Am 
And it's all that I'm not
F G 
Still as rain
Am Dm 
Fallin down
Dm G 
Still as rain
Dm 
Fallin down
Dm 
Drug you
Love you
Drug you
Love you
Drug you
Love you
Drug you
Love you
F G 
Still as raaaaain
G Am Dm 
Fallin down
F G 
Still as rain
Dm 
Fallin down
OUTRO: PLAY THE FOLLOWING CHORDS OVER THE
WORDS BELOW
Dm F G Am Dm 
Drug you love you drug you love you drug
You love you drug you love you drug you
Love you drug you love you drug you love
You drug you love you drug you love you
Drug you love you drug you love you drug
You love you drug you love you drug you
Love you drug you love you drug you love
You drug you love you drug you love you
Drug you love you drug you love you drug
You love you drug you love you drug you
Love you drug you love you drug you love
You drug you love you drug you love you
Drug you love you drug you love you drug
You love you drug you love you drug you
Love you drug you love you drug you love
You drug you love you drug you love you drug
--------------------------------------------
NOTE: I noticed when this song was performed 
live the guitar was capoed at the 7th
fret. So for those purists here is the
song tabbed at that fret.
SONG:   DRUG YOU
ARTIST: HALF MOON RUN
TAB BY: DON CZARSKI
EMAIL:  GUITARZAN7@HOTMAIL.COM
DRUG YOU
HALF MOON RUN
CAPO: 7th FRET
INTRO:    Gm C Gm C Gm 
NOTE: When the Gm is played either
play the chord or this little
RIFF over and over. Same for C.
Gm 
E -----------|
B -----------|
G -----------|
D -----------|
A -3h5-3-----|
E -----------|
C 
E -----------|
B -----------|
G -----------|
D -3h5-3-----|
A -----------|
E -----------|
Bb 
Drug you
Love you
Drug you
Lo

Run With The Pack chords – Bad Company

 READ!
There may be some more 7th's in there than what I put, if they sound good to you, 
use them, if not, don't.
Intro  D7 
Verse
A7 
You never give me my money,
D 
You only give me your sympathy.
A7 
'Cause I keep on running,
D 
There's no way to catch up with me.
Bm D Bm D     
I'm leaving you, don't make no fuss;
Bm D Bm A7            
You won't even see me, oh no, for dust.
Chorus
D C 
I'm running with the pack,
D C 
Running with the pack,
D C 
I'm running with the pack,
A7  (Repeat Intro)
Never looking back.
Verse chords
You try to keep me in cages,
But baby, you got to catch me first.
You think your law is contagious,
I'll do my best, you can do your worst.
I'm leaving you, now who can I trust;
You won't even see me, oh no, for dust.
Chorus chords
I'm running with the pack,
Running with the pack,
I'm running with the pack,
Never looking back.
Rest of the song uses the same pattern

Im Gonna Run To You chords – Bridgit Mendler

 "I'm Gonna Run to You" is a single from the "Good Luck Charlie" Christmas special 
preformed by: Bridgit Mendler (Teddy) released in 2011.
Tuning: Standard EADGBe
Chords used:
C    - x32010
Am   - x02310
F   - 134211 fret : 1
[Verse:1]
C 
If there's an ocean,
Am 
It's just a puddle
F C 
that I've gotta get across.
Am 
Any mountain, i'll climb over,
F C 
like a kid on the monkey bars.
C Am 
I know you're out there somewhere,
F C 
I know you miss me, just like I miss you.
Am 
No matter what I'll get there,
F C 
and you know I'll never stop.
[Chorus:]
C Am 
I'm gonna run run run run run,
F C 
i'm gonna run to you.
C Am 
I'm gonna run run run run run,
F C 
i'm gonna run to you.
C Am 
You know i'll find you, i'm never far behind you.
F C 
I swear these words are true.
Am 
I'm gonna run run run run run,
F C 
i'm gonna run to you.
[Verse 2:]
C Am 
Can you hear me? Hear me calling?
F C 
I know sometimes it's tough.
Am 
To hold on, keep believing
F C 
when you don't feel strong enough.
C Am 
Everyone out there gets scared.
F C 
You know I love you, just like you love me.
Am 
No matter what i'll get there.
F C 
Ain't no way i'll ever stop.
[Chorus:]
C Am 
I'm gonna run run run run run,
F C 
i'm gonna run to you.
C Am 
I'm gonna run run run run run,
F C 
i'm gonna run to you.
C Am 
You know i'll find you, i'm never far behind you.
F C 
I swear these words are true.
Am 
I'm gonna run run run run run,
F 
i'm gonna run to you.
[Bridge:]
Em Am F 
Every minute, i'm getting closer.
I'm gonna show ya.
Em Am D 
Any second, i'll walk through that door,
F 
here I come, yeah oh here I come.
[Chorus:2]
C Am 
I'm gonna run run run run run-run,
F C 
i'm gonna run to you.
Am 
I'm gonna run run run-un
F C 
i'm gonna run to you.
C Am 
You know i'll find you, i'm never far behind you.
F C 
I swear these words are true.
C Am 
I'm gonna run run run-uh-uh-uh-uh-un.
F C 
i'm gonna run to, run to you.
Am 
I'm gonna run run run run run,
F C 
i'm gonna run to you.
Am 
I'm gonna run run run run run,
F C 
i'm gonna run to you.
C Am 
You know i'll find you, i'm never far behind you.
F C 
I swear these words are true.
Am 
I'm gonna run run run run run,
F C 
i'm gonna run to you.
[Outro:]
C Am 
Ooh, La La La
F C 
Doo-Wop, Doo-Wop, Doo-Wop, Doo-Wop

Band On The Run Tabs by Paul Mccartney V4

 -------------------------------------------------------------------------------
Band On The Run - Paul McCartney & Wings
-------------------------------------------------------------------------------
: Spiketheferret
Tuning: Standard
This is how I play the song, sounds amazing on acoustic and pretty slick on a 
lightly over-driven electric as well.
e|--10/12\10--5/7\5--2--5h7p5h7p5h7p5h7p5h7p5h7p5h7------------3h5p3h5p3h5p3h5p3h5p3h5p3h5--|
B|--10/12\10--5/7\5--2--7----------------------------7/8p7--5--3----------------------------|
G|-------------------2--6---------------------------------7-4--4----------------------------|
D|----------------------------------------------------------4--4----------------------------|
A|----------------------------------------------------------0-------------------------------|
E|----------------------------------------------------------3-------------------------------|
e|--10/12\10--5/7\5--2--5h7p5h7p5h7p5h7p5h7p5h7p5h7------------3h5p3h5p3h5p3h5p3h5p3h5p3h5--|
B|--10/12\10--5/7\5--2--7----------------------------7/8p7--5--3----------------------------|
G|-------------------2--6---------------------------------7-4--4----------------------------|
D|----------------------------------------------------------4--4----------------------------|
A|----------------------------------------------------------0-------------------------------|
E|----------------------------------------------------------3-------------------------------|
e|--0-0\0-0\0---3----0-0\0-0\0-0--3--2h3p2-------------|
B|--8-7\5-5\3--3-----8-7\5-5\3-3-3---2-----------------|
G|--7-6\4-4\2--3-----7-6\4-4\2-2-3---2-----------------|
D|--0-0\0-0\0--2-----0-0\0-0\0-0-2---------------------|
A|-------------x-----------------x---------------------|
E|-------------3-----------------3---------------------|
Stuck inside these four walls  
e|--2----------------------------5h7p5h7p5h7p5h7p5h7p5h7p5h7-----------------|
B|--2----------------------------7-------------------------------------------|
G|--2----------------------------6-------------------------------------------|
D|---------------------------------------------------------------------------|
A|---------------------------------------------------------------------------|
E|---------------------------------------------------------------------------|
Sent inside forever
e|---------------------3h5p3h5p3h5p3h5p3h5p3h5p3h5---------------------------|
B|--5------------------3-----------------------------------------------------|
G|--4------------------4-----------------------------------------------------|
D|--4------------------4-----------------------------------------------------|
A|--0------------------------------------------------------------------------|
E|--3------------------------------------------------------------------------|
Never    seeing     no    one  
e|--2----------------------------5h7p5h7p5h7p5h7p5h7p5h7p5h7-----------------|
B|--2----------------------------7-------------------------------------------|
G|--2----------------------------6-------------------------------------------|
D|---------------------------------------------------------------------------|
A|---------------------------------------------------------------------------|
E|---------------------------------------------------------------------------|
Nice          again    
e|---------------------3h5p3h5p3h5p3h5p3h5p3h5p3h5---------------------------|
B|--5------------------3-----------------------------------------------------|
G|--4------------------4-----------------------------------------------------|
D|--4------------------4-----------------------------------------------------|
A|--0------------------------------------------------------------------------|
E|--3------------------------------------------------------------------------|
Like you    Mama   you.    Mama   y

Rabbit Will Run chords – Iron And Wine

 I play at Capo 4 or 5
Em G 
Last I saw mother she rose from a chair
Am C 
When they caught me I'd just finished combing my hair
Em G Am C 
'Cause a rabbit will run, as a colt does along with the mare 
Em G 
We've all learned the earth while we carried the throne 
Am C 
We dove under the rivers and under our clothes 
Em G Am C 
And I still have a prayer, as sure as my settling bones

Sweet Times Run chords – Nonpronto

 Verse: 
( Gm7 ,  Am7 ,  Bbmaj7 ,  Am7 )x2 
( Gm ,  Am7 ,  Bbmaj7 ,  A7 ,  Dm ...) 
Chorus: ( Bb ,  Am7 ,  Gm7 ,  Fmaj7 ) 
Bridge: (Eb7#11,  Dm ,  Dbmaj7 ,  Gm  -  Am  -  Bb  -  C )
Something in the air is full of promise yet regret
Could it be the local brewery?
I could stay outside all night with friends like family
Drinking pints and smokey scotch whiskey
But it's not about the weather or whether or not we're young;
It simply has to do with the fun
The company is there and that's all that need be done;
Watch as the sweet times run
We'll meet up in Logan Square, try out the new age pub
Then we'll stumble out into my neighborhood
Regardless of what happens next, I know we'll have a ball
Someday we'll tell our kids we've done it all
Tell me now that you feel well, this much it must be true
That horn-filled bridge could cure bad attitude
If you're still down in the dumps something has to be wrong
So find a friend and sing with them this song

Run chords – Praise And Worship

 Intro to Be Played Along With Riff: D#m  B  F#  C#  
B F# C#  x2
D#m B F# C# 
You were God from the outset,
D#m B F# C# 
powerful and creative
B 
You had sought us here before
D#m C# B 
You called all the stars and the earth to existence
D#m B F# C# 
You are God, You are Holy
D#m B F# C# 
History’s Your story
B D#m C# 
You who was and is and forever will be,
B 
God we live for Your glory
Chorus:
F# C# D#m 
So we will run altogether with hearts aflame
B F# 
Like a fire that can’t be tamed
C# A# B D#m F# C# D#m B F# C# 
Our God all glory to Your name, Jesus
D#m B F# C# 
You are God You are freedom,
D#m B F# C# 
You’re alive now within us
B 
You who sought us here before
D#m C# 
You conquered the grave
B 
You’re living on Your promise
F# C# D#m 
So we will run altogether with hearts aflame
B F# 
Like a fire that can’t be tamed
C# A# B 
Our God all glory to Your name
F# C# D#m 
So we will run altogether with hearts aflame
B F# 
Our Desire That You Be Praised
C# A# B D#m F# C# D#m B F# C# 
Our God all glory to Your name, Jesus
Then The Lead Solos The Intro To The Same Chords:
D#m B F# C# D#m B C# 
E----------------------------------------------------------------|
B--11-11-11-11-9-11-12-11-11-11-7-7-9-9-6-6----------------------|
G----------------------------------------------------------------|
D----------------------------------------------------------------|
A----------------------------------------------------------------|
E----------------------------------------------------------------|
E-------------------------------9-9-9-9--------------------------|
B--11-11-11-11-9-11-12-11-11-11----------------------------------|
G----------------------------------------------------------------|
D----------------------------------------------------------------|
A----------------------------------------------------------------|
E----------------------------------------------------------------|
After The Solo The Guitarist Palm mutes these Next Chords Building Back into the Final Chorus.
D#m B D#m B D#m B B D#m B D#m B F# C# D#m 
We will run altogether with hearts aflame
B F# 
Like a fire that can’t be tamed
C# A# B 
Our God all glory to Your name
F# C# D#m 
We will run altogether with hearts aflame
B F# 
Our Desire That You Be Praised
C# A# B D#m F# 

Born To Run chords – Bruce Springsteen V6

 BORN TO RUN
BRUCE SPRINGSTEEN
INTRO 2x:  E Esus4 E A B 
VERSE 1:
E A B 
In the day we sweat it out on the streets of a runaway American dream 
E A B 
At night we ride through mansions of glory in suicide machines
A A/G# F#m 
Sprung from cages out on highway 9,  chrome wheeled, fuel injected
C#m/G# E D    
and steppin’ out over the line    Oh  
A A/G# 
Baby this town rips the bones from your back
F#m C#m/G# E C#m 
It’s a death trap, it’s a suicide rap  we gotta get out while we’re young
A B E    INTRO 2x
`Cause tramps like us, baby we were born to run
VERSE 2:
Wendy [ E ] let me in I wanna be your friend I wanna [ A ] guard your dreams and [ B ] visions
Just [ E ] wrap your legs ‘round these velvet rims and [ A ] strap your hands across my [ B ] engines    
[ A ] Together we could [ A/G# ] break this trap we’ll [ F#m ] run till we drop
[ C#m/G# ] Baby we’ll never go [ E ] back    [ D ] Oh
Will you [ A ] walk with me out on the [ A/G# ] wire    `Cause [ F#m ] baby I’m just a scared and
[ C#m/G# ] lonely rider but I [ E ] gotta know how it [ C#m ] feels   
I want to [ A ] know if love is wild babe I [ B ] want to know if love is [ E ] real INTRO 2x
SOLO: E [8 beats] A [4 BEATS]  B [4 BEATS]  2X  C#m [7 BEATS]    B E     Bm7
BRIDGE:
Dsus D Dsus D Gsus G Gsus G     
Beyond the Palace hemi-powered drones scream down the boulevard
Asus A Asus A Csus C Csus C 
The girls comb their hair in rearview mirrors And the boys try to look so hard
Dsus D Dsus D Gsus G Gsus G 
The amusement park rises bold and stark as kids are huddled on the beach in the mist
Asus A Asus A Csus C Csus C 
I wanna die with you Wendy on the streets tonight in an everlasting kiss
BRIDGE:  Fsus4 - F Fsus4 - F Fsus4 - F C  [8 BEATS] 
Fsus4 - F Fsus4 - F F#sus4 - F# F#sus4 - F#   
DESCENDING LINE NOTES:  B Bb A Ab G F# F E Eb D C# C C C C B  CHORD HOLD
VERSE 3:
The [ E ] highway’s jammed with broken heroes on a [ A ] last chance power [ B ] drive
Every[ E ]body’s out on the run tonight but there’s [ A ] no place left to [ B ] hide
[ A ] Together Wendy we can [ A/G# ] live with the sadness
I’ll [ F#m ] love you with all the [ C#m/G# ] madness in my [ E ] soul   [ D ] Oh
[ A ] Someday girl I [ A/G# ] don’t know when we’re gonna [ 

Kiss N Run chords – Sunrise Avenue

 Song: Kiss 'N' Run
Popgasm
Artist: Sunrise Avenue
Chords are use as powerchords!
Intro:
D C# E C#  (4x)
D C# E C# D 
Feels like the world has let me down
D E F# E D 
Feels as if I'm ready to drown
D C# E C# D 
It's 3 a.m., I lie awake
D E F# E D 
Thinking about my great escape
D C# E C# D 
I'm fine with all that I have left
D E F# E D 
I try to breathe and just forget
D C# E C# D 
I'm flying low because of you
D E F# E D ___ B 
My every thought leads back to you
B C G A B 
I'm not made to kiss and run
D G 
Say, I'm not the only one
A B 
Getting over you in a weekend
G A B 
If on Monday I'll be fine
D G 
Why can't I sleep tight tonight
A B 
And just walk away and leave her
G                A               D C# E C# (← that's like the intro)
'Cause I'm not made to kiss and run
D C# E C# D 
I'm pacing all over this place
D E F# D 
Tracing the steps we failed to take
D C# E C# D 
I miss you so inside my head
D E F# E D 
Have to remember to forget
D C# E C# D 
It's just those eyes that kill me now
D E F# 
Intensity still stings my eyes
D C# E C# D 
I wanna keep this hurting too
D E F# E D ___ B 
If it's the last touch I had from you
B C G A B 
I'm not made to kiss and run
D G 
Say, I'm not the only one
A B 
Getting over you in a weekend
G A B 
If on Monday I'll be fine
D G 
Why can't I sleep tight tonight
A B 
And just walk away and leave her
G A D  
'Cause I'm not made to kiss and run
D C# E C# D 
I'm fine with all that I have left
D E F# E D 
I'm trying to live with it every day
D C# E C# D 
I'm not made to kiss and run
G A B 
I'm not made to kiss and run
D G 
Say, I'm not the only one
A B 
Getting over you in a weekend
G A B 
If on Monday I'll be fine
D G 
Why can't I sleep tight tonight
A B 
And just walk away and leave her
G A D C