Tag: sara

You Matter To Me chords – Sara Bareilles

 F/G F/A F/Bb 
I could find the whole meaning of life in those sad eyes
 F/G F/A F/Bb 
They've seen things that you never quite say but I hear
 F/G F/A F/Bb 
Come out of hiding. I'm right here beside you
          F/G F/A F/Bb 
And I'll stay there as long as you let me

         F Am Bb 
Because you matter to me
 Dm F Bb 
Simple and plain and not much to ask from somebody
 F Bb C Dm 
You matter to me
               Bb F C Dm 
I promise you do. You, you matter to...
               Bb F G Am Bb 
I promise you do, you see
               G 
You matter to me

      C/G C/A C/F 
It's addictive the minute you let yourself think
     C/G C/A C/F 
The things that I say just might matter to someone
 C/G C/A C/F 
All of this time I've been keeping my mind on the running away
             C/G C/A C/F 
And for the first time I think I'd consider the stay

         C Em F 
Because you matter to me
 Am C F 
Simple and plain and not much to ask from somebody
 C F G Am 
You matter to me
               F C G Am 
I promise you do. You, you matter to...
               F C Dm Em F 
I promise you do, you see
               C Am G F 
You matter to me

 C Am G F C Em F 
And you matter to me
 Am C F 
Simple and plain and not much to ask from somebody
 C F G Am 
You matter to me
               F C G Am 
I promise you do. You, you matter to...
(Come out of hiding I'm right here beside you as long as you have me.)
               F C G Am 
I promise you do. You, you matter to...
(Come of hiding I'm right here beside you.)
               F C G Am 
I promise you do. You, you matter to...
(I do. I promise you do. You matter to me.)
               F C Dm Em F 
I promise you do, you see
               Dm Em F Gsus C 
You matter to me

Mona Lisa Tabs – Dead Sara

 -------------------------------------------------------------------------------
                             MONA LISA - Dead Sara
-------------------------------------------------------------------------------
: Chris Glenn
 chrisglenn17@hotmail.com

Tuning: Db Standard
        Db Ab Db Gb Bb Eb

First tab hope you can understand it. I recorded a cover of this if you need to see any parts played.


0:19-0:38
E|-------------|
B|-------------|
G|-------------|
D|-------------| x8
A|--------/5\--|
E|-0-0-00------|
   x x xx

0:39-0:47
E|-------------|
B|-------------|
G|-------------|
D|0-0-00-------| x4
A|0-0-00-/5\---|
E|0-0-00-------|


0:48-0:53
E|---------------------------|
B|---------------------------|
G|---------------------------|
D|---------------------------|
A|--------/5\-----------/5\~-|
E|-0-0-00-------0-0-00-------|
   x x xx       x x xx

1:00-1:10
E|------------------------|
B|-9br-7-5-4-5--5-4-5-7br-|
G|-9br-7-5-4-5--5-4-5-7br-|
D|------------------------| x2
A|------------------------|
E|------------------------|


1:14-1:22
E|-------------|
B|-------------|
G|-------------|
D|-------------| x3
A|--------/5\--|
E|-0-0-00------|
   x x xx

1:23-1:43
E|-------------|
B|-------------|
G|-------------|
D|0-0-00-------| x8
A|0-0-00-/5\---|
E|0-0-00-------|


1:52-2:07
E|-----------------------------|
B|-----------------------------|
G|--------------------10-------|
D|--------------10h12----12----| x4
A|-5-8-5-5---------------------|
E|---------3-0~----------------|
       x x


2:07-2:18
E|-------------------------------------------|
B|-------------------------------------------|
G|-------------------------------------------|
D|-------------------------------------------|
A|-5-8-5-5-----------------------------------|
E|---------3-0-0-0----0-0-0---0-0-0---0-0-0~-|

2:22-2:42 (bass first then guitar comes in)
E|---------------------------------------------                |--------------|
B|---------------------------------------------                |--------------|
G|---------------------------------------------                |--------------|
D|--------------------------------------------- x As Necessary |--------------|
A|---------------------------------------------                |-5-8-5-5------|
E|-0-12-12-12-12-0-12-12-12-12-0-12-12-12-12---                |---------3-0~-|
                                                                     x x


2:45-2:47
E|----------------------------------------------|
B|----------------------------------------------|
G|----------------------------------------------|
D|----------------------------------------------|
A|----------------------------------------------|
E|-0-12-12-12-12-0-12-12-12-12-0-12-12-12-12-0\-|

2:50-2:59
E|-------------   --------------|
B|-------------    |---    -----|
G|-------------    |-5-    -7---|
D|0-0-00------- x3 |-x- x8 -x---| x8
A|0-0-00-/5\---    |-3-    -5---|
E|0-0-00-------    |---    -----|

3:00-3:07
E|-------------|
B|-------------|
G|-------------|
D|0-0-00-------| x3
A|0-0-00-/5\---|
E|0-0-00-------|

3:08
E|--
B|--
G|--
D|0-
A|0-
E|0-

************************************

| /   slide up
| \   slide down
| h   hammer-on
| p   pull-off
| ~   vibrato
| +   harmonic
| x   Mute note
| b   Bend
| pb  Pre-bend
| br  Bend release
| pbr Pre-bend release
| brb Bend release bend

************************************

Dont Find Another Love chords – Tegan And Sara

 These are just some rough chords I worked out about an hour after the song first 
dropped. I don't expect them to be 100& accurate. Hopefully they're a good rough guide.


Verse 1 -

 Ab 
Won't you tell me what you want from me,

Don't you know I'd walk across the sea,
            Fm 
just to be with you,
            Ab 
just to see it through.

 Ab 
You can find me on the edge tonight,

you can talk me off the ledge tonight,
         Fm 
if you wanted to,
           Ab 
don't you want me to?


Chorus -

              Bbm 
Please don't find another love
              Fm 
Please don't find another love
              Eb 
Please don't find another love
          Ab 
when I'm away.

         Bbm 
Now our signal's breaking off,
         Fm 
a satellite is not enough,
              Eb Eb7 
please don't find another love,
          Ab 
when I'm away.


Verse 2 -

      Ab 
I could promise you're the only one,

we could walk into the setting sun,
        Fm 
if you wanted to,
        Ab 
I would follow you.

        Ab 
Take a little and you turn away,

such a wicked little game to play,
         Fm 
and I'm just a fool,
             Ab 
how could you be so cruel.


Chorus -

              Bbm 
Please don't find another love
              Fm 
Please don't find another love
              Eb 
Please don't find another love
          Ab 
when I'm away.

          Bbm 
Now our signal's breaking off,
        Fm 
a satellite is not enough,
              Eb Eb7 
please don't find another love,
          Ab 
when I'm away.


Middle Eight -

          Bbm 
I'm losing my senses,
          Ab 
I'm falling apart for us,
          Bbm 
now I'm defenseless,
          Eb 
falling in endless love.


Chorus -

              Bbm 
Please don't find another love
              Fm 
Please don't find another love
              Eb 
Please don't find another love
          Ab 
when I'm away.

           Bbm 
Now our signal's breaking off,
        Fm 
a satellite is not enough,
              Eb Eb7 
please don't find another love,
          Ab 
when I'm away.

Sweet As Whole chords – Sara Bareilles V4

 Chords: (In relation to capo)

 Ab : 320003
 Am : x02210
 D7 : xx0212
 C : x32010
 D :xxx2320

Capo 1 

 Ab 
Sometimes I can be perfectly sweet
       Am 
Got this sugary me all stuffed up in my sleeve
        D7 
And I'll talk of ponies and rainbows and things
        C 
And I'm just who you want me to be
          Ab 
Like most creatures down here on the ground
         Am 
I'm composed of the elements moving around
           D7 
But I grow and change and I shift and I switch
         C 
And it turns out I'm actually kind of a bitch
        D 
But that only happens when I get provoked
        C 
By some piece of shit asshole we all sadly know
          D 
And I sit and I write while reminding you all
          C 
That mean songs are still better than going postal

                   Ab 
That guy's an asshole
               D7 
And that girl's a bitch
     Am 
Baby it's natural
        C 
No getting away from it
          Ab 
So sing it out with me
        D7 
And then let it go
 Am D7 Ab 
Fuck that guy he's just an asshole

 Ab 
I see I surprised you with some of my words
             Am 
And I know that surprises, while fun, still can hurt
             D7 
And I hate to think that I've ruined the day
           C 
Of the dick and the queen of the high horse parade
            Ab 
But I'm sick and tired of your poisonous ways
            Am 
You're a toxin wasting perfectly good space
            D7 
And I say what I think
            C 
'Cause it's more economic than drugs or a drink

                   Ab 
That guy's an asshole
               D7 
And that girl's a bitch
     Am 
Baby it's natural
        C 
No getting away from it
          Ab 
So sing it out with me
        D7 
And then let it go
 Am D7 Ab 
Fuck that guy he's just an asshole

 Am 
And I won't let him in
 D7 C 
Under my skin
 C D 
You're a sad sack of shit
 D7 Ab 
It's pathetic
 Ab       
Just a festering sore
 D7 C 
That will never be more than that
 D 
If I don't let it

                   Ab 
That guy's an asshole
               D7 
And that girl's a bitch
     Am 
Baby it's natural
        C 
No getting away from it
          Ab 
So sing it out with me
        D7 
And then let it go
 Am D7 Ab 
Fuck that guy he's just an asshole

Brave chords – Sara Bareilles V7

 "Brave" - Sara Bareilles
Guitar Tab

Capo on 3

 G 
You can be amazing, you can turn a phrase into a weapon or a drug
 Em C 
You can be the outcast, or be the backlash of somebody's lack of love
    D 
Or you can start speaking up
 G 
Nothing's gonna hurt you, the way that words do when they settle 'neath your skin
 Em C 
Kept on the inside and no sunlight, sometimes a shadow wins
       D 
But I wonder what would happen if you

 G D 
Say what you wanna say
 Em D C 
And let the words fall out
       Em D 
Honestly I wanna see you be brave
 G D 
With what you wanna say
 Em D C 
And let the words fall out
       Em D 
Honestly I wanna see you be brave

 G 
I just wanna see you
 C 
I just wanna see you
 Em 
I just wanna see you
 D 
I wanna see you be brave

 G 
I just wanna see you
 C 
I just wanna see you
 Em 
I just wanna see you
 D 
I wanna see you be brave

 G 
Everybody's been there, everybody's been stared down by the enemy
 Em C 
Fallen for the fear and done some disappearing, bow down to the mighty
           D 
Don't run, stop holding your tongue
 G 
Maybe there's a way out of the cage where you live
 Em C 
Maybe one of these days you can let the light in
         D 
Show me how big your brave is

 G D 
Say what you wanna say
 Em D C 
And let the words fall out
       Em D 
Honestly I wanna see you be brave
 G D 
With what you wanna say
 Em D C 
And let the words fall out
       Em D 
Honestly I wanna see you be brave

 Em G 
And since, your history of silence

**Won't do you any good

Did you think it would?**
 Em G 
Let your words be anything but empty
 D 
Why don't you tell them the truth?

 G D 
Say what you wanna say
 Em D C 
And let the words fall out
       Em D 
Honestly I wanna see you be brave
 G D 
With what you wanna say
 Em D C 
And let the words fall out
       Em D 
Honestly I wanna see you be brave

 G 
I just wanna see you
 C 
I just wanna see you
 Em 
I just wanna see you
 D 
I wanna see you be brave

 G 
I just wanna see you
 C 
I just wanna see you
 Em 
I just wanna see you
 D 
       See you be brave

 G 
I just wanna see you
 C 
I just wanna see you
 Em 
I just wanna see you
 D G 
I just wanna see you
 C 
I just wanna see you
 Em 
I just wanna see you
 D 

**

1     1  1   12  2
Won't do you any good
1   1   1     2  2
Did you think it would?

(C=capo x=not played) *NOTE* D string is muted by finger 1 (1) and finger 2 (2)
       

Figure 1 (1)
e|--C--4------|
B|--C--3------|
G|--C--0------|
D|--C-x-------|
A|--C-1-------|
E|--C--x------|

Figure 2 (2)
e|--C--4------|
B|--C--3------|
G|--C--0------|
D|--C--x------|
A|--C--2------|
E|--C--x------|

Me Too Lovestruck chords – Sara Paxton

 One of my earliest tabs. The "ohh" part may be a bit off. I saw the musical "Lovestruck" 
and fell in love with this song. Enjoy :)

CAPO 2

 D A 
I want to tell you, but there's so many words to say
 Bm G 
I want to tell you, but the words get in my way
 D 
It's all there on the tip of your tongue
 A 
My hearts full brain goes numb


 Bm G 
So I'll just ask you, do you?
       A D 
I do, me too
 Bm G 
So I'll just ask you, do you?
        A D 
I do, me too


 D A 
I promise I'll be there as the years go by
 Bm G 
And I'll be faithful to you till the day I die
 D A 
Just to have to hold your hand makes me the luckiest man


 Bm G 
So now I ask you, do you?
           A D 
I do, me too
 Bm G 
So now I ask you, do you?
      A D 
I do


 Bm G D A 
So many pieces of paper, crumpled up and thrown away
 Bm G D A 
So many after and laters, gotta get the nerve

(gotta get the nerve)

 Bm G 
Why such crazy behavior?
 D A 
Gonna say my vows today
  Bm 
Cant wait

 D 
Oohhh...
 A 
Ooohhh...
 G 
Oohhh...

Do you? I do
Me too

 D 
Oohhh...
 A 
Ooohhh...
 G 
Oohhh...

Do you? I do
Me too

End on D

Goodbye Goodbye Tabs by Tegan And Sara

 Standard Tuning

Mostly synth or keyboards written for guitar just for you, you lucky thing.
Hope it's good, and sorry if some of the lyrics are wrong


INTRO
e|--------------------------------|--------------------------------|
B|--11---9--11---9-------9-------9|--11---9--11---9-------9-------9|
G|------------------11------11----|------------------11------11----|
D|11--11--11--11--11--11--11--11--|11--11--11--11--11--11--11--11--|
A|--------------------------------|--------------------------------|
E|--------------------------------|--------------------------------|

VERSE
e|--------------------------------|--------------------------------|
B|-----7-----------7-7------------|-----4--------------------------|
G|-8-8-8-----------6-6-----------4|-4-4-4-----------6-6------------|
D|-8-8-------------4-4-----------4|-4-4-------------6-6------------|
A|-6-6---------------------------2|-2-2-------------4-4------------|
E|--------------------------------|--------------------------------|
Goodbye, I don't wanna feel the need to hear your voice

e|--------------------------------|--------------------------------|
B|-----7-----------7-7------------|-----4--------------------------|
G|-8-8-8-----------6-6-----------4|-4-4-4-----------6-6------------|
D|-8-8-------------4-4-----------4|-4-4-------------6-6------------|
A|-6-6---------------------------2|-2-2-------------4-4------------|
E|--------------------------------|--------------------------------|
Goodbye, I don't wanna feel the need to see your face

e|--------------------------------|--------------------------------|
B|--------------------------------|--------------------------------|
G|-----------------6-6-6-6-6-6-6-6|--------------------------------|
D|-8-8-8-8-8-8-8-8-4-4-4-4-4-4-4-4|-4-4-4-4-4-4-4-4-6-6-6-6-6-6-6-6|
A|-6-6-6-6-6-6-6-6----------------|-2-2-2-2-2-2-2-2-4-4-4-4-4-4-4-4|
E|--------------------------------|--------------------------------|
 PM. . . . . . . . . . . . . . . .| . . . . . . . . . . . . . . . .|
I can't live with all these things I would say

e|--------------------------------|--------------------------------|
B|--------------------------------|--------------------------------|
G|-----------------6-6-6-6-6-6-6-6|--------------------------------|
D|-8-8-8-8-8-8-8-8-4-4-4-4-4-4-4-4|-4-4-4-4-4-4-4-4-6---6---6---6--|
A|-6-6-6-6-6-6-6-6----------------|-2-2-2-2-2-2-2-2-4---4---4---4--|
E|--------------------------------|--------------------------------|
 PM. . . . . . . . . . . . . . . .| . . . . . . . .                |
I can't live with all these things that I say

CHORUS
[When played live, Sara just plays the first strum of each chord and holds it, but if 
played with only guitar, it could sound better like this]
e|--------------------------------|--------------------------------|
B|--------------------------------|----------------14--12--11---9--|
G|-4-4-4-4-4-4-4-4-6-6-6-6-6-6-6-6|-8-8-8-8-8-8-8-8-x---x---x---x--|
D|-4-4-4-4-4-4-4-4-6-6-6-6-6-6-6-6|-8-8-8-8-8-8-8-811---9---8---6--|
A|-2-2-2-2-2-2-2-2-4-4-4-4-4-4-4-4|-6-6-6-6-6-6-6-6----------------|
E|--------------------------------|--------------------------------|
Goodbye, goodbye, goodbye, goodbye like the first time

e|--------------------------------|--------------------------------|
B|--------------------------------|----------------14--16--11---9--|
G|-4-4-4-4-4-4-4-4-6-6-6-6-6-6-6-6|-8-8-8-8-8-8-8-8-x---x---x---x--|
D|-4-4-4-4-4-4-4-4-6-6-6-6-6-6-6-6|-8-8-8-8-8-8-8-811--13---8---6--|
A|-2-2-2-2-2-2-2-2-4-4-4-4-4-4-4-4|-6-6-6-6-6-6-6-6----------------|
E|--------------------------------|--------------------------------|
Goodbye, goodbye, goodbye, goodbye like the first time

e|--------------------------------|--------------------------------|
B|--------------------------------|--------------------------------|
G|-4-4-4-4-4-4-4-4-6-6-6-6-6-6-6-6|-8-8-8-8-8-8-8-8----------------|
D|-4-4-4-4-4-4-4-4-6-6-6-6-6-6-6-6|-8-8-8

Sara Smile intro Tabs by Hall And Oates V2

 e|-----------------------------13-------------------------------------------|
B|--b13----------------b11-10-------b13-------------------------------------|
G|------b12---10-------------------------b10--10p12--10p12--10p12------b10--|
D|----------------12-----------------------------------------------12-------|
A|--------------------------------------------------------------------------|
E|--------------------------------------------------------------------------|


e|----------------------------------13/17----------------------------------|
B|------11-----------13~---13--18------------------------------------------|
G|--10-------12/14---------------------------------------------------------|
D|-------------------------------------------------------------------------|
A|-------------------------------------------------------------------------|
E|-------------------------------------------------------------------------|

I Was A Fool Acoustic chords – Tegan And Sara

 Artist: Tegan & Sara
Song: I Was A Fool (acoustic)
Video 1: http://www.youtube.com/watch?v=5azEnIk-Th4
Video 2: http://www.youtube.com/watch?v=REoTPyWbTB4
Transcription: satir3, satir3@net.hr

Tuning: standard 
Capo: 1st fret!

Chords used:
Am:    x.0.2.2.1.0
Fmaj7: x.0.3.2.1.x
G6:    3.2.0.0.0.0
C:     x.3.2.0.1.0
C5:    x.3.5.5.x.x
F5:    1.3.3.x.x.x
G5:    3.5.5.x.x.x
F5/E:  0.3.3.x.x.x
C:     x.3.5.5.5.3
G:     3.5.5.4.3.3
F:     1.3.3.2.1.1
F5/E:  0.3.3.2.1.1

Intro:
 Am Fmaj7 G6  x2

Verse:
 Am Fmaj7 G6 
  Do you remember I searched you out
                              Am 
How I climbed your city's walls
       Fmaj7 G6 
Do you remember me as devout
                       Am 
How I pray for your calls

Pre-chorus:              
  G6 Fmaj7 Am 
I stood still, it's what I did
     G6 C Fmaj7 
Love like ours just never fits

Chorus:
 F5 C5 G5 F5 C5 G5 
  Well I stuck around I did behave, I saved you every time
         F5 
I was a fool for love
   C5 G5 
I was a fool for love
         F5 C5 G5 
I was a fool
         F5 C5 G5 
I was a fool

Break:
 Am Fmaj7 G6 

Verse:
 Am Fmaj7 G6 
  Then you blamed me and blocked me out
                           Am 
How long did you think I'd last
           Fmaj7 G6 
Then you disappeared for weeks to pout
                           Am 
How many times could I pack

Pre-chorus:
    G6 Fmaj7 Am 
But stand still is all I did
    G6 C Fmaj7 
Love like ours just never fits

Chorus:
 F5 C5 G5 F5 C5 G5 
  Well I stuck around I did behave, I saved you every time
         F5 
I was a fool for love
   C5 G5 
I was a fool for love
         F5 C5 G5 
I was a fool
         F5 C5 G5 
I was a fool

Bridge:
 F5 F5/E G5 
  If you're worried that I might've changed
 F5 F5/E G5 
  Left behind all of my foolish ways
 F5 F5/E G5 
  You best be looking for somebody else
           F5 F5/E G5 
Without a foolish heart, a foolish heart

Pre-chorus:
 Am G6 Fmaj7 Am 
  But stand still is all I did
    G6 C Fmaj7 
Love like ours just never fits

Chorus:
 F5 C5 G5 F5 C5 G5 
  Well I stuck around I did behave, I saved you every time
         F5 
I was a fool for love
   C5 G5 
I was a fool for love
         F5 C5 G5 
I was a fool
         F5 C5 G5 
I was a fool
         F5 C5 G5 
I was a fool
         F5 C5 G5 
I was a fool
         F5 C5 G5 
I was a fool

The Ocean Chords – Tegan And Sara

Tuning: Standard Tuning

This song is awesome and pretty simple to play because there is only 3 chords (Apologies
I'm not sure what the proper
names for the chords are :( ), listen to the record to get
the strumming pattern as it's kind of hard to explain on here. Any corrections would be
appreciated! :)

For the intro play chords A and B and then it will go straight into the song.

Verses: Chords A and B

Chorus: C, A, B

All the verses and choruses follow the same chord progression as shown above, for the
finish on the A chord.

   A    B    C

e|-x----x----x----|
B|-x----x----x----|
G|-4----6----x----|
D|-5----7----x----|
A|-5----7----7----|
E|-x----x----7----|

VERSE 1

B
When you wake, what is it that you think of most?
A
When your bed is empty, do you really sleep alone?
B
If I imagine you
A
Body next to another

B
All around me new love, and it makes me sad
A
All around me feeling sure that you'll be back
B
If I imagine you
A
Body next to another

PRE-CHORUS

B
Stop crying to the ocean
A
Stop crying over me.
B
Stop worrying over nothing
A
Stop worrying over me.

CHORUS
C             A                    B (KEEP STRUMMING B CHORD UNTIL BEGINNING OF NEXT
THEN BACK INTO SAME PROGRESSION )
So, it's been so long since you said,
'Well, I know what I want
And what I want is right here with you'

VERSE 2

On the drive back here, I was worried over nothing.
On the drive back there, tears spilling over something
When I imagined you
Body next to another

In the door, over there, build yourself a fright (?)
In the door, can I hear you saying you don't want to fight (?)

When I imagine you
Body next to another

PRE-CHORUS

Stop crying to the ocean
Stop worrying over me
Stop worrying over nothing
Stop worrying over me

CHORUS

So, it's been so long since you've said,
'Well, I know what I want,
And what I want's right here with you'

It's been so long since you said,
'Well, I know what I want,
And what I want's right here with you'

VERSE 3

In a flashback, you just brought attention to the mess
In a flash, hear you talk, begging me to understand (?)
If I imagine you
Body next to another

You drop in for a minute
And I'm sorry that I didn't
Drop in sooner just to see you, and see what you've been doing.
If I imagine you
Body next to another

CHORUS

So, it's been so long since you've said,
'Well, I know what I want,
And what I want's right here with you'

It's been so long since you said,
'Well, I know what I want,
And what I want's right here with you'

It's been so long since you've said,
'Well, I know what I want,
And what I want's right here with you'

It's been so long since you said,
'Well, I know what I want,
And what I want's right here with you'