Tag: see

You Should See Me In A Crown chords by Billie Eilish

Verse          Chorus
----------     ----------
Em  02200x     E5  022xxx
G   32000x     G5  355xxx


Capo 4th fret


[Intro]
Em  G


[Verse 1]
Em
Bite my tongue, bide my time, wearing a warning sign
G
Wait 'til the world is mine
Em
Visions I vandalize, cold in my kingdom size
G
Fell for these ocean eyes


[Chorus 1]
                       E5
You should see me in a crown
                           E5
I'm gonna run this nothing town, watch me make 'em bow
E5  G5  E5  G5  E5
One by  one by  one
E5  G5  E5  G5
One by  one by

                       E5
You should see me in a crown
                            E5
Your silence is my favorite sound, watch me make 'em bow
E5  G5  E5  G5  E5
One by  one by  one
E5  G5  E5  G5  N.C.
One by  one by  one


[Verse 2]
Em
Count my cards, watch them fall, blood on a marble wall
G                        N.C.
I like the way they all, scream
Em
Tell me which one is worse, living or dying first
G
Sleeping inside a hearse (I don't dream)


[Bridge]
Em
   You say, come over baby
  G
I think you're pretty
Em
   I'm okay, I'm not your baby
       G
If you think I'm pretty


[Chorus 2]
                       E5
You should see me in a crown
                           E5
I'm gonna run this nothing town, watch me make 'em bow
E5  G5  E5  G5  E5
One by  one by  one
E5  G5  E5  G5
One by  one by

                       E5
You should see me in a crown
                            E5
Your silence is my favorite sound, watch me make 'em bow
E5  G5  E5  G5  E5
One by  one by  one
E5  G5  E5  G5  E5
One by  one by  one


[Interlude]
E5  E5
E5  G5  E5  G5
E5  G5  E5  G5


[Chorus 3]
E5
Crown
                           E5
I'm gonna run this nothing town, watch me make 'em bow
E5  G5  E5  G5  E5
One by  one by  one
E5  G5  E5  G5
One by  one by

                       E5
You should see me in a crown (you should see me, see me)
                            E5
Your silence is my favorite sound (you should see me, see me), watch me make 'em bow
E5  G5  E5  G5  E5
One by  one by  one
E5  G5  E5  G5  E5
One by  one by  one

I See Fire guitar chords by Ed Sheeran

[Intro]
N.C.
Oh, misty eye of the mountain below
Keep careful watch of my brothers' souls
And should the sky be filled with fire and smoke
                           Em
Keep watching over Durin's sons

[Intro Tab]
e|---------------------------x----------------x---------------x--|
B|-------------0h1-----------x------3---3-----x---0-----------x--|
G|2h4p20---0---0-------------x------0h2-2-----x---0-----------x--|
D|------0h2----2-------------x------0---------x---2-----------x--|  
A|-------------3-------------x----------------x---------------x--|
E|0-------------------------------------------x---0-----------x--|(x2)

[Verse 1]
              Em     G
If this is to end in fire
               D        C
Then we should all burn together
          Em           G    D        Am7
Watch the flames climb high into the night
        Em    G         D            C
Calling out father, oh, stand by and we will
          Am7         Bm            C
Watch the flames burn auburn on the mountain side

[Verse 2]
e|---------------------------x----------------x---------------x--|
B|-------------0h1-----------x------3---3-----x---0-----------x--|
G|2h4p20---0---0-------------x------0h2-2-----x---0-----------x--|
D|------0h2----2-------------x------0---------x---2-----------x--|  
A|-------------3-------------x----------------x---------------x--|
E|0-------------------------------------------x---0-----------x--|

                 Em    G
And if we should die tonight
               D       C
Then we should all die together
        Em       G   D        Am7
Raise a glass of wine for the last time
        Em    G         D          C
Calling out father, oh, prepare as we will
          Am7         Bm            C
Watch the flames burn auburn on the mountain side
    Am7    Bm             C
Desolation comes upon the sky

[Chorus]
          Em  C  D          Em          
Now I see fire,  inside the mountain
      Em  C  D           Em
I see fire,  burning the trees 
          Em  C  D         Em
And I see fire,  hollowing souls
      Em  C  D            Am7
I see fire,  blood in the breeze

And I hope that you'll remember me

[Instrumental]
e|---------------------------x----------------x---------------x--|
B|-------------0h1-----------x------3---3-----x---0-----------x--|
G|2h4p20---0---0-------------x------0h2-2-----x---0-----------x--|
D|------0h2----2-------------x------0---------x---2-----------x--|  
A|-------------3-------------x----------------x---------------x--|
E|0-------------------------------------------x---0-----------x--|(x2)

[Verse 2]
              Em     G
Oh, should my people fall
            D           C
Then surely I'll do the same
            Em       G
Confined in mountain halls
           D            Am7
We got too close to the flame
        Em     G        D             C     
Calling out father, oh, hold fast and we will
          Am7         Bm            C
Watch the flames burn auburn on the mountain side
    Am7    Bm             C
Desolation comes upon the sky

[Chorus]
          Em  C  D          Em          
Now I see fire,  inside the mountain
      Em  C  D           Em
I see fire,  burning the trees 
          Em  C  D         Em
And I see fire,  hollowing souls
      Em  C  D            Am7
I see fire,  blood in the breeze
                                Am7
And I hope that you'll remember me

[Bridge]
           Am7      Em
And if the night is burning
       D        C
I will cover my eyes
           Am7    Em
For if the dark returns then
   D             CMaj7
My brothers will die
           Am7            Em
And as the sky is falling down
           D                C
It crashed into this lonely town
              Am7                   
And with that shadow upon the ground
  Bm      C                D
I hear my people screaming out

[Chorus/Outro]
          Em  C  D          Em          
Now I see fire,  inside the mountain
      Em  C  D           Em
I see fire,  burning the trees 
          Em  C  D         Em
And I see fire,  hollowing souls
      Em  C  D            Em
I see fire,  blood in the breeze
      Em           C                 D        Em 
I see fire, oh you know I saw a city burning (fire)
      Em         C                D     Em
I see fire, feel the heat upon my skin (fire)
          Em   C       D  Em 
And I see fire, oooooo (fire)
          Em        C             D        Em
And I see fire burn auburn on the mountain side


************************************

| x  Dead note
| h  Hammer-on
| p  Pull-off

************************************

See Ya Sucker Tabs – Modern Baseball Vsion 2

 Track: See Ya, Sucker
Artist: Modern Baseball
 Sports (2014)
Tuning: Eb Standard (Eb Ab Db Gb Bb eb)

---

: Noah Maranesi
Website: Instagram.com/n04hz_ark

---

Guitar 1 - Brendan (left)

Intro (0:00) (exact strumming not shown)

    "I reckon you grew up in a town that said reckon all the time..."
                                                                                                             x2
 | B        | C#m               G#m     | A              B       | E                C#m      | B              |
e|----------|---------------------------|------------------------|---------------------------|----------------|
B|:---------|---------------------------|------------------------|---------------------------|---------------:|
G|----------|---------------------------|------------------------|---------------------------|----------------|
D|--1--1--1-|-2--2--2--2--2--2----------|------------------------|-6--6--6--6--6--6----------|----------------|
A|:-2--2--2-|-4--4--4--4--4--4--2--2--2-|-4--4--4--4--4--6--6--6-|-7--7--7--7--7--7--7--7--7-|-6--6--6--6--6-:|
E|----------|-------------------4--4--4-|-5--5--5--5--5--7--7--7-|-0--0--0--0--0--0--9--9--9-|-7--7--7--7--7--|


Verse (0:18)

    "Well here goes nothing..."
    Repeat Intro x2


Pre-Chorus (0:38) (exact strumming not shown) (strum each noted chord twice)

    "But I, won't fuckin' wait..."

                                                      x2
 | G#m         | A          | E          | E           | B             |
e|-------------|------------|------------|-------------|---------------|
B|:------------|------------|------------|------------:|---------------|
G|-------------|------------|------------|-------------|---------------|
D|-------------|------------|-6--6--6--6-|-6--6--6--6--|---------------|
A|:-2--2--2--2-|-4--4--4--4-|-7--7--7--7-|-7--7--7--7-:|-6--6--6--6--6-|
E|--4--4--4--4-|-5--5--5--5-|-0--0--0--0-|-0--0--0--0--|-7--7--7--7--7-|


Chorus (0:59) (strum each noted chord twice)

    "On the corner of Canal and Broadway..."


e|--4--4--4--4--4--4--0--0--4--4--4--4--4--4--0--0--|
B|:-5--5--5--5--5--5--2--2--5--5--5--5--5--5--2--2--|
G|--------------------------------------------------|
D|--------------------------------------------------|
A|:-------------------------------------------------|
E|--------------------------------------------------|

                                                   x2
e|--2--2--2--2--2--2--4--4--0--0--0--0--0--0--0--0--|
B|--4--4--4--4--4--4--5--5--2--2--2--2--2--2--2--2-:|
G|--------------------------------------------------|
D|--------------------------------------------------|
A|-------------------------------------------------:|
E|--------------------------------------------------|


Post-Chorus (1:18)

e|----------------------------------------------------|
B|----------------------------------------------------|
G|----------------------8--8--8-/-6--6-6--6--6--6--6--|
D|--6--6-6--6--6--6--6--9--9--9-/-7--7-7--7--7--7--7--|
A|--7--7-7--7--7--7--7--------------------------------|
E|--0--0-0--0--0--0--0--------------------------------|

                                x2
e|-------------------------------|--+7+--|
B|:-9--9--9---------------------:|--+7+--|
G|--9--9--9----------------------|--+7+--|
D|-----------6--6-6--6--6--6--6--|--+7+--|
A|:----------7--7-7--7--7--7--7-:|--+7+--|
E|-----------0--0-0--0--0--0--0--|--+7+--|


Verse 2 (1:28)

    "If you get stuck I'm just gonna go on without you..."
    Repeat Post-Chorus without harmonics (last measure)

Chorus (1:38)
    
    "On the corner of Canal and Broadway..."
    Repeat Chorus

Outro (1:56)

    "And I reckon you grew up in a town..."

e|--4--4--4--4--4--4--0--0--4--4--4--4--4--4--0--0--|
B|--5--5--5--5--5--5--2--2--5--5--5--5--5--5--2--2--|
G|--------------------------------------------------|
D|--------------------------------------------------|
A|--------------------------------------------------|
E|------------------------------

Cant See Through It Tabs – Disco Inferno

 Disco Inferno
Can't See Through It
Technicolour 

: Saviano P.



Intro/Verse: 
               C
e|-0-0-0--||---0-------0-0-0--|
B|-1-1/3--||---1-------1-1/3--|
G|-0-0-0--||---0-(x12)-0-0-0--| 
D|-2-2/4--||---2-------2-2/4--| 
A|-3-0-0--||---3-------0-0-0--|
E|--------||------------------|

 then: 
e|-0-0-0----0------|
B|-1-1/3----1------|
G|-0-0-0----0------| 
D|-2-2/4----2------|
A|-3-0-0----3------|
E|-----------------|

e|----------------------------|
B|-0-1-3-1--0--1--0--1--0-----|
G|-0-0-0-0--0--0--0--0--0---0-| In this part you can also just play the notes on the B string and the 
D|-2-2-2-2--2--2--2--2--2-----| two notes at the end with a 2nd guitar strumming a C chord
A|-3-3-3-3--3--3--3--3--3-3---|
E|----------------------------|

The entire song is just these three parts with C almost constantly being strummed

If You Could See You Thru My Eyes chords – Glen Campbell

 If You Could See You Thru My Eyes
Glen Campbell

Intro   F Am F Bb F Gm F Am F Bb Dm   
Verse 1

 C F Am Bb F Gm  
Every time you feel my hand   I get cold chills
       F Am Bb F C 
Every Time you grace my bed         I am so fulfilled
            Dm Gm 
Now you're standing there  in front of me
               D# Dm F C F D# Dm   
with all your insecurities   Ohh  Bless your heart

Chorus 1

 C Bb F D# 
If You Could See You Thru My Eyes
            Bb Dm D# 
Then you'd know how brightly you shine
    Gm Bb D# Dm F D# Dm F 
If for a moment   you could climb inside my mind
                Bb F D# 
Then you would know the way I feel
           Bb D# 
And you'd know what I'm feeling is real
                Bb Dm Bb D# 
And you would love you too If You Could See You 
 F Bb F D# F D# Dm Bb C   
Thru My Eyes

Verse 2

 Am F Am Bb          
If you only knew how much   I think about you
            F Bb F C  
Then you'd know how lost I'd be    without you
       Dm Gm  
And I can't believe the irony  
 Bb D# Dm Bb C F D# Dm F 
your the most important part    Ohh  Bless your heart

Chorus 2

              Bb F D# 
If You Could See You Thru My Eyes
            Bb Dm D# 
Then you'd know how brightly you shine
          Bb D# Bb D# F D# Dm F 
If for a moment   you could climb inside my mind
                Bb F D# 
Then you would know the way I feel
           Bb D# 
And you'd know what I'm feeling is real
 F Bb Dm D# 
And you would love you too If You Could See You 
  F Gm C 
    Thru My Eyes

Outro
               D# F 
And you would love you too If You Could See You 
         Bb F Bb F Bb F Bb 
Thru My Eyes


flyinglibra51
God Bless Glen Travis Campbell

If You See Me Getting Smaller chords – Glen Campbell

 If You See Me Getting Smaller
Glen Campbell
written by Jimmy Webb
Live performance

Intro  C F G Em C Am Dm C Em G 

Verse 1

 C Em F C 
Willie you're my constant companion
              Em C F 
you know the light and shade
                 C Am F 
We have spent a million dollars
                     G 
To find out what we made.
 C Em F C 
We have made the maidens marvel
                  Em F C F 
at the things we do and say
                C Am 
Down, down and out brother
 F G 
Up, up and away.

Chorus 1

        C C7 F Am 
If you see me gettin' smaller I'm leavin'
 Em F G          
Don't be grieven'
 C G            
Just got to get away from here
 C C7 F 
If you see me gettin' smaller don't worry
 Em Dm          
I'm in no hurry
            F C              
I've got a right to disappear.

Verse 2


  G C Em G F C 
    God bless Philadelphia
                    Em F C F 
They were standing in the rain
                     C Am 
Out in front of the main point
 F Am C Dm G 
A Wet and lonely train.
 C Em F C 
Who knows who they came to see
           Em F C F 
A mad man full of beer
                         C Am 
A four piece band and a charter bus
 F Am G 
My border line career.

Chorus 2

        C               C&           F Am 
If you see me gettin' smaller I'm leavin'
 Em F G          
Don't be grieven'
             C G C             
Just got to get away from here
                       C7 F 
If you see me gettin' smaller don't worry
 Em Dm           
I'm in no hurry
            F G C             
I've got a right to disappear. 

 G Am G C G Am G C G Am G C Am G Am G C F G Am C F G Am 

Outro

            G C F G Am   
I've got a right to disappear. I need a get away
            F C F G Am              
I've got a right to disappear. I need a get away

reprat and fade

flyinglibra51
God Bless Glen Travis Campbell

I Know A Heartache When I See One chords – Jennifer Warnes V2

 I Know a Heartache When I See One  
Jennifer Warnes

This is a complete song with added chords and correct lyrics

Tuning standard

Intro:  E B C#m B E B F# 
       
Verse 1

 B E 
Look at who the wind's blowing up the road
 B F# F#7 
Shining like the northern star
 B E 
Acting like the answer to all my prayers but baby
 B F# B 
I know what you really are

Chorus 1

              G#m B E B 
So don't you knock on my door, I won't be home any more
          G#m B F# F#7 
You can find me out walking in the sun
        G#m B E B 
Oh you hide it so well, it isn't easy to tell
       G#m B F# B 
But I know a heartache when I see one

 (Instrumental)    E B C#m B E B F# B 

Verse 2

 B E 
There was a time I was a true believer
 B F# F#7 
Your love was the only way
              B E 
well you can save all your sweet talking for some other fool
        G#m F# B 
Only a fool would believe what you say

Chorus 2
              G#m B E B 
So don't you knock on my door, I won't be home any more
         G#m B F# F#7 
You can find me out walking in the sun
        G#m B E B 
Oh you hide it so well, it isn't easy to tell
   G#m B F# B 
I know a heartache when I see one


(Instrumental)   C#m E B F# B C#m E G#m F# 

Verse 3

     B E               
Ohh Time is a teacher, He's taught me well
 B F# F#7 
loser is the one who cries
                 B E 
And when you've cried like a baby and you felt like hell
              B F# B 
You know the devil by the look in his eyes

Chorus 3 ( Continues on until end )

              G#m B E B 
So don't you knock on my door, I won't be home any more
          G#m B F# F#7 
You can find me out walking in the sun
        G#m B E B 
Oh you hide it so well, it isn't easy to tell
       G#m B F# B 
But I know a heartache when I see one


           G#m B E B 
don't you knock on my door, I won't be home any more
         G#m B F# F#7 
You can find me out walking in the sun
        G#m B E B 
Oh you hide it so well, it isn't easy to tell
       G#m B F# B 
But I know a heartache when I see one


   G#m B F# B 
I know a heartache when I see one

(instrumental)

 G#m B F# B G#m B F# F#7 G#m B E B G#m B F# B G#m B E</s

See You Again Chords – Wiz Khalifa

Capo 3  

     
Chorus

            Em   G       C          G  
It's been a long day without you my friend
         Em          G                C        G
And I'll tell you all about it when I see you again
              Em  G        C          G
We've come a long way from where we began
         Em         G                 C        G
Oh I'll tell you all about it when I see you again
        C       G
When I see you again

Verse

Em   G                     C
     Damn who knew all the planes we flew
G
Good things we've been through
     Em                     G
That I'll be standing right here
                     C
Talking to you about another path I
G
Know we loved to hit the road and laugh
Em                    G
But something told me that it wouldn't last
       C                 G
Had to switch up look at things different see the bigger picture
Em             G                          C                   G
Those were the days hard work forever pays now I see you in a better place
Em    G
      uh
             C                     G
How could we not talk about family when family's all that we got?
Em                        G
Everything I went through you were standing there by my side
    C                        G
And now you gonna be with me for the last ride

Chorus

            Em   G       C          G  
It's been a long day without you my friend
         Em          G                C        G
And I'll tell you all about it when I see you again
              Em  G        C          G
We've come a long way from where we began
         Em         G                 C        G
Oh I'll tell you all about it when I see you again
        C       G
When I see you again

Em    G    C    G
Em    G    C    G

Verse 2

Em    G           C
        First you both go out your way
G
And the vibe is feeling strong and what's
Em                           G
Small turn to a friendship a friendship
                          C
Turn into a bond and that bond will never
                 G
Be broke and the love will never get lost
Em    G             C                            G
        And when brotherhood come first then the line 
                          Em
Will never be crossed established it on our own
          G                             C
When that line had to be drawn and that line is what
              G
We reach so remember me when I'm gone
Em    G
      Uh
             C                     G
How could we not talk about family when family's all that we got?
Em                        G
Everything I went through you were standing there by my side
C                            G
And now you gonna be with me for the last ride



Bridge

           C       G      D    
So let the light guide your way
C            G            D
Hold every memory as you go
          C           G
And every road you take
G    Em C   G     D  C    D G
Will always lead you home uhhhhioooo


Chorus
(one strum)


            Em   G       C          G  
It's been a long day without you my friend
         Em          G                C        G
And I'll tell you all about it when I see you again
              Em  G        C          G
We've come a long way from where we began
         Em         G                 C        G
Oh I'll tell you all about it when I see you again
        C       G
When I see you again


Em    G    C      G,

 uhhhhhhhhioioio
Em    G    C      G,

 uhhhhhhhhioioio
Em    G    C      G,

 uhhhhhhhhioioio

Em    G    C      G,

 uhhhhhhhhioioio
Em    G    C      G,

 uhhhhhhhhioioio



 uhhhhhhhhioioio
 Em7    G    Cadd9    G

See Hell chords – Agent Fresco

 Am Am G D  (x2)
 Am Em D Am C Am Am G D 
I woke up with charcoal hands
                                     Am 
Clouds of grime crimes crown their hatred
          G D 
Fingers bound by iron bands
                                          Am 
In palms they stay clenched through the night

             Em D 
Wounds are green, neglected while I
                                        Am 
Visit never-ending scenes, where the frenzy speaks
            C Am 
Words of just repeated till bloodlust floods us

 F C Am 
We open up to see hell
 G F 
Keep my teeth so deep into the lips where fury cries;
      C Am C Am 
"I want to see hell"

            Em D 
Pour your oil into their lungs
         Am C 
Let it boil black, blistered tongues
           Am 
We both know nobody returns home from war


 F C Am 
We open up to see hell
 G F 
Keep my teeth so deep into the lips where fury cries;
      C Am C Am F 
"I want to see hell"

            Am G 
I know my hands still reach for hell
                          F 
Should I feed them the fire?
            Am G 
I know my hands still reach for hell

                   Am G 
To condemn or to crown
                    D 
To condemn or to crown
                    A G 
To condemn or to crown
                    D Am 
To condemn or to crown

            Em D 
Drops of bleach, discolor their eyes
                                    Am 
Leave them never-ending seas of uncertainty
            C Am 
Still we know nobody returns home from war

           
To condemn or to crown
                                      F 
When will metronome count alone?

 F C Am 
We open up to see hell
 G F 
Keep my teeth so deep into the lips where fury cries;
      C Am C Am F 
"I want to see hell"

           Am G 
I know my hands still reach for hell
                          F 
Should I feed them the fire?
           Am G 
I know my hands still reach for hell
                          F 
Should I feed them the fire?
           Am G 
I know my hands still reach for hell
                          F 
Should I feed them the fire?
           Am G 
I know my hands still reach for hell
            F 
See hell
           Am G 
I know my hands still reach for hell
                          F 
Should I feed them the fire?
           Am G 
I know my hands still reach for hell
                   Am G 
We'll leave you for now
                    D 
We'll leave you for now
                    A G 
We'll leave you for now
                    D          
We'll leave you for now

See Me Through Acoustic chords – Theatre Breaks Loose

 See Me Through(Acoustic)
Theatre Breaks Loose

It's my first tab. Hope it does you well.

 G        (320033)
 Dsus4/F# (200233)
 Em7      (022033)
 Cadd9    (x32033)

Intro:  G Dsus4/F# Em7   x2

First Verse:
 G Dsus4/F# Em7 
Emily I've been thinking lately about what you want me to say
 G Dsus4/F# Em7 
But my tongue is heavy my knees are weak and we've got some time and space
 G Dsus4/F# Em7 
See I've got these hopes and I've got these dreams
                                                 G       
I know you don't believe me but I want you to see that
 Dsus4/F# Em7 
I'm doing this for you and me
 G Dsus4/F#        
I know it seems selfish but I swear its not
            Em7 G 
I've got a next to nothing chance to make it top the top but
     Dsus4/F# Em7 
I'm taking it for you and me

Chorus:

 G Dsus4/F# Em7 
I fall asleep to the stereo at night

Singing songs about my life
 G Dsus4/F# Em7 
And you're the only one who cares to sing along
 G Dsus4/F# Em7 
You fall asleep to the stereo at night

It's my voice that tucks you in tight
 G Dsus4/F# Em7 
And you're the only one who cares to see me through

Second Verse:
 G Dsus4/F# Em7 
Emily I've been thinking lately about this music thing
 G Dsus4/F# Em7 
How it consumes me it eats me up and it leaves you waiting
      G Dsus4/F# 
See I've got these hopes and I've got these dreams
     Em7 G 
But I would break this guitar if it came between us can't you see
     Dsus4/F# Em7 
I'm doing this for you and me
            G Dsus4/F# 
When the money's right and the cards are stacked
       Em7 G 
We'll hit the next phase and we'll never look back and you'll agree
     Dsus4/F# Em7 
I'm doing this for you and me

Chorus:

 G Dsus4/F# Em7 
I fall asleep to the stereo at night

Singing songs about my life
 G Dsus4/F# Em7 
And you're the only one who cares to sing along
 G Dsus4/F# Em7 
You fall asleep to the stereo at night

It's my voice that tucks you in tight
 G Dsus4/F# Em7 
And you're the only one who cares to see me through

Bridge:

 Em7 Dsus4/F# Cadd9 
Everything inside of me aches
    Em7 Dsus4/F# Cadd9 
To know that your mine but our hearts have to wait
     Em7 Dsus4/F# Cadd9 
And everything inside of you aches
    Em7 Dsus4/F# Cadd9 
To know that I'm yours but our hearts have to wait

Chorus:

 G Dsus4/F# Em7 
I fall asleep to the stereo at night

Singing songs about my life
 G Dsus4/F# Em7 
And you're the only one who cares to sing along
 G Dsus4/F# Em7 
You fall asleep to the stereo at night

It's my voice that tucks you in tight
 G Dsus4/F# Em7 
And you're the only one who cares to see me through

To See The Sun chords – Turtles

 SONG:   TO SEE THE SUN
ARTIST: THE TURTLES
VIDEO:  https://youtu.be/4mugz8sjCDs
TAB BY: DON CZARSKI
EMAIL:  GUITARZAN7@HOTMAIL.COM


              TO SEE THE SUN
               THE TURTLES

INTRO:  

       Am Am Am Am Am Am Am Am    
E ----0----0----0----0----0----0----0----0--
B ----1----1----1----1----1----1----1----1--
G ----2--2------2--2------2--2------2--2----
D --2--------2---------2---------2----------
A ------------------------------------------
E ------------------------------------------
                        Ooooooohhh Ooooooohhh

       Am Am Am Am Am Am Am Am Am Am 
E ----0----0----0----0----0----0----0----0---0----0--
B ----1----1----1----1----1----1----1----1---1----1--
G ----2--2------2--2------2--2------2--2-----2--2----
D --2--------2---------2---------2---------2---------
A ---------------------------------------------------
E ---------------------------------------------------
   Oooooooooooohhhh Ooooooooooooohhhhh Ooohhh Oooohhh


VERSE:
  Am Em 
Some day soon
  Am G 
When we've been to the moon
 Fmaj7 E 
You will see the sun 


VERSE:
 Am Em 
We can wait
  Am G 
Hurry 'til it's too late
 Fmaj7 E 
Call him when we're done


BREAK:
 C Em Am 
He is very very young 


(N.C.)     Fmaj7
To see the sun
                                C 
La la la la la la la la la la la la la
            Fmaj7 
To see the sun 
                               C Dm E Dm E Dm E 
La la la la la la la la la la la la la 


VERSE:
 Am Em 
Now he cries 
 Am G 
Man with tears in his eyes
 Fmaj7 E    
Gazing at the sky 


VERSE:
 Am Em 
Now he's done
 Am G 
No desire to go on
 Fmaj7 E 
Never saw the sun

Ahhhhhhhhhhhhhh


INSTRUMENTAL: 
 Fmaj7 Am Em Em Fmaj7 Am Em Em Dm E Dm E Dm E Dm E Dm E Dm E Am Am Am Am Am Am Am Am    
E ----0----0----0----0----0----0----0----0--
B ----1----1----1----1----1----1----1----1--
G ----2--2------2--2------2--2------2--2----
D --2--------2---------2---------2----------
A ------------------------------------------
E ------------------------------------------
  Oooooohhhh Oooooohhhhh Ooooooohhhh Oooohh

       Am Am Am Am Am Am   
E ----0----0----0----0----0----0-
B ----1----1----1----1----1----1-
G ----2--2------2--2------2--2---
D --2--------2---------2---------
A -------------------------------
E -------------------------------
  Oooooooohhhhh Oooh 


VERSE:
  Am Em 
Some day soon
  Am G 
When we've been to the moon
 Fmaj7 E 
And we'll see the sun 


VERSE:
 C Em Am 
I am very very young
 C Em Am 
I am very very young
 C Em 
I am 
  Am 
very very very very
very very very very
  Abm 
very very very very
very very very very


BREAK/INSTRUMENTAL:
 Em Em</

Ex To See chords – Sam Hunt V2

 Sam Hunt - Ex To See
Capo 1st    Fsus2 = xx3011

Intro
  C                 |                |                  |                ||
------------------|----------------|------------------|----------------|
----------1-------|--------1-------|----------1-------|----------------|
-----0------0---0-|----0-----0---0-|-----0------0---0-|----0-----------|
---2---2------2---|--2---2-----2---|---2---2------2---|--2---2---------|
-3----------------|3---------------|-3----------------|3---------------|
------------------|----------------|------------------|----------------|

Verse 1
            Am C                        
Well there ain't enough smoke in my eyes to hide the kinda 
  F 
Games you're trying to play
  Am C F 
Honey don't you act so surprised, you know exactly what I'm ‘bout to say
      Am C F 
You kiss my lips like you mean it but you ain't that slick

 C Am Fsus2 
 Everywhere we go you keep looking around 
 C Am Fsus2 
 Fixing your make up like it’s about to go down 


Chorus
    Am      N.C.
And he walks in, it all makes sense, 
 Am      N.C.
Suddenly you're climbing all up next to me, next to me
  Am      N.C.
I ain't no fool, you rascal you, 
 Am       N.C.
You don't want me, you just want your ex to see, ex to see
  Am C F 
Woa, woa, woa, woa, woa, woa, woa


Verse 2
  Am C F 
That's why when I pick you up, you always want me to drive your car
    Am C F 
So I can leave mine at your house and he can wonder where you are
       Am C F 
Well you're right here, looking sexy whispering in my ear

 C Am Fsus2 
 Everywhere we go you keep looking around 
 C Am Fsus2 
 Fixing your make up like it’s about to go down 




Chorus
    Am      N.C.
And he walks in, it all makes sense, 
 Am      N.C.
Suddenly you're climbing all up next to me, next to me
  Am      N.C.
I ain't no fool, you rascal you, 
 Am       N.C.
You don't want me, you just want your ex to see, ex to see
  Am C F 
Woa, woa, woa, woa, woa, woa, woa


Solo     Am    | C     | F      |     ||x2


Bridge
  Am 
Girl you look kinda cute, called out, you're making it hard

To have hard feelings for you now

So hey, did he really do you wrong, hmm

I guess I can play along, I guess I can play along


Chorus
    Am      N.C.
And he walks in, it all makes sense, 
 Am      N.C.
Suddenly you're climbing all up next to me, next to me
  Am      N.C.
I ain't no fool, you rascal you, 
Am    N.C.
Girl, come here and kiss me, I just want your ex to see
 Am C F 
Woa, woa, woa, woa, woa, woa, woa


                            Am C F 
I just want your ex to see, ex to see, ex to see
 Am C F 
           I just want your ex to see
 Am C F 
           I just want your ex to see
 Am C F 
Girl, you look kinda cute, called out, I just want your ex to see
 Am C 
I just want your ex to see, I just want your ex to see
 F 
I just want your ex to see, I just want your ex to see

See Me Now chords – The Kooks V2

 Verse:

            C# F# 
Well I've been a lot places,
                           C# F# 
I learned to tie my own tie too,
      C# F# 
I've met a lot of faces,
                                         C# F# F#m 
I've got some questions I'd like to ask you.

Chorus:

                       C# F# 
If you could see me now,
                       C# F# 
If you could see my smile,
                    C# F# 
See your little boy,
                      F# F#m 
Oh, would you be proud?

Verse:

              C# F# 
I've been in sticky situations,
                               C# F# 
I fell in love with a girl who likes girls,
        C# F#   (  G#  )  F# 
I know mom's thinking of you,
                          C# F# 
I'm busy trying to make it in this world,
    F# F# 
I hope I'm living your dream, daddy
                          C# F# F#m 
Have a drink on me upstairs

Chorus x4:

                        C# F# 
If you could see me now,
                         C# F# 
If you could see my smile,
                    C# F# 
See your little boy,
                      D# 
Oh, would you be proud?

Outro:
            C# F# 
Well I've been a lot places,
                    D# D#m 
I learned to tie my own tie too.

Dairybeat – I Cant See Nobody – Bee Gees – Cover chords

 DAIRYBEAT: I CAN'T SEE NOBODY (B. & R. Gibb) 4/4 - 104 (Album - Bee Gee's First - 1967)

|./.    |: Repeat the previous Chord and/or Measure of 4-Counts.


INTRO: | Em     | D     | Em     | D     |

VERSE 1:

 Em            | D                 | A                | E          |
   I walk the lonely streets, I watch the people passing by.

 Em                     | D                | A            | E         |
   I used to smile and say hello, guess I was just a happy guy.

 Em          | D                   | A                 | E        |
   Then you happened girl, this feeling that poss-esses me.

 Em              | D              | A                 | E         |
   I just can't move myself, I guess it all just had to be.

CHORUS:

 A         | D E    | A            | D E    |
  I can't see no-body,  no I can't see no-body.

 A             | D E       | A     | E     |
  My eyes can only look at you,  you.

VERSE 2:

 Em           | D               | A                | E           |
   I used to have a brain, I used to think of many things. 

 Em               | D                 | A               | E                |
   I watched the falling rain, and listened to the sweet birds sing. 

 Em              | D                  | A                   | E             |
   Don't ask me why little girl, I love you and that's all I can say.

 Em                     | D                       | A                 | E             |
   You're ev’ry, ev’ry breath that I take, you are my nights, my night and day.

CHORUS:

 A         | D E    | A            | D E    |
  I can't see no-body,  no I can't see no-body.

 A             | D E       | A     | E     |
  My eyes can only look at you,  you.

VERSE 3:

 Em              | D                      | A                | E             |
   Every single word you hear girl, is coming from this heart of mine.

 Em                   | D              | A                  | E              |
   I never felt like this before, a love like yours so young and fine.

 Em              | D                  | A                     | E      |
   And now as I try to forget you,   it doesn't work out anyway.

 Em                   | D                  | A                  | E           |
   I lost you such a long time ago, but in my heart you'll always stay.

VERSE 4:

 Em              | D                 | A                | E             |
   Every single word you hear, is coming from this heart of mine.

 Em                   | D              | A                        | E              |
   I lost you such a long time ago,   don't know why, said I don't know why.

./.                    |
Baby, such a long time.

./.                    |
Baby, such a long time.

./.                    |
Baby, such a long time.

CHORUS:

 A         | D E    | A            | D E    |
  I can't

Come See chords – Protomartyr

 -------------------------------------------------------------------------------
                             Come & See - Protomartyr
-------------------------------------------------------------------------------

Tuning: Standard

     Abm7 Dbm7 Ebm7   Bbmish  G#ish   F#7 Bm E 
e|--11----4-----6-----6-------4------2----7-------------------------------------|
B|--12----5-----7-----6-------4------2----7-------------------------------------|
G|--11----4-----6-----6-------4------3----8---1---------------------------------|
D|--13----6-----8-----6-------4------2----9---2---------------------------------|
A|--11----4-----6-----8-------6------4----9---2---------------------------------|
E|--11----4-----6-----6-------4------2----7-------------------------------------|


Intro and Verse 1:

 Abm7 Dbm7 Ebm7  Bbmish
 Abm7 Dbm7  G#ish  F#7 

Have you heard the bad news?
We've been saved by both coasts
A bag of snakes with heads of gas
The pumpkin head cuts right in on the glass

Chorus:

e|-------------------------------------------------|
B|-------------------------------------------------|
G|-------------------------------------------------|
D|-------------------------------------------------|
A|-------------------------------------------------|
E|--1212121212121212121212-77777777777777777-------| 2x

e|---------------------------------------------------------------------------|
B|---------------------------------------------------------------------------|
G|---------------------------------------------------------------------------|
D|---------------------------------------------------------------------------|
A|---------------------------------------------------------------------------|
 E |--1212121212121212121212-999999999999999-44444444444444-77777777777777777--|

e|---------------------------------------------------------------------------|
B|---------------------------------------------------------------------------|
G|---------------------------------------------------------------------------|
D|---------------------------------------------------------------------------|
A|---------------------------------------------------------------------------|
 E |--1212121212121212121212-999999999999999-44444444444444-22222222222222222--|

And I'll try to live defeated
Come and see
THE GOOD IN EVERYTHING
Outside animals sound
Come and see
THE OPEN ENDING

Verse 2:

 Abm7 Dbm7 Ebm7  Bbmish
 Abm7 Dbm7  G#ish  F#7 

Let it snow and face them in their minds
Count their money with broken arms
Come as friends, are you ready to be capitalized
In this town, in this hole?

Chorus:

e|-------------------------------------------------|
B|-------------------------------------------------|
G|-------------------------------------------------|
D|-------------------------------------------------|
A|-------------------------------------------------|
E|--1212121212121212121212-77777777777777777-------| 2x

e|---------------------------------------------------------------------------|
B|---------------------------------------------------------------------------|
G|---------------------------------------------------------------------------|
D|---------------------------------------------------------------------------|
A|---------------------------------------------------------------------------|
 E |--1212121212121212121212-999999999999999-44444444444444-77777777777777777--|

e|---------------------------------------------------------------------------|
B|---------------------------------------------------------------------------|
G|---------------------------------------------------------------------------|
D|------------------------------------------------------------------------

Id Really Love To See You Tonight chords – England Dan And John Ford Coley

 I'd Really Love To See You Tonight


Intro:  F  x3   C7 

Verse 1:

 Gm7 C7 F Gm7 C7 F 
Hello, yeah it's been awhile, Not much how 'bout you?

 Am7 Dm7 C C7 
I'm not sure why I called, Guess I really just wanted to talk to you.

Verse 2:

 Gm7 C7 F Gm7 C7 F 
And I was thinking maybe later on, We could get together for awhile.

 Am7 Dm7 C C7 
It's been such a long time, And I really do miss your smile.

Chorus

 Bb Am7 Dm7        
I'm not talking 'bout movin' in,   

       Bb Am7 Dm7 
And I don't want to change your life

               Bb Am7 Dm  
But there's a warm wind blowing the stars are out

        C (hold)                        F (Repeat intro)
And I'd really love to see you tonight

Verse 3:

We could walking through a windy park, Or take a drive along the beach
Or stay a home and watch TV, You see it really doesn't matter much to me.

Chorus

Bridge
 Dm Am7 Bb C7 F 
I won't ask for promises, So you won't have to lie.

 Dm Am7 
We've both played this game before.

 C C7 
Say I love you, Say goodbye

(Outro)  Chorus x 4 to fade

We Die And See Beauty Reign Tabs – Isobel Campbell And Mark Lanegan

 -------------------------------------------------------------------------------
        WE DIE AND SEE BEAUTY REIGN - Isobel Campbell And Mark Lanegan
-------------------------------------------------------------------------------

Tuning:standard

  Gm                       x4
e|--------------------------|
B|-------3------3-1---------|
G|-----3----/2-3----3-2-----|
D|---5-------------------3--|
A|--5-----------------------|
E|-3------------------------|
  We die and see
  beauty reign  x2

  F
e|---------------------------|
B|-----1---------------------|
G|----2-------5--------------|
D|---3-----------------------|
A|--3-------8--8-------------|
E|-1-----5-8----8-5----------|
  And on and on
 
  Bb
e|---------------------------|
B|---------------------------|
G|------3--------------------|
D|--0-3---3------8-----------|
A|-1---------5-8---8---5-----|
E|---------6--------6--------|
 The final trace

  Gm
e|-----------1---------------|
B|------3-----------3-1------|
G|----2---2-----/2-3---3-2---|
D|--0----------------------3-|
A|---------------------------|
E|---------------------------|
  Shall know its place

  Gm
e|--------------------------|
B|----------------3-1-------|
G|--------3--/2-3-----3-2---|
D|----5-----------------3---|
A|--5---5-------------------|
E|-3------------------------|
  And slow erase

We die and see hosts and ghosts
We force ourselves down their throats
And walk along the old dirt track
No thoroughfare
No going back

We fucked it up
Forced the pace
Got swept along
Forged our fate
Our banks foreclose
Our fortunes fade
Our alibis are retrograde

We die and see beauty reign
We die and see beauty reign


************************************

| /   slide up
| \   slide down
| h   hammer-on
| p   pull-off
| ~   vibrato
| +   harmonic
| x   Mute note
| b   Bend
| pb  Pre-bend
| br  Bend release
| pbr Pre-bend release
| brb Bend release bend

************************************

I Cant See Until I See Your Eyes chords – John Frusciante

 one of my favorites from smile from the streets you hold
the lyrics are only approximations
 F A# 
come as you are 
 F A# 
have some wine 
 F A# G# A# G# 
and some coffee
 F A# 
come as you are
 F A# 
have a gun
          C# D# 
answer me my baby


 F A# 
come dance with me
     F A# F 
I been watching you
       A# C# D# C# 
and I need you
 F A# 
come have some wine
 F A# 
makes me want
 F A# C# D# C# 
wanna kill myself at all

this part switches up a little
 F A# F A# F G#  slide to  A# F A# 
come have some wine
 F A# 
as a cure
     D# C# 
there's a reason
 F A# F A# 
come you're the one
         F         
who only lies
    A# D# C# F A# 
I cant see til I see your eyes
 F A# 
see your eyes
 A# G# A# G# 
aah baby, come on baby
 A# G# D# 
I need you or I need nothing

 F D# *   F D# *
        F 
I need you

   chords
   F A# G# C# D# D# *
E x  6   4   9   11   x
a 7  8   6   11  13   6
d 9  8   6   11  13   8
g 9  7   5   10  12   8
b 9  6   4   9   11   8
e 7  6   4   9   11   6

I Wanna See Heaven chords – The Katinas

 KEY: F
This is my first-ever submitted tab..
I think it's accurate enough.. Feel free to correct it though..


VERSE I
           F 
There are moments in my life            
            C/E 
When it’s hard to carry on
         Ebdim7           
When I think about our mother
              Bb/D                
And all the loved ones that are gone
 Bbm/Db 
Friends and close relations
           F/C            
Somewhere on the other side
          Gadd9           
They've passed into forever
          Bb Csus C                
But the love will never die             


VERSE II
       F 
Sometimes this tired old world
         C/E 
Starts bringing my heart down
          Ebdim7 
But you gotta bear the cross
         Bb/D 
If you wanna wear a crown
    Bbm/Db 
I often get impatient
           F/C 
As Father Time keeps dragging on
       G 
I’ve waited through the darkness
          Gm7 
Now I’m ready for the dawn
         Bb Csus C   (alternative:  Bbm )
(I’m)…ready for the dawn



CHORUS
               Bb  -  F 
I want to see hea- ven
            Am Dm 
Where the faithful carry on
               Gm7  -  Dm7 Bb/C C 
I want to see hea - ven, Oh Lord
               Bb  -   F 
I want to see hea - ven
            Am Dm 
Where the pain of sin is gone
               Gm7  -  Dm7 Bb C 
I want to see hea - ven, Oh Lord
              Bb C 
I Wanna See Hea - ven


VERSE III (Same Chords with Verse 1)

As I read the morning paper
I’m reminded once again
We’re surrounded by evil
Of a world that’s dead in sin
But the only sane conclusion
That my crazy mind can reach
Is to set my heart on heaven
And to live the things I preach


VERSE IV (Same Chords with Verse 2)

So I’m living every moment
As if each one was my last
Put my treasures where my heart is
And forget about the past
And if Jesus comes tomorrow
I’ll be ready to depart
As He leads me to my mansion
I’ll be following my heart


Repeat Chorus..

CODA
         Bbadd9 F 
When we all get to hea - ven
        Bb C 
What a day of rejoicing there will be
          F  -  C/E Bb/D  -  F 
When we all     see Je  -  sus,
        Bb C Dm7    ( C )
We’ll sing and shout the victory
        Gm9 C F 
We’ll sing and shout the victory




If you're having difficulties following the bass-lines you could omit them..
You could also always play a Cm  Chord instead of Ebdim7 for your convenience.

We played it once during the funeral of the mother of one of our church members.
That's it.. God bless everyone..Most Especially to Brgy Harvest (LOTN CAGAY)and all
Christian Churches out there.... 

See Me Now intro Tabs by Infected Mushroom

 *STANDARD TUNING*
Those are the exact tabs :)

E--------2-4-6---------------------------------------------|
B--4-4-----------7-9---7-7--9-9-11------------9-9--10------|
G----------------------------------11----11-11--------11---|
D-------------------------------------13----------------13-|
A----------------------------------------------------------|
E----------------------------------------------------------|

E------------------------11-------------------------------|
B-----------9--11-----------9---7-7-9-9-11----------------|
G--------11--------------------------------11-------------|
D-13--13--------------------------------------13----------|
A---------------------------------------------------------|
E---------------------------------------------------------|

E---------------------------------------------------------|
B--------9-9-10-------------------------------------------|
G--11-11--------11----------------------------------------|
D------------------13-------13-11-13----------------------|
A---------------------------------------------------------|
E---------------------------------------------------------|