Tag: Shape

Shape Of You chords by Ed Sheeran

[INTRO]

Bm Em G A x2

[VERSE]

Bm                       Em                           G             A

The club isn’t the best place to find a lover so the bar is where I go

Bm                       Em                           G                      A

Me and my friends at the table doing shots, drinking fast and then we talk slow

     Bm                         Em                      G                        A

Come over and start up a conversation with just me and trust me I’ll give it a chance now

        Bm                      Em                      G                A     

Take my hand, stop! Put Van the man on the jukebox and then we start to dance and now I’m singing like

[PRE-CHORUS]

Bm               Em

Girl, you know I want your love

G                       A                Bm

Your love was handmade for somebody like me

             Em

Come on now, follow my lead

G               A    

I may be crazy, don’t mind me, say

Bm             Em

Boy, let’s not talk too much

G                    A                Bm

Grab on my waist and put that body on me

             Em

Come on now, follow my lead

  G                      N.C.

C—come on now, follow my lead

[CHORUS]

Bm       Em                     G

  I’m in love with the shape of you

               A                 Bm

  We push and pull like a magnet do

              Em               G

  Although my heart is falling too

          A

  I’m in love with your body

Bm          Em                   G

  And last night you were in my room

             A                    Bm

  And now my bedsheets smell like you

                    Em                  G

  Every day discovering something brand new

               A

  Well I’m in love with your body

Bm Em G            A

(Oh I)      I’m in love with your body

Bm Em G            A

(Oh I)      I’m in love with your body

Bm Em G            A

(Oh I)      I’m in love with your body

Bm                  Em                   G

  Every day discovering something brand new

          A

  I’m in love with the shape of you

[VERSE]

Bm                    Em

One week in we let the story begin

            G                A

We’re going out on our first date

            Bm                  Em

But you and me are thrifty so go all you can eat

             G                   A

Fill up your bag and I fill up a plate

            Bm                        Em

We talk for hours and hours about the sweet and the sour

             G                A

And how your family is doin’ okay

              Bm                Em

And leave and get in a taxi, we kiss in the backseat

          G                     A

Tell the driver make the radio play, and I’m singing like

[PRE-CHORUS]

Bm               Em

Girl, you know I want your love

G                       A                Bm

Your love was handmade for somebody like me

             Em

Come on now, follow my lead

G               A    

I may be crazy, don’t mind me, say

Bm             Em

Boy, let’s not talk too much

G                    A                Bm

Grab on my waist and put that body on me

             Em

Come on now, follow my lead

  G                      N.C.

C—come on now, follow my lead

[CHORUS]

Bm       Em                     G

  I’m in love with the shape of you

               A                 Bm 

  We push and pull like a magnet do

               Em              G

  Although my heart is falling too

          A                 Bm

  I’m in love with your bod-y

           Em                   G

  And last night you were in my room

             A                    Bm

  And now my bedsheets smell like you

                    Em                  G

  Every day discovering something brand new

               A                 Bm

  Well I’m in love with your bod-y

Bm Em G            A

(Oh I)      I’m in love with your body

Bm Em G            A

(Oh I)      I’m in love with your body

Bm Em G            A

(Oh I)      I’m in love with your body

Bm                  Em                   G

  Every day discovering something brand new

          A

  I’m in love with the shape of you

[BRIDGE]

Bm               Em

  Come on, be my baby, come on

G                A

  Come on, be my baby, come on

Bm               Em

  Come on, be my baby, come on

G                A

  Come on, be my baby, come on

Bm               Em

  Come on, be my baby, come on

G                A

  Come on, be my baby, come on

Bm               Em

  Come on, be my baby, come on

G                A

  Come on, be my baby, come on

[CHORUS]

Bm       Em                     G

  I’m in love with the shape of you

               A                 Bm

  We push and pull like a magnet do

              Em               G

  Although my heart is falling too

          A                 Bm

  I’m in love with your bod-y

           Em                   G

  And last night you were in my room

             A                    Bm

  And now my bedsheets smell like you

                    Em                  G

  Every day discovering something brand new

               A                 Bm

  Well I’m in love with your bod-y

                 Em

  Come on, be my baby, come on

G                A

  Come on, be my baby, come on

Bm               Em

  Come on, be my baby, come on

G                A

  Come on, be my baby, come on

Bm               Em

  Come on, be my baby, come on

G                A

  Come on, be my baby, come on

Bm                  Em                   G

  Every day discovering something brand new

          A                     Bm

  I’m in love with the shape of you

American Beauty American Psycho chords – Fall Out Boy

 [Chorus]
 D 
She's an American beauty
 D 
I'm an American psycho
            A 
She's an American beauty
 A 
I'm an American
 A 
I'm an American
N.C  (A)      D   (A)   D 
American Psycho-
 A 
I'm an American
 A 
I'm an American
 A 
I'm, I'm, I'm an American psycho

[Verse 1]
 D Em     
I think I fell in love again
 D Em    
Maybe I just took too much cough medicine
 A 
I'm the best worst thing that hasn't happened to you yet
 A D 
The best worst thing
 D Em 
You take the full, full truth, then you pour some out
 D Em 
You take the full, full truth, then you pour some out
 A D                    
And you can kill me, kill me or let God sort ‘em out
 A 
And you can kill me, kill me or

Interlude:  A 

[Chorus]
      N.C          D
She's an American beauty
 D 
I'm an American psycho
               A 
She's an American beauty
 A 
I'm an American
 A 
I'm an American
N.C  (A)      D   (A)   D 
American Psycho-
 A 
I'm an American
 A 
I'm an American
 A 
I'm, I'm, I'm an American psycho


[Verse 2]
 D Em 
I wish I dreamt in the shape of your mouth
 D Em 
But it's your thread count I really care about
 A D 
Stay up 'til the lights go out
 A 
Stay up, Stay up
 D Em 
You take the full, full truth, then you pour some out
 D Em 
You take the full, full truth, then you pour some out
 A 
And as we're drifting off to sleep
 A D 
All those dirty thoughts of me
 A 
They were never yours to keep

Interlude:  A 



[Bridge]
 D                          
Altered boys, altered boys
 D Em 
We’re the things that love destroyed
 D 
(I'm an American, I'm an American)
 A 
You, me, us, them
 A D 
We’re just resurrection men
 A 
(I'm an American, I'm an American)
 D Em     
Us, we were only there, to make you live again
 D 
(I'm an American, I'm an American)
 A D 
Us, we were pity sex, nothing more and nothing less

[Chorus]
      N.C             D
She's an American beauty
 D 
I'm an American psycho
            A 
She's an American beauty
 A 
I'm an American
 A 
I'm an American
N.C  (A)      D   (A)   D 
American Psycho-
 A 
I'm an American
 A 
I'm an American
 A D (A) D  
I'm, I'm, I'm an American psycho-
 A 
I'm an American
 A 
I'm an American
 A 
I'm, I'm, I'm an American psycho

Permanent Marker chords – Taylor Swift V3

 This is Taylor Swift's 'Permanent Marker' I noticed other people's versions were 
wrong so I made my own. These chords are pretty much correct!

Chords:

 G       300033
 Cadd9   x30033
 Em7     x20033
 Asus4   x02230
 D       xx0232
 Dsus4   xx0233
..............
Guitar Riff (rundown)

-----------3----------------------0-----------3--3---------------|
-----------3----------------------3-----------2--2---------------|
-----------0----------------------2-----------3--3---------------|
-----------0----------------------2-----------0--0---------------|
-----------------3----2-----0------------------------------------|
------3----------------------------------------------------------|

This riff can be played for the (cadd9/Em7/Asus4)parts. Or you can just strum as chords :) 
...........................................................
Intro:  G Cadd9 / Em7 / Asus4 D  x2

             G Cadd9 Dsus4 
I know he loved you
            G Cadd9 / Em7 / Asus4 
A long time ago
     D G Cadd9 Dsus4  
I ain't jealous of you
                          G Cadd9 / Em7 / Asus4 D 
Just thought you should know
           Cadd9           
You were never good enough for him
    Dsus4 
Or anything like me
        Asus4 G 
So you might as well sit back cause I ain't
 Cadd9 D 
trying to show maturity


 G Cadd9 Asus4 D 
X is the shape I drew through your face 
    G Cadd9 Asus4 D  
in permanent marker, oh yeah
 G Cadd9 Asus4 D 
Just like the mark you knew you were making
        Cadd9 Em7            
Who do you think you are
 Asus4 D 
To write on his heart
    G Cadd9 / Em7 / Asus4 D 
in permanent marker

                   G Cadd9 Dsus4 
Well I found that picture
                  G Cadd9 / Em7 / Asus4 D 
Of you in that green dress
            G Cadd9 Dsus4 
Sure had a good time
                G Cadd9 / Em7 / Asus4 D 
Cleanin' up that mess
          Cadd9            
He found thirty other pieces
           Dsus4 
But he'll never find them all
          Asus4 Em7 
Tried to tape them back together
        Cadd9 Dsus4 
Now he knows to keep them off the wall


 G Cadd9 Asus4 D 
X is the shape I drew through your face 
    G Cadd9 Asus4 D  
in permanent marker, oh yeah
 G Cadd9 Asus4 D 
Just like the mark you knew you were making
        Cadd9 Em7            
Who do you think you are
 Asus4 D 
To write on his heart
    Cadd9 Em7 D 
in permanent marker


 G Cadd9 Asus4 D 
X is the shape I drew through your face 
    G Cadd9 / Em7 / Asus4 D   oh
in permanent marker, oh yeah
 G Cadd9 Asus4 D<

Dont Let Them See You Cry chords – Manchester Orchestra V3

 -------------------------------------------------------------------------------
                             DON'T LET THEM SEE YOU CRY - Manchester Orchestra
-------------------------------------------------------------------------------

| *  Hammer-on

Tuning: Eb (Standard)                                                   Capo = 1st Fret

Strumming Pattern - Play Root Then Strum

       C C/B Am * 
Don't let them see you cry
 C/B C C/B Am *
When the dam breaks down and the city is covered in water
 C/B C C/B Am *
'Cause I believe we fly
 C/B C C/B Am *
When the moon takes shape and I dose off, on your shoulders

 F Fm C  
I trust that you see it too
 C C/B Am *
Oh... oh oh.... woah oh 
 C C/B Am *
Oh... oh oh.... woah oh 


So breathe while you're alive
Let the big band play as you tap leather with your fingers
And I tried to write in style
But the words just come and I write them as soon as I see them

And I trust that you write them too
Oh... oh oh.... woah oh 
Oh... oh oh.... woah oh 

And I trust that you love me too

39 21 40 Shape chords – Showmen

 Often mistitled as 39-21-46. The epitome of Carolina beach music
  Rick in Macon  



 C Am F G7 C Am F  
You    are so beautiful,
 G7 C Am F 
you're such a sight to see,
            G7 C Am F G7 
you're the girl for me.



 C Am F G7 C Am F  
You   set my soul afire,
            G7 C Am 
filling my heart with one desire,
 F G7 C C7 
wanting to be with you.

 F Dm F Dm 
You could make a blind man see,
 F Dm F Dm 
you could make a crippled man walk,
 F Dm F Dm C Am 
You could make the quietest man in the world talk.
 C Am C Am C Am C Am 
Uh, huh, huh. (Nobody else will do.)
 F Dm F Dm 
Every little boy in town
 F Dm F Dm 
wants to get his arms around
 G G G G 
(You, you, you, you, you, you, you, you, you, you, you, you)
            G7 
For no one else will do
     C Am F G7 C Am F G7 
but you,   with your 39-21-40 shape,
 C Am F G7 C 
Yes, you got me going ape-ity-ape over you
 C Am F G7 
(You, you, you, you, you, you, you, you. Ah, ah, ah, ah, you)

 F Dm F Dm 
You could make a blind man see,
 F Dm F Dm 
you could make a crippled man walk,
 F Dm F Dm C Am 
You could make the quietest man in the world talk.
 C Am C Am 
Yes. (Nobody else will do.)
 F Dm F Dm 
Every little boy in town
 F Dm F Dm 
wants to get his arms around
 G G G G 
(You, you, you, you, you, you, you, you, you, you, you, you)
            G7 
For no one else will do but
 C Am F G7 C Am F G7 
you,       with your 39-21-40 shape,
 C Am F G7 C 
Yes, you got me going ape-ity-ape over you
 C Am F G   (FADE OUT)
Yeah, yeah, yeah, Oh, oh, oh, oh.

Rick in Macon

Shape Of My Heart Live chords – Backstreet Boys

 Intro:  Dsus - D - Dsus - D - D - A - G             

                                 Hmm..yeah..yeah...

Verse 1:
 Dsus - D Dsus D A G    
    Baby please try to forgive me
 Dsus - D Dsus - D A G 
    Stay here don't put out the glow

Bridge 1:
     Dsus D Dsus D 
    Hold me now, don't bother
                  A G 
    If every minute it makes me weaker
                   Bm E 
    You can save me from the man that I've become
           G 
    Oh yeah

Chorus:
                 D G 
    Lookin' back on the things I've done
              A F#m 
    I was trying to be someone
                  Bm         (/A)                E 
    Play my part and kept ya in the dark
                        G A G  (Break)
    Now let me show you the shape of my heart

Verse 2:
 Dsus - D Dsus - D 
    Sadness is beautiful
     A G 
    Loniness is tragical
          Dsus - D Dsus - D A G  
    So help me, I can't win this war, oh no

Bridge 2:
     Dsus D Dsus D 
    Touch me now, don't bother
                  A G 
    If every second it makes me weaker
                   Bm A E G   
    You can save me from the man I've become

(Repeat Chorus)

Refrain:
       A G 
I'm here with my confession
 Bm A D G      
Got nothing to hide no more
            Em F# 
I don't know where to start
            G F# Bm 
But to show you the shape of my heart
 E A B  
I'm looking back on things I've done
                       G#m C#m 
I never wanna play the same old part
                 F# 
Keep you in the dark
 A B 
Now let me show you the shape of my heart

(Repeat Chorus 2X -2  Fets Higher: From D to E)
 
                  E A 
    Lookin' back on the things I've done
              B G#m 
    I was trying to  be someone
                  C#m       (/B)                F# 
    Play my part and kept ya in the dark
                        A B                 
    Now let me show you the shape of my heart

Ending:
     A B A E 
    Show you the shape of my heart

Shape Of My Heart chords – Sting V4

 The other versions I found on here were either wrong, not complete or overly complicated. 
So I decided to post this straightforward version for the intermediate player. Enjoy! 
-- Fejwin


Shape of my heart - Sting

 Gm Cm 
He deals the cards as a meditation
 Gm Cm 
And those he plays never suspect
 D# Bb D 
He doesn't play for the money he wins
 D# Gm 
He doesn't play for respect

 Gm Cm 
He deals the cards to find the answer
 Gm Cm 
The sacred geometry of chance
 D# Bb D 
The hidden law of a probable outcome
 D# Gm 
The numbers lead a dance

CHORUS:
 Gm Bb D 
I know that the spades are the swords of a soldier
 Gm Cm 
I know that the clubs are weapons of war
 D# Bb D 
I know that diamonds mean money for this art
 D# D 
But that's not the shape of my heart

 Gm Cm 
He may play the jack of diamonds
 Gm Cm 
He may lay the queen of spades
 D# Bb D 
He may conceal a king in his hand
 D# Gm 
While the memory of it fades

              D# D Bb D 
CHORUS.  ... But that's not the shape ... shape of my hea~~~~rt

 Gm Cm 
And if I told you that I loved you
 Gm Cm 
You'd maybe think there's something wrong
 D# Bb D 
I'm not a man of too many faces
 D# Gm 
The mask I wear is one

 Gm Cm 
Those who speak know nothing
 Gm Cm 
And find out to their cost
 D# Bb D 
Like those who curse their luck in too many places
 D# Gm 
And those who fear are lost

                          D# D Gm    
CHORUS.   ...2nd time:   But that's not the sha~~~pe ... of my hea~~rt

Faithfully solo Tabs by Journey

 Mostly Water - Laurence Fox

Saw Mr Fox play this live in Scotland and it was fucking amazing.

Capo on 7 for album version.


Little melody part for the intro (Capo 7) sounds really nice picking if you add in the C 
chord bass notes,
then the Em chord bass notes when it changes.
Or you can just add this into the C and Em chords while strumming.
Just make the chord shape then add and lift the B string fingers.

e|-----------------------------------------------------------------|
B|---1--1--1--3--1--0(h)1--0--0--0--0--3--1--0(h)1--0--------------|
G|-----------------------------------------------------------------|
D|-----------------------------------------------------------------|
A|-----------------------------------------------------------------|
E|-----------------------------------------------------------------|

Here's the basic chords. Laurence adds and lifts fingers on the B string for variation 
and transitions.


Intro

 C Em 


Verse

 C 
Too late to see you awake
            Em 
As I get home, tiptoe to the place where you sleep
 C 
I long to find you awake
                Em 
As I open your door, I see you've drifted away



Chorus

                Am 
You're mostly water
              F 
Science has told me so
                   C 
If you're mostly water
           Em 
How can I love you so



Bridge

 F C 
I didn't make the world
                   G 
The world made me first
 F C 
And when you get to the sea
                G 
You'll see me first

Love Alone Chords – Katelyn Tarver V4

 Hey guys! I saw a live performance of this, and decided to it on UltimateGuitar.
So, if there are any mistakes, please comment below!

~KB



Capo 2

Intro: 

 G D Em Cmaj7  (or   A G  shape that starts on the  A  string)

Verse:

 G D Em Cmaj7 ( Or  A G  shape that starts on The  A  string)

Pre-Chorus:

 Am C Am C 


Chorus:

 G C Em D Cmaj7 



Verse:

 G D Em Cmaj  7


Pre-Chorus:

 Am C Am C 

Chorus:

 G C Em D Cmaj7 

Bridge:

 Am C Am C 

Pre-Chorus:
 Am C Am C 

Chorus:

 G C Em D Cmaj7 


Ending:

 G D Em7 Cmaj7

Belief Chords – Gavin Degraw V5

 played by himself: http://www.youtube.com/watch?v=0IvHA9q6JpM

Verse 1
    B B/Bb  
Belief makes things real 
                              G#m E 
Makes things feel, feel alright 
    B B/Bb  
Belief makes things true 
                     G#m E 
Things like you, you and I 

Chorus
    C#m E 
Tonight, you arrested my mind 
                 B E E/D# 
When you came to my defense 
           C#m E 
With a knife in the shape of your mouth 
                                               B B/Bb 
In the form of your body with the wrath of a god 
                           E F# 
Oh, you stood by me 
     B 
Belief
 

Verse 2 (chords V1)
Builds from scratch    
Doesn't have to relax, it doesn't need space
Long live the queen
And I'll be the king in the collar of grace 


    C#m E 
Tonight, you arrested my mind 
                 B E E/D# 
When you came to my defense 
           C#m E 
With a knife in the shape of your mouth 
                                               B B/Bb 
In the form of your body with the wrath of a god 
                           E F# 
Oh, you stood by me 
     B 
Belief


 E B F# 
 I'm going to yell it from the rooftops 
 E B F# 
 I'll wear a sign on my chest
 E ,  F# E F# 
    That's the least I can do
           E F#   
It's the least I can do 


    C#m E 
Tonight, you arrested my mind 
                 B E E/D# 
When you came to my defense 
           C#m E 
With a knife in the shape of your mouth 
                                               B B/Bb 
In the form of your body with the wrath of a god 
                           E F# 
Oh, you stood by me 
    C#m E 
Tonight, you arrested my mind 
                 B E E/D# 
When you came to my defense 
           C#m E 
With a knife in the shape of your mouth 
                                               B B/Bb 
In the form of your body with the wrath of a god 
                  E F# 
Oh, you stood by me 
                           E F# 
And I'll stand by my
     B 
Belief

Your Hands Chords – Jj Heller V8

 Tabbed by: wvccsanta

Standard Tuning

Song: Your Hands
Artist: JJ Heller
Album: Painted Red

 C 
I have unanswered prayers
        G C 
I have trouble I wish wasn't there
     C 
And I have asked a thousand ways
      G C 
That You would take my pain away
      G C 
That You would take my pain away


 C 
I am trying to understand
 G C 
How to walk this weary land
      C 
Make straight the paths that crookedly lie
    G C 
Oh Lord, before these feet of mine
    G C 
Oh Lord, before these feet of mine

 C 
When my world is shaking
 F G 
Heaven stands
 C 
When my heart is breaking
   F G C 
I never leave Your hands


 C 
When You walked upon the Earth
     G C 
You healed the broken, lost, and hurt
   C 
I know You hate to see me cry
     G C 
One day You will set all things right
          G C 
Yea, one day You will set all things right

 C 
When my world is shaking
 F G 
Heaven stands
 C 
When my heart is breaking
 F G C 
I never leave Your hands
      G 
Your hands
      F C G 
Your hands that shape the world
     F G 
Are holding me, they hold me still
      F C G 
Your hands that shape the world
     F G 
Are holding me, they hold me still

 C 
When my world is shaking
 F G 
Heaven stands
 C 
When my heart is breaking
   F G C 
I never leave You when...

 C 
When my world is shaking
 F G 
Heaven stands
 C 
When my heart is breaking
   F G F G C 
I never leave... I never leave Your hands

Hope you enjoyed it! If you see something that needs changed, email me 
wvccrachel@gmail.com. Be kind please.

Circles Chords – Pentimento

 Pentimento
Cicles
Submitted by: jeremyunderground41@yahoo.com

Watch the music video here


Key: C

Tuning: Standard EADGBe

Chords used:
 C  -    x32010
 G  -    320003
 Am  -   x02210
 F  -    133211
 Dm  -   xx0231
 C/E  -  032xxx
 E/G#  - 476xxx
 G/B  -  x2x003


Intro:  Am --- C/E - Am --- C/E  (hold) x2


Verse 1:
 Am 
  I'm just a voice 
             C/E 
on the phone
 Am 
  You're just a 
                C/E 
face in a frame
         F 
So it's no surprise to
 G Am C/E 
see the shape you  take
 Am 
  You're so fragile 
           C/E F 
You're so full of blame
But I don't blame you
 G 
  No I don't blame you


Chorus 1:
 Am G F 
  All those promises
      C Am 
that you had made to keep
                G 
I guess you'll keep
         F C Am 
eventually to anyone but me
          G F C 
And Your words and your ways are
    Am G Am C/E  (Hold)
two  completely different things


Verse 2:
 Am 
  There's so much

truth in all our
      C/E Am 
humor      and so much
                   C/E 
humor in our truth
        F 
So I'm laughing
    G 
at all the things
        Am C/E 
that I thought I knew
 F 
  I thought I knew you
 G E/G# 
  I thought I knew you


Chorus 2:
 Am G F 
  All those promises
      C Am 
that you had made to keep
                G 
I guess you'll keep
         F C Am 
eventually to anyone but me
          G F C 
And Your words and your ways are
   Am           G--
two  completely different things


Bridge:
 F 
  But could you
imagine what
would happen
    Am 
if we were to
       G 
stay still and
          F 
tell our breath
           Dm 
just to exhale
our innocence?
               Am 
The tide goes in
the tide goes out
               G 
We're growing up
to grow apart


Chorus 3:
 Am G F 
  All those promises
      C Am 
that you had made to keep
                G 
I guess you'll keep
         F C (hold)     Am 
eventually to anyone but me
          G F C 
And Your words and your ways are
    Am G Am 
two  completely different things


Outro:
 Am F 
  The tide goes in 
               Am 
The tide goes out
               F 
The tide goes in 
               Am 
The tide goes out
          G/B 
Like how I was 
 C C/E 
there when you 
 F Am G/B 
needed me but you 
 C C/E F Dm F Dm F Dm F Dm (hold)
just couldn't do the same
(We're growing up to grow apart)

Autumn Tree Chords – Milo Greene

 There might be some mistakes, but there are no chords for this great song, so I 
did my best to decipher it ;) hope you'll enjoy. i didn't know the proper names 
for C/D and G/D so i ust named them like that

CAPO on 4th fret

 C/D  (030010)
 D  (xx0232)
 Em  (022000)
 Em7  (020000)
 G/D  (200002)        
 G  (320003)
           C/D 
Under the autumn tree
              Em Em7 G/D 
The chair where you would swing
          C/D 
Yard so full of leaves
 Em D 
Comfort me
              C/D 
A man that resembles me
                   Em Em7 G/D 
Watching his young lady sleep
         C/D 
Now I'm off to dream
 Em D 
Comfort me

 C/D 
Is this my old shape
    Em 
My mind is away
 G D 
How long have you been gone
 C/D 
And the cold winter's aged
The soft of your face
      D(you can play just D or move the finger on E string so (xx0232)(xx0233)(xx0235)
And I can't move on

--Instrumental--
 C/D Em C/D D C/D 
Market morning sun
           Em Em7 G/D 
Fish from early hunt
            C/D    
I wait but you're gone
 Em D 
Linger on

 C/D 
Is this my old shape
    Em 
My mind is away
 G D 
How long have you been gone
 C/D 
And the cold winter's aged
The soft of your face
       D(you can do that thing on every 'and i can;t move on)
And I can't move on

       C/D 
Linger on
       Em 
Linger on
        D 
And I can't move on
Linger on
Linger on
And I can't move on
Linger on
Linger on
And I can't move on
Linger on
Linger on
And I can't move on 

Highway Kind Chords – Townes Van Zandt V2

 -----------------------------------------------------------------------------
                             HIGHWAY KIND - Townes Van Zandt
-----------------------------------------------------------------------------
Tabbed by: Miller

Tuning: Standard

Intro:  Em Em9 C D Em Em Em9 C D Em 
My days they are the highway kind, they only come to leave.
 D Em C D Em 
The leaving I don't mind, it's the coming that I crave.
 D Em D C Bm 
Pour the sun upon the ground, stand to throw a shadow.
 D Em C D Em 
Watch it grow into the night and feel the spinning sky.

 Em Em9 C D Em 
Time among the pine trees, it felt like breath of air.
 D Em C D Em 
Usually I just walk this streets and tell myself to care.
 D Em D C Bm 
Sometimes I believe me; sometimes I don't hear.
 D Em C D Em 
Sometimes the shape I'm in, won't let me go.

 Em Em9 C D Em 
I don't know too much for true but my heart knows how to pound.
 D Em C D Em 
My legs know how to love someone; my voice knows how to sound.
 D Em D C Bm 
Shame that it's not enough; shame that it is a shame.
 D Em C D Em 
Follow the circle down, where would you be?

 Em Em9 C D Em 
You're the only one I want and I've never heard your name.
 D Em C D Em 
Let's hope we meet someday, if we don't it's all the same.
 D Em D C Bm 
I'll meet the ones between us, and be thinking about you;
 D Em C D Em 
and all the places I have seen and why you were not there.



CHORDS:

 Em 
e|-0---------|
B|-0---------|
G|-0---------|
D|-2---------|
A|-2---------|
E|-0---------|

 Em9 
e|-0---------|
B|-0---------|
G|-0---------|
D|-4---------|
A|-2---------|
E|-0---------|

 C 
e|-0---------|
B|-1---------|
G|-0---------|
D|-2---------|
A|-3---------|
E|-X---------|

 D 
e|-2---------|
B|-3---------|
G|-2---------|
D|-0---------|
A|-X---------|
E|-X---------|

 Bm 
e|-2---------|
B|-3---------|
G|-4---------|
D|-4---------|
A|-2---------|
E|-X---------|

Little Aches And Pains Chords – Paul Kelly

 Song Title: Little Aches and Pains
Artist: Paul Kelly

One of my favorite Paul Kelly songs. Can't believe it has not been tab-ed out yet:)

Note:Not sure if these are the right chord names,but they absolutely work :)

Chords used:

 C#sus : x44200
 E :     022100
 Esus :  x77600
 Ebsus : x66400
 G#sus : xx6650
 B  (open): 799800
 A  (open): 577600

Intro:Play 2x :  C#sus ,  E ,  C#sus ,  E 

Verse1:
 C#sus ,           E ,       C#sus ,           E 
Thanks for your letter your kind words of comfort
 C#sus ,      E ,            Esus 
It's good to hear from you again
 C#sus ,      E ,   C#sus ,    E 
I'm going ok, taking it day by day
 C#sus ,             E ,          Esus 
You know what they say can't complain
 C#sus ,                      E 
It's just these little aches and pains
 Esus ,   Ebsus ,    C#sus ,  
I got 'em always now
              E 
Sunshine or rain.

Verse2:
 C#sus ,             E ,   C#sus ,     E 
Must be nice out there on the river
 C#sus ,         E ,                         Esus 
Maybe I can visit, haven't had a trip in a while
 C#sus ,                           E ,  
There's nothing much keeping me here
 C#sus ,                     E 
I see the gang maybe once or twice a year
 C#sus ,                E ,                      Esus 
You and me can walk a rambling country mile
 C#sus ,                   E 
Test out these little aches and pains
Esus,  Ebsus,   C#sus,
When all else goes
          E 
They remain.

Bridge: C#sus, (slide to) Ebsus, (slide to) Esus, [G#sus,B,A], [G#sus,B,A], Esus 
(quick slide up and back one fret with Esus shape, done twice) 

Verse3:

 C#sus ,       E ,      C#sus ,       E 
Disable we're born, disable we die
 C#sus ,        E ,  
Is that a cliché, I'll make it one
 Esus 
Hope it doesn't get too creaky
 C#sus ,     E ,                     C#sus ,            E 
I have found that what you don't know will hurt you
 C#sus ,                  E ,        Esus 
What doesn't kill you makes you weaker
 C#sus ,                       E ,
Leaves you little aches and pains
 Esus ,   Ebsus ,    C#sus ,
I got em always now
             E 
Sunshine or rain
 C#sus ,                         E ,
Oooh these little aches and pains
 Esus ,   Ebsus ,    C#sus ,
I don't count my losses now,
            E  (end with slow rake strum)
Just my gains.

Pilot Me Tabs by Josh Garrels

 Go ahead and email me with any questions: jonyoyoman@gmail.com

Capo: None

This is the Charango piece that he plays, but on the guitar. This repeats 
throughout the entire song.


|--12---12-----12---12-----12---12-----11---11-----9---9-----9---9-----9---9------11---11------|
|-----9----9------9----9------9----9------7----7-----5---5-----5---5-----5---5-------7----7----|
|------------9-----------9-----------9-----------8---------6---------6---------6------------8--|
|----------------------------------------------------------------------------------------------|
|----------------------------------------------------------------------------------------------|
|----------------------------------------------------------------------------------------------|





Here's the second guitar part.



     Verse:

  E                   B      A
     I will arise and follow You over
     B      E       B     A      B
     Savior please, pilot me
  E                     B       A
     Over the waves and through every sorrow
     B      E       B     A     B   E
     Savior please, pilot me


     Verse 2:
  E                      B             A
     When I have no more strength left to follow
     B          E      B     A      B
     Fall on my knees, pilot me
  E                        B       A
     May Your Son rise and lead me on
     B        E            B     A
     Over the seas, Savior pilot me


     Chorus:
  B     E     B  A
     Oh Lord, oh Lord  (4x)



He does an E shape bar for all the Chords.
i.e. B = E shape barred on the 7th fret, and A = Barred on the 5th

Sexy Plexi Tabs by Jack Johnson V2

 -------------------------------------------------------------------------------
                             Sexy Plexi - Jack Johnson
-------------------------------------------------------------------------------
Tabbed by: Teagan Mago
E-mail: TeaganMago@gmail.com

I'm not 100% sure about about the solo, but I'm sure about the rest of the song.  This 
took a long time so please show me some love. :)

Tips:
The "x" indicates a guitar slap/muted note.  I generally slap my thumb and hit multiple 
strings, while palm muting. Make sure to listen to the song and try to capture the 
timing.  You must be able to quickly change barre chord shapes to follow the original track.

Chord shapes:
F#M shape, switching to Bm shape
For pre-chorus and chorus, it's a barre chord E shape, moving up the frets.
It's important to lift up in between the chords to pluck the B and G strings as 
indicated in the tab.

Tuning: Standard

Intro Solo

e|-----------7-----5p3--2--3--0----------------------------------------------|
B|----3p2p0-----0----------------3--2--0--0h2/3/5--7-------------------------|
G|---------------------------------------------------------------------------|
D|---------------------------------------------------------------------------|
A|---------------------------------------------------------------------------|
E|---------------------------------------------------------------------------|

Verse:

Sexy sexy made up of plexi disaster

e|----------------------------------------------------------------------------|
B|-----------------------------3----3----3---0--------------------------------|
G|----3--------3---3---0-------4----4----4---0--------------------------------|
D|----4--------4---4---0---------------4--------------------------------------|
A|---------------4-----------2------------------------------------------------|
E|--2----x---2-------x------------x--------x----------------------------------|

Pushing and pulling conservative rolling, unlike plastic, easier to see through
e|----------------------------------------------------------------------------|
B|-----------------------------3----3----3---0--------------------------------|
G|----3--------3---3---0-------4----4----4---0--------------------------------|
D|----4--------4---4---0---------------4--------------------------------------|
A|---------------4-----------2------------------------------------------------|
E|--2----x---2-------x------------x--------x----------------------------------|

Just like glass with no ring, softer and sadder you sing

e|----------------------------------------------------------------------------|
B|-----------------------------3----3----3---0--------------------------------|
G|----3--------3---3---0-------4----4----4---0--------------------------------|
D|----4--------4---4---0---------------4--------------------------------------|
A|---------------4-----------2------------------------------------------------|
E|--2----x---2-------x------------x--------x----------------------------------|

Sexy sexy do your thing, learn to be shy and then you can sting
e|----------------------------------------------------------------------------|
B|-----------------------------3----3----3---0--------------------------------|
G|----3--------3---3---0-------4----4----4---0--------------------------------|
D|----4--------4---4---0---------------4--------------------------------------|
A|---------------4-----------2------------------------------------------------|
E|--2----x---2-------x------------x--------x----------------------------------|

Pre-chorus:

Plexi, plexi bend don't shatter - Once you're broken, shape won't matter

e|-----------------------------------------------------------------------|
B|-----------------------------------------------------------------------|
G|----3--------3---3---0----4---0----6---0-------------------------------|
D|----4--------4---4---0

Demons Tabs by Imagine Dragons V4

 Demons by Imagine Dragons Fingerstyle

Capo 1st Fret 
Standard Tuning  
X= slap technique 
intro: D shape
/= slide
Chords: D, B#, A , G whole song
Link to the fingerstyle cover- http://www.youtube.com/watch?v=pdtYAlQfjYM
goodluck!

D  = 000232
B# = 244232
A  = 0022200
G  = 320033
My first tab! with help from a friend "Katka" please if you use this tab make sure u give me credit
This is my arrangement of fingerstyle for this song

 e|--------------------------|-------------------------------|
 B|--------------------------|-------------------------------| X2 play twice 
 g|---2------------2---------|--4-------------------0--0-0---|
 d|-00----4--2-0-0----4-2--0-|0-4-------4-2-0-0-----0--0-0---|
 a|-----00----------00-------|--2--2-2-----------------------|
 e|--------------------------|-----------------------3--3--3-|


prechorus 1
e|-------------------------------|-----------------------------|-----------------------------|
B|-------------------------2/3-2x|-----------------------------|-----------------------------|
G|--2-x-2-2-2-----2-2-x-2-2------|-4-----------0-000-----------|-----------------------------|
d|-0--------0-4-x-2--------------|-44-x-44-4-4x0-0004-0--------|-----------------------------|
A|----------------0----------0---|-2-------2-------------------|-----------------------------|
E|-------------------------------|-------------3---------------|-----------------------------|


prechorus 2 play after one like reading down
e|-------------------------------|-----------------------------|-----------------------------|
B|-------------------------2/3-2x|-----------------------------|-----------------------------|
G|--2-x-2-2-2-----2-2-x-2-2------|-4---------------------------|-----------------------------|
d|-0--------0-4-x-2--------------|-4-4--44-4-4--0-000--0-0-----|-----------------------------|
A|----------------0---------0----|-2-2--22-2-2--0-000----------|-----------------------------|
E|-------------------------------|--------------3--------------|-----------------------------|





chorus
e|-2-2-2-3/5-----2-2-2/5-------|---2-2-2-2-2-3---333---------|-----------------------------|
B|-3---------3-2---------2-----|-------------3------3--------|-----------------------------|
G|-2-----------2---------------|-4-----------0---------------|-----------------------------|X2
d|-------------2---------------|-4-----------0---------------|-----------------------------|
A|-------------0---------------|-2-------2---2---------------|-----------------------------|
E|-----------------------------|-------------3---------------|-----------------------------|

After chorus just repeat the intro!

ending riff D shape to A 
e|-----------0-----------------|-------------------------------|-----------------------------|
B|---3-3-3-----2-2-2-2/3-------|-------------0--0-0-0-0-2/3----|-----------------------------|
G|-------------2---------------|--4-4-4-4-4--------------------|-----------------------------|
d|-0-----------2---------------|--4--------4-0-----------------|-----------------------------|
A|-----------------------------|--2----------2-----------------|-----------------------------|
E|-----------------------------|-------------3-----------------|-----------------------------|

ending riff just read down

e|-----------0-----------------|-----2-2-2-------3--3-3--3------|-----------------------------|
B|---3-3-3-----2-2-2-2/3-------|----------3--0---3---------3----|-----------------------------|
G|-------------2---------------|--4----------0------------------|-----------------------------|
d|-0-----------2---------------|--4-----------------------------|-----------------------------|
A|-----------------------------|--2----------2---2--------------|-----------------------------|
E|-----------------------------|-------------3---3--------------|-----------------------------|

Go back to the chorus play that twice and you learned the song ;)

We Shall Sail Tabs by Gogol Bordello

 -------------------------------------------------------------------------------
                         We Shall Sail - Gogol Bordello
-------------------------------------------------------------------------------
Tabbed by: Henry Morgensen
E-mail:

Tuning: Standard





 Intro:

    C                             D#
e|------------------------------------------|
B|-----1--1------1--1------1--1------4--4---|
G|-----0--0------0--0------0--0------0--0---|
D|-----2--2------2--2------2--2------5--5---|  x2
A|--3--3--3------3--3---3--3--3---6--6--6---|
E|-----3--3---3--3--3------3--3-------------|


(The song goes back and forth between that alternating bass note thing and occasionally 
just strumming.
Best thing to do is to listen to it to hear when to do either one.)


 C                         G             C
Hey, brother stranger you know we shall sail

 C                        G
Even if, even if only to fail

       C                       F        Am*
Cause Winnin' and losin' keep journey ammusin'


 *The first time, instead of strumming the chord there's something like this:
e|----------------------3-------3\1---1---0---|
B|------------3---3/5-------5---5\3---3---1---|
G|------3/5-----------------------------------|
D|--------------------------------------------|
A|--0-----------------------------------------|
E|--------------------------------------------|

 C            G                 C*
Down, down, down your destiny trail


*During this little weird part he's basically dragging the C chord up and down the neck.
Putting the chord names, but just use that to find where the C chord fingering shape is 
on the neck

        C          C#             C                D#
e|-----------------------------------------------------------|
B|-----------------2---------------------1---------4---------|
G|---------0---------------------------0---0-----------------|
D|-------2---2------------3-------2----------------------5---|
A|--3------------------4------------------------------6------|
E|-----------------------------------------------------------|


    C               D#add9      C
e|-------------------------------------------------------|
B|---------1--------6------------------1---------4-------|
G|-------0---0-----------------------0---0---------------|
D|--2------------------5--------2------------------------|
A|-------------------------------------------------------|
E|-------------------------------------------------------|


 C                         G             C
Hey, brother stranger you know we shall sail


(mostly just strumming chords from this point)

    C                              G
So living and loving may never go stale

       C                         F           Am   Asus4  Am
Cause hustle and bustle sure'll get you the muscle

 C    C    G                     C*
And, and, and for your coffin a nail


*same as the first except turns into strumming C after the first half

        C          C#             C                D#
e|-----------------------------------------------------------|
B|-----------------2---------------------1---------4---------|
G|---------0---------------------------0---0-----------------|
D|-------2---2------------3-------2----------------------5---|
A|--3------------------4------------------------------6------|
E|-----------------------------------------------------------|
                                                               C
                                                   Coffin a nail!

     F                  G            C    Am
But nothing in this life is good or ba----ad

     Dm              E              Am
It's we who dress it up as happy or sad

     F             G           C    Am
And nothing in life is a sure mu----ust

 F                  G                 C
Yet, in living and loving, indeed we trust


        C          C#           

Boobies Chords – Nice Peter V2

 Nice Peter - Boobies
Quite a nice song! Solo not included.
Chords used:  Dm ,  Dm/C ,  C ,  Bb ,  Gm ,  C7 ,  F ,  F *

F*: I don't know how the chord is called but it's combined with notes from an A-
chord, but i can't seem to get it right. if somebody knows what it is, feel free to comment!

Intro:

 Dm  -  F  -  Bb 

Verse 1:

 Dm C Bb 
When I first came into this world
you were there
 Dm C Bb 
safe in my mouth, and beautiful
 Dm C Bb 
whenever I was hungry you were there
 Dm C Bb 
safe in my mouth and beautiful

Pre-Chorus:

 Gm C7 Dm 
and as a young man, I was taken
        Dm/C 
by the shape of you 
 Gm C7 Dm Dm/C 
and all I ever hoped to do was touch
 Gm C7 Dm Dm/C        
as an older man, I can't believe it's possible
 Bb F 
to love a pound of flesh so much

Chorus:

 F F *
Boobies are fine,
             Bb        
boobies are always on my mind
              F 
they make me safe,
              F *                 Bb F 
yeah, like a happy little baby sleeping (sleeping, and dreaming, yeah!)
             F *                   Bb 
boobies are sweet, boobies have always been
so good to me
 F F *             Bb 
Oh... I love you boobies

Verse 2: (same as verse 1)

she was everyone's favorite teacher
but we got used to her substitute
because she got sick in April,
we last saw Ms Wemett in June

Pre-chorus:(same again)
I was too young to understand
I don't know, maybe I still am
maybe I'm not man enough
but how could something
that we've always known to love so much
take away the ones we love?

Chorus: (same chords)

Boobies are fine,
boobies are always on my mind
they make me safe,
yeah, like a happy little baby sleeping
I know I'm limited, by the fact that I'm a man,
but I'll do what I can.

 F F *            Bb 
Oh, I love you boobies. (x5)

Outro:
 Dm  -  C  -  B  (repeat and fade out)


Good luck!