Tag: she

She Makes Dirty Words Sound Pretty Chords version 2 by Pierce the Veil

[Chords]
  Emaj7 E  Am Am6  B  A
e|--4---4--5---5---0--0--|
B|--4---5--5---7---7--5--|
G|--4---4--5---5---8--6--|
D|--6---6--7---7---9--7--|
A|--7---7--0---0---9--7--|
E|--0---0--0---0---0--0--|

[Intro]
Emaj7 Am Am6 Am
Emaj7 E Emaj7 Am Am6

[Chorus]
                  Emaj7
If you call me at all
                       E    Emaj7
Don't tell me that I'm ordinary
Am               Am6             Am
Cause I won't be passing you, please don't leave
Emaj7                E         Emaj7    Am            Am6   Am
And if you tell me you're listening to everything you read

[Verse 1]
Emaj7         Am             Emaj7
Turn off this light, call my name
Emaj7       Am   Am6  Emaj7
Don't talk, just ride
Emaj7                        Am
Who wouldn't let you be all about,
Am6      Emaj7
About me
E                   Am           Am6
I'm only trying to work this out

[Chorus]
                     Emaj7
So if you call me at all
                       E    Emaj7
Don't tell me that I'm ordinary
Am               Am6             Am
Cause I won't be passing you, please don't leave
Emaj7                E         Emaj7    Am            Am6
And if you tell me you're listening to everything you read
Am
If you call me at all

[Verse 2]
Emaj7          E         Am
Oh, I hear you breathing on the line
        Am6       Emaj7
Oh baby girl, I'm not your type
               E       Am
I'll leave you hurting every night
                          Emaj7
So I won't be coming back
E                         Am
Who wouldn't let me be all alone
Am6                       Emaj7
Who wouldn't let me be all alone
E                           Am  Am6                B
Who wouldn't let you scream ohh to a soft pillow

[Bridge]
            A
I'm such an animal
         B                                  A   Am6
And baby honestly these teeth won't let you go

[Chorus]
Emaj7                  E    Emaj7
Don't tell me that I'm ordinary
Am               Am6             Am
Cause I won't be passing you, please don't leave
Emaj7                E         Emaj7    Am            Am6
And if you tell me you're listening to everything you read
       Am         Emaj7
If you call me at all
                       E    Emaj7
Don't tell me that I'm ordinary
Am               Am6             Am
Cause I won't be passing you, please don't leave
Emaj7                E         Emaj7    Am            Am6   Am
And if you tell me you're listening to everything you read

[Outro]
                  Am  Am6
If you call me at all
       Am         Emaj7 E
If you call me at all
       Emaj7      Am  Am6
If you call me at all
       Am         Emaj7 E
If you call me at all
       Emaj7      Am
If you call me at all

She Treats Me Well Tabs – Ben Howard

 -----------------------------------------------------------------
                She Treats Me Well - Ben Howard
-----------------------------------------------------------------

 : Aeonoptic
 aeonoptic

****Tuning: CGBbGFBb******

Capo 5 except 6th string (sounds as CCEbCBbEb, open Cm7; tab is relative to capo for all covered strings)
x= thumb slap

Intro/verses:
Bb|------0-0----0-----|-------------------|--0----0--|------0-----0----|---------------0|
F |------0----0---0---|--------2-2--------|-5-h7--7p5|------------0----|----------------|
G |---2--2----2---2---|------0-0-0-2p0----|3---------|---2--------2----|--------0----0--|
Bb|------0----0-------|----0--------------|----------|------------0----|----0h7---------|
G |-------------------|----------------0--|----------|-----------------|----------------|
C |10---------------10|7h8-----0---------0|----------|10-------10----10|7h8-------0-----|

Bb|---------------|-------0------0----|--------------0----|--0---0-0------|
F |---------------|--------------0----|----------0--------|-5-h7-7-7p5----|
G |---------------|---2----------2----|------0-----0---0--|3--------------|
Bb|--4p2-----2p0--|--------------0----|----0--------------|---------------|
G |---------------|----------0h3------|-------------------|---------------|
C |0-----x-0-----x|10---x----------x-0|7h8----0----------x|------------x-0|

Bb |------0---------7--|----------0-0-------|
F |----------------0--|----------2---2--5p2|
G |---2----2----2-----|------0---0---------|
Bb|-------------------|----0-----0---------|
G |-------------------|--------------------|
C |10--------10------x|7h8-----0-----------|

Basically the same under the verses with some variation in picking

Chorus:
Bb|--------|---------|--------|---------7-5-4|---------7-5-4|--------|---------|------|---+7-|
F |--------|---------|--------|--------------|--------------|--------|---------|---0h2|---+7-|
G |--------|---------|--------|--------------|--------------|--------|---------|---0--|---+7-|
Bb|10-9----|---------|10-9----|--------------|--------------|10-9----|---------|------|---+7-|
G |--------|---------|--------|--------------|--------------|--------|---------|------|------|
C |5--5-3-x|0-x-10-x-|5--5-3-x|0-x-10-x------|0-x-10-x------|5--5-3-x|0-x-10-x-|0-----|0-----|
 
There's a second guitar arpeggiating under the chorus, if you want to emulate it
simply arpeggiate the capoed strings

Next verses are again variations of the above, and chorus is identical

Outro:
Bb|--+7----7br9-------|---+7----7br9-----|--+7----7br9-------|--+7-----------|
F |-----+7------7br8p5|------+7------7br8|-----+7------7br8p5|-----+7-8p7-5-5|
G |-------------------|------------------|-------------------|---------------|
Bb|-------------------|------------------|-------------------|---------------|
G |-------------------|------------------|-------------------|---------------|
C |0------------------|0-----------------|0------------------|0--------------|

Bb|-----------------5-5|----------------5--|-----------------5-5|------------------5|
F |-----------------0-0|----------------0-0|-----------------0-0|------------------0|
G |-----------------0-0|----------------0--|-----------------0-0|------------------0|
Bb|----7---4-----2--0-0|----7---4-----2-0--|----7---4-----2--0-0|----7---4---4p2p0--|
G |--7---5-----3-------|--7---5-----3------|--7---5-----3-------|--7---5------------| x2
C |0---------x---------|0---------x--------|0---------x---------|0---------0--------|

The remainder of the outro is essentially just this with harmonics instead of
the descending plucked bit, which I can't quite work out,
but I believe it's on the 7th and 5th fret

| /  slide up
| \  slide down
| h  hammer-on
| p  pull-off
| ~  vibrato
| +  harmonic
| x  Mute note

She Never Could Resist A Winding Road chords – Richard Thompson

 D 
In the old cold embers of the year 
       G D 
When joy and comfort disappear 
    G G/F# 
I search around to find her 
       Em 
I'm a hundred miles behind her
      G A D A 
The open road whispered in her ear
     D 
She never could resist a winding road
     G D 
She never could resist a winding road
   G G/F#      
Maybe just around the bend
   Em 
The rainbow waiting at the end
      G A D A 
She never could resist a winding road
 D 
She never could stay any place too long
      G D 
To not be standing still's where she belongs
    G G/F# 
If you love her, better know
    Em 
She needs you now, but soon she'll go
     G A D         
She never could stay any place too long
        Bm G 
It's not that she don't care about you
        Bm G 
Say you love her, she don't doubt you
        Bm G 
But she can learn to live without you
     Em A 
When she hears the call

Lead break over verse
        Bm G 
Love her now then let her be
        Bm G 
Don't tie her down, just set her free
        Bm G 
Too many things she wants to see
       Em A              
The whole world, that's all
        G 
She never could resist a winding road
        D 
She never could resist a winding road
 G G/F# 
Maybe just around the bend
        Em 
The rainbow waiting at the end
      G A Bm 
She never could resist a winding road
     G A D       
She never could resist a winding road

She Was Here For A Rocknroll Tabs – Peer Günt

 notation legend:      

/   - slide up
\   - slide down
b   - bend
po  - pull off

Intro:
                                       8x
E |---||--------------------------------||
B |---||--------------------------------||
G#|---||.------------------------------.||
E |---||.-0----0-----0-------------3---.||
B |-5\||-------------------0--2/3-------||
E |-5\||-----3---0-3---0-3--------------||


Verse1:
                                   7X
E ||--------------------------------||-----------------|
B ||--------------------------------||-----------------|
G#||.------------------------------.||-----------------|
E ||.-0----0-----0-------------3---.||-0-----0-----0---|
B ||-------------------0--2/3-------||-----------------|
E ||-----3---0-3---0-3--------------||-----3---0-3-----|


Bridge1:

E |-------------------||--------------------------------||
B |---------5---------||--------------------------------||
G#|-/5---/5---5-------||.------------------------------.||
E |-/5--------5-------||.-0----0-----0-------------3---.||
B |-------------------||-------------------0--2/3-------||
E |-------------------||-----3---0-3---0-3--------------||

E |-------------------||--------------------------------||
B |---------5---------||--------------------------------||
G#|-/5---/5---5-------||.------------------------------.||
E |-/5--------5-------||.-0----0-----0-------------3---.||
B |-------------------||-------------------0--2/3-------||
E |-------------------||-----3---0-3---0-3--------------||

E |-------------|-----------------|------|-------------|
B |-/7-----7----|--/10------10----|--3---|--5-5---7-7--|
G#|-/7--/7------|--/10--/10-------|--3---|--5-5---7-7--|
E |-/7----------|--/10------------|--3---|--5-5---7-7--|
B |-------------|-----------------|------|-------------|
E |-------------|-----------------|------|-------------|


Break:

E |----------------------|
B |----------------------|
G#|----------------------|
E |-3-2-0----------------|
B |-------2--0-----------|
E |-------------3-2-0----|


Verse2: same as verse1

Bridge2: same as bridge2


Chorus1:

E ||--------------------|---------------||
B ||--/10-------10------|-/5------5-----||
G#||.-/10---/10---------|-/5---/5------.||
E ||.-/10----------10---|-/5--------5--.||
B ||--------------------|---------------||
E ||--------------------|---------------||

E |-----------------|------------|-------|
B |-/12---12--------|-10----8----|--5----|
G#|-/12-------12----|-10----8----|--5----|
E |-/12-------------|-10----8----|--5----|
B |-----------------|------------|-------|
E |-----------------|------------|-------|


Solo:

E ||------------------------|-----------------------|
B ||------------------------|-----------------------|
G#||.-----------------------|-----------------------|
E ||.----------------3b--0--|--------------------0--|
B ||------------------------|----------------3b-----|
E ||--0--0-0--3--0-0--------|-0--0-0--3--0-0--------|

E |-----------------------|-----------------------||
B |-----------------------|-----------------------||
G#|-----------------------|----------------------.||
E |----------------3b--0--|-5b--0--3b--0------0--.||
B |-----------------------|---------------3b------||
E |-0--0-0--3--0-0--------|-----------------------||

not sure about this
E ||----------------------------------------------|-------------------------------------------|
B ||----------------------------------------------|-------------------------------------------|
G#||.---------------------------------------------|-------------------------------------------|
E ||.-0--9po7po0-9po7po0-9po7po0--9po7po0-9po7po0-|-0-9po7po0-9po7po0-9po7po0-9po7po0-9po7po0-|
B ||----------------------------------------------|-------------------------------------------|
E ||----------------------------------------------|-------------------------------------------|

E |---------------------------------------|----------------------------------------||
B |---------------------------------------|-----------------

She Came On chords – Super Deluxe V2

 Song: She Came On 
Artist: Super Deluxe
: Andy Hollidge

Standard tuning (E)


           E 
She came on

         F#m  
like a storm

             A 
from the blind side of a memory

           E   
soft and warm

          F#m D B 
left me sea-sick on the shore

         E 
she believed

            F#m 
she could prove

          A 
it was her world that I needed

        E F#m D B 
but I left her for someone I wanted more



 G#m C#m  
always using clever words to hide the truth

 G#m C#m B     (pause)
communicating in the ignorance of youth

             A F#m                
still I believe that my delusions are realities within confusion

  D B 
I accept the consequences for my lack of innocence

  

          E 
she was wrong

           F#m  
sunshine bright

                A 
flaunting careless situations

          E 
guarded wit

            F#m D B 
always answering just because

          E 
wild cliche

           F#m 
I'm discreet

        A 
waking up from perfect dreaming

         E F#m D B 
when I realized I want what never was



 G#m C#m  
always using clever words to hide the truth

 G#m C#m B     (pause)
communicating in the ignorance of youth

             A F#m                
still I believe that my delusions are realities within confusion

  D B 
I accept the consequences for my lack of innocence



Instrumental:  E F#m A E F#m D B    (play twice)



 F#m A E 
why do I just refuse to disagree

               B 
with what I believe

 F#m A E 
I found myself wandering aimlessly

                 B     (pause)
calling it freedom



           E 
She came on

         F#m  
like a storm

             A 
from the blind side of a memory

           E   
soft and warm

          F#m D B 
left me sea-sick on the shore

             E 
yeah, she believed

            F#m 
she could prove

          A 
it was her world that I needed

        E F#m D B 
but I left her for someone I wanted more

           E F#m A 
I wanted more

           E F#m D B            
I wanted more yeah, yeah, yeah, yeah

___________________________________________

She Is A Holy Grail chords – Superdrag

 Superdrag - She is a holy grail

Intro
 Em E7 Am 
Sweet Darjeeling dream
 E7   
Of sugar cubes and cream
 Am 
In a bridal gown
 E7 
Inhaling nicotine

 F 
Doesn't everybody know
 Em E7 
She's quite a little queen
 F 
Everywhere I seem to go
 Em E7 
I find the masses trampling a dream
 Am Dm E 
Trampling a dream
 Am Dm E 
Trampling a dream

 Am 
When my fever broke
 E7 
In vapor trailing smoke
 Am 
In a bridal veil
 E7 
She is a Holy Grail

 F 
Doesn't everybody know
 Em E7 
She's quite a little queen
 F 
Everywhere I seem to go
 Em E7 
I find the masses trampling a dream

 Am Dm E7 
Trampling a dream
 Am Dm E7 
Trampling a dream

Solo with  Am E7 Dm 

*From memory, hope it helps.

Shes Crazy And She Doesnt Care Tabs – Cloud Control

 Cloud Control - She's Crazy And She Doesn't Care


INTRO

E A D A x2

- the following riff is played in the intro, same goes for the verses (however it is actually played on keys):

e|----------------------------------|
B|-------------7-8-10-8-7-----------|
G|-------6-7-9------------9-7-6-----|
D|-6-7-9------------------------9-7-|
A|----------------------------------|
E|----------------------------------|


VERSE 1
E
Some are born different
Some of us are equal

E A D A

E
Some of us take
Make a living from the people

E A D A


PRE-CHORUS
E     A   D    A
We're not like that
E     A    D        A 
Never even thought about
E     A   D      A
We're not likely to 
       E
Make a profit anyway

E A D A x2


VERSE 2
        E
Will we ever catch up 
Will we talk 
Will we speak again

E A D A

           E
Now you're working for the man 
Change sides and you're one of them

E A D A


PRE-CHORUS
E     A   D    A
We're not like that
E     A    D        A 
Never even thought about
E     A   D      A
We're not likely to 
       E
Make a profit anyway


G#m  A  E  G# 
C#m  B  A  D 
F#m  A


CHORUS
    E                    G#                     C#m  B
The only one you love is crazy and she doesn't care
A                          D            F#m   A
Don't stop runnin till you work it out, yeah
    E                    G#                     C#m  B
The only one you love is crazy and she doesn't care
A                          D            F#m   A
Don't stop runnin till you work it out, yeah
    E                    G#                    A    E   
The only one you love is crazy and she doesn't care


- play riff twice, before returning to verse


VERSE 3
E
Some are born different
Some of us are equal

E A D A

E
Some of us take
Make a living from the people

E A D A


PRE-CHORUS
E     A   D    A
We're not like that
E     A    D        A 
Never even thought about
E     A   D      A
We're not likely to 
       E
Make a profit anyway

G#m  A  E  G# 
C#m  B  


CHORUS
A                          D            F#m  A
Don't stop runnin till you work it out, yeah
    E                    G#                     C#m  B
The only one you love is crazy and she doesn't care
A                          D            F#m   A
Don't stop runnin till you work it out, yeah
    E                    G#                    A    
The only one you love is crazy and she doesn't care


OUTRO

E A D A x2

end on E











She Misses Him The Most chords – Diamond Rio

 Diamond Rio - She Misses On Sunday The Most 


Follow these chord shapes for chorus, follow picking pattern for verse.


 G      =   x55433                          Asus      =   x02230

 A      =   x02220                          D         =   000232

 D/F#   =   4x0232                          F#m       =   x44222

 Em     =   222000                         



 A Asus G   (x3)
INTRO

                       A Asus G A Asus G 
They were quite a pair,       the way that love should be.
                      A Asus G Bm 
They still held hands        for the world to see.
       E Asus A D D/Db D/B 
She's thankful that she had him all those years,
         E A Asus A 
But she still has days she can't hold back the tears.


     G Asus A 
She misses their Monday night bowling league,
 D D/F# G F#m   
When they’d wear their matching shirts 
     Em Asus A 
She misses their Wednesday night dinner out, 
    D D/F# G F#m 
As soon as he got home from work. 
     Em Asus A 
And Saturday morning sleeping late, 
 Bm A G F#m 
Holding each other close, 
         Em Asus A A Asus G  (x3)
But she misses him on Sun - day the most. 


 G A Asus G A Asus G 
She sits alone        on that same old pew again.
                A Asus G Bm 
His tenor voice        still echoes now and then.
                E Asus A D D/Db D/B 
It brings back all those memories of him there by her side. 
 E A Asus A 
What she’d give for one more Sunday drive. 


     G Asus A 
She misses their Monday night bowling league,
 D D/F# G F#m   
When they’d wear their matching shirts 
     Em Asus A 
She misses their Wednesday night dinner out, 
    D D/F# G F#m 
As soon as he got home from work. 
     Em Asus A 
And Saturday morning sleeping late, 
 Bm A G F#m 
Holding each other close, 
         Em Asus A A Asus G  (x2)
But she misses him on Sun - day the most. 
         Em Asus A A Asus G  (x3, strum final G)
But she misses him on Sun - day the most.

She chords – Dodie Clark

 -----------------
SHE - Dodie Clark
-----------------

Standard tuning. On ukulele. Enjoy :)

Verse:

 D G 
    Am I allowed to look at her like that
 D G 
    Could it be wrong when she's just so nice to look at


Chorus:

      Bm A G 
And she smells like lemongrass and sleep
 Bm A G 
She tastes like apple juice and peach
 Bm A D G 
You would find her in a polaroid picture
      A G 
And she means everything to me

 D 
Oohh...


Verse:

 D 
   I'd never tell
                     G 
No I'd never say a word
 D 
   And oh it aches
                             G 
But it feels oddly good to hurt

 Bm A G 
She smells like lemongrass and sleep
 Bm A G 
She tastes like apple juice and peach
 Bm A D G 
You would find her in a polaroid picture
      A G 
And she means everything to me

 D G           x2
Oohh...      Ooohh...



Bridge:

      Bm A 
and I'll be okay
   G 
Admiring from afar
        Bm A        
Cause even when she's next to me
           G 
We could not be more far apart
       Bm A D G 
Cause she tastes like birthday cake and storytime and fall
        A 
But to her
                       G 
I taste of nothing at all


Chorus:

     Bm A G 
And she smells like lemongrass and sleep
 Bm A G 
She tastes like apple juice and peach
 Bm A D G 
You would find her in a polaroid picture
      A G 
And she means everything to me




***frootjuice :)

She Looks So Perfect chords – 5 Seconds Of Summer V4

 CAPO: 4

 C 
hey hey
 Em 
hey hey
 Am 
hey hey
 F 
hey hey



         C Em 
Simmer down, simmer down
               Am F C  
they say were too young now to amount to anything else
           Em Am F 
but look around we work too damn hard for this just to give it up now
 C 
if you don't swim you'll drown but don't move honey


       C Em 
She looks so perfect just standing there
        Am F 
in my American Apparel underwear
     C Em Am F 
And i know now that I'm so down
      C Em 
your lipstick stain is a work of art
                Am F 
I've got your name tattooed in an arrow heart
     C Em Am F 
And i know now that I'm so down


 C 
hey hey
 Em 
hey hey
 Am 
hey hey
 F 
hey hey


          C Em 
lets get out lets get out 
             Am F C 
cause this deadbeats town's only here just to keep us down
              Em Am F 
while i was out I found myself alone just thinking 
    C Em 
if i showed up with a plane ticket
        Am F 
and a shiny diamond ring with your name on it
         C Em 
would you wanna run away too?
         Am F 
cause all i really want is you


      C Em 
she looks so perfect standing there
         Am F 
in my American apparel underwear
     C Em Am F 
and i know now that I'm so down
          C Em  
i made a mixtape straight out of 94
                 Am F 
ive got your ripped skinny jeans lying on the floor
     
       C Em Am F 
and i know now that I'm so down


 C 
hey hey
 Em 
hey hey
 Am 
hey hey
 F 
hey hey


       C Em 
She looks so perfect just standing there
        Am F 
in my American Apparel underwear
     C Em Am F 
And i know now that I'm so down
      C Em 
your lipstick stain is a work of art
                Am F 
I've got your name tattooed in an arrow heart
     C Em Am F 
And i know now that I'm so down


 C 
hey hey
 Em 
hey hey
 Am 
hey hey
 F 
hey hey


       C Em 
She looks so perfect just standing there
        Am F 
in my American Apparel underwear
     C Em Am F 
And i know now that I'm so down
      C Em 
your lipstick stain is a work of art
                Am F 
I've got your name tattooed in an arrow heart
     C Em Am F 
And i know now that I'm so down


She Looks So Perfect chords – 5 Seconds Of Summer V3

 5 Seconds of Summer - She Looks So Perfect
😍😍😍😍

 E B C#m A 
Hey Hey Hey Hey  2x

Verse 1:
        E B 
Simmer down, simmer down
                C#m A 
They say we're too young now to amount to anything else
 E B 
  But look around
         C#m A 
We work too damn hard for this just to give it up now
 E B C#m 
  If you don't swim you'll drown
            A 
But don't move, honey

Chorus:
      E B 
You look so perfect standing there 
        C#m A 
in my American apparel underwear
     E B C#m A 
And I know now that I'm so down
       E B 
Your lipstick stain is a work of art
               C#m A 
I've got your name tattooed in an arrow heart
     E B C#m A 
And I know now that I'm so down

Hey
 E B C#m A 
Hey Hey Hey Hey 

Verse 2:
           E B 
Let's get out, let's get out
            C#m A 
cause this deadbeat town only here to keep us down
 E B 
  While I was out, 
           C#m A        
I felt myself alone just thinking about
                       B 
if I showed up with a plane ticket
        C#m A 
and a shiny diamond ring with your name on it
       E B 
Would you wanna run away too?
       C#m A 
Cause all I really want is you

Chorus:
      E B 
You look so perfect standing there 
        C#m A 
in my American apparel underwear
     E B C#m A 
And I know now that I'm so down
          E B 
I made a mix tape straight out of ninety four'
                C#m A 
I've got your ripped skinny jeans lying on the floor
     E B C#m A 
And I know now that I'm so down

Hey
 E B C#m A 
Hey Hey Hey Hey 

      E B 
You look so perfect standing there 
        C#m A 
in my American apparel underwear
     E B C#m A 
And I know now that I'm so down
       E B 
Your lipstick stain is a work of art
               C#m A 
I've got your name tattooed in an arrow heart
     E B C#m A 
And I know now that I'm so down

Hey
 E B C#m A 
Hey Hey Hey Hey 

      E B 
You look so perfect standing there 
        C#m A 
in my American apparel underwear
     E B C#m A 
And I know now that I'm so down
       E B 
Your lipstick stain is a work of art
               C#m A 
I've got your name tattooed in an arrow heart
     E B C#m A 
And I know now that I'm so down

I Like Doin What She Likes chords – Blake Shelton V2

 Blake Shelton,  "Doin' What She Likes"

Capo 3

(intro)
 G D C D 


(verse)
 G 
She likes it when I call in sick to work
 D 
Spend the whole day hanging with her
   C 
I might get fired but that's alright
     D 
I'm doin' what she likes


(verse)
 G 
She likes it when I bring home fresh fajitas
 D 
And mix up a pitcher of margaritas
 C 
Catch a kind of buzz that lasts all night
 D 
Doin' what she likes


(chorus)
 G 
She likes hearin' how good she looks in them blue jeans
 D 
Little kisses, sweeter than sweet tea
 C D  
Things I whispered in her ear, oh my
 D C D G 
I like doin' what she likes


(verse)
 G 
Like running my fingers through her long hair
 D 
Lightin' watermelon candles upstairs
 C D 
Lettin' them burn and holdin' her all night
 D C D G 
I like doin' what she likes

(instrumental)
 G D C D 


(verse)
 G 
She likes it when I get past second gear
 D 
Sees gravel flying in the rearview mirror
 C 
Sometimes I'm pushing 95
 D  
Doin' what she likes


(verse)
 G 
And she likes it when I find a road that's dark
 D 
Can we pull up somewhere and park?
 C 
Turn the radio on and turn off the lights
      D  
Keep doin' what she likes


(chorus)
 G 
She likes hearin' how good she looks in them blue jeans
 D 
Little kisses, sweeter than sweet tea
 C D  
Things I whispered in her ear, oh my
 D C D G 
I like doin' what she likes



(verse)
 G 
Like running my fingers through her long hair
 D 
Lightin' watermelon candles upstairs
 C D 
Lettin' them burn and holdin' her all night
 D C D G 
I like doin' what she likes


(Bridge)
     Em 
She likes it when I sing her old silly songs
      C  
And throwin' words where they don't belong
 Am    
Sometimes we laugh 'til we almost cry
 Am D G 
Doin' what she likes
 D C D 
Doin' what she likes



(chorus-out)
 G 
She likes hearin' how good she looks in them blue jeans
 D 
Little kisses, sweeter than sweet tea
 C D  
Things I whispered in her ear, oh my
 D C D G 
I like doin' what she likes
 G 
Like running my fingers through her long hair
 D 
Lightin' watermelon candles upstairs
 C D 
Lettin' them burn and holdin' her all night
 D C D G 
I like doin' what she likes
      D C 
Yeah, I like doin' what she likes
 D G D C D G 
Hmm, yeah

She Looks So Perfect chords – 5 Seconds Of Summer V2

 E G#m C#m A 
  Hey Hey Hey Hey Hey Hey Hey Hey.

                E G#m 
Simmer down, Simmer down,
                          C#m A E 
They say we're too young now to amount to anything else.
                  G#m C#m A 
But look around We work too damn hard for this just to give it up now

 E G#m C#m A 
  If you don't swim  You'll drown But don't move Honey

          E G#m 
She looks so perfect standing there.
             C#m A 
In my American Apparel underwear.
       E G#m C#m A 
And I know now, that I'm so down.
          E G#m 
Your lipstick stain is a work of art.
                      C#m A 
I've got your name tattooed in an arrow heart.
       E G#m C#m A 
And I know now, that I'm so down.

 E G#m C#m A 
  Hey Hey Hey Hey Hey Hey Hey Hey.

                E G#m 
Let's get out Let's get out.
               C#m A E 
Cuz It's deadbeat towns only here just to keep us down.
                   G#m C#m A 
While I was out, I found myself alone just thinking about.
    E G#m 
If I showed up with a plane ticket.
                  C#m A 
And your shiny diamond ring with your name on it.
                E G#m C#m A 
Would you wanna run away too? Cuz' all I really want is you.

          E G#m 
She looks so perfect standing there.
             C#m A 
In my American Apparel underwear.
       E G#m C#m A 
And I know now, that I'm so down.
          E G#m 
Your lipstick stain is a work of art.
                      C#m A 
I've got your name tattooed in an arrow heart.
       E G#m C#m A 
And I know now, that I'm so down.

 E G#m C#m A 
  Hey Hey Hey Hey Hey Hey Hey Hey.

          E G#m 
She looks so perfect standing there.
             C#m A 
In my American Apparel underwear.
       E G#m C#m A 
And I know now, that I'm so down.
          E G#m 
Your lipstick stain is a work of art.
                      C#m A 
I've got your name tattooed in an arrow heart.
       E G#m C#m A 
And I know now, that I'm so down.

 E G#m C#m A 
  Hey Hey Hey Hey Hey Hey Hey Hey.

          E G#m 
She looks so perfect standing there.
             C#m A 
In my American Apparel underwear.
       E G#m C#m A 
And I know now, that I'm so down.
          E G#m 
Your lipstick stain is a work of art.
                      C#m A 
I've got your name tattooed in an arrow heart.
       E G#m C#m A 
And I know now, that I'm so down.

She Looks So Perfect chords – 5 Seconds Of Summer

 This song was just released and it's asome!
Please rate  <3 capo="" chords:="" eadgbe="" no="" /> E : 022100
    G#m : 466444 (bar the fourth fret)
    C#m : x46654 (bar the fourth fret)
      A : x02220

CAPO 4
Chords: EADGBe
      C : 032010
     Em : 022000
     Am : x02210
      F : x03210 or 133211 (bar the first fret)

------------------------------------------------

 E G#m C#m A 
Hey Hey Hey Hey Hey Hey Hey Hey.
 E G#m C#m A 
Hey Hey Hey Hey Hey Hey Hey Hey.

  E G#m 
Simmer down, simmer down,
 C#m A 
They say we're too young now to amount to anything else.
 E G#m C#m A 
But look around, We work too damn hard for this just to give it up now

 E G#m C#m A 
If you don't swim,  you'll drown. But don't move, Honey.

       E 
She looks so perfect standing there.
      G#m 
In my American Apparel underwear.
   C#m A 
And I know now, that I'm so down.
       E 
Your lipstick stain is a work of art.
          G#m 
I've got your name tattooed in an arrow heart.
    C#m A 
And I know now, that I'm so down.

 E G#m C#m A 
Hey Hey Hey Hey Hey Hey Hey Hey.

    E G#m 
Let's get out, let's get out.
      C#m A 
Cuz it's deadbeat towns only here just to keep us down.
   E G#m C#m A 
While I was out, I found myself alone just thinking about.
    E G#m 
If I showed up with a plane ticket.
     C#m A 
And your shiny diamond ring with your name on it.
  E B C#m A 
Would you wanna run away too? Cuz' all I really want is you.

       E 
She looks so perfect standing there.
      G#m 
In my American Apparel underwear.
   C#m A 
And I know now, that I'm so down.
       E 
I made a mixtape straight out of ninety four'
    G#m 
I've got your ripped skinny jeans lying on the floor
     C#m A 
And I know now, that I'm so down.

 E G#m C#m A 
Hey Hey Hey Hey Hey Hey Hey Hey.

       E 
She looks so perfect standing there.
      G#m 
In my American Apparel underwear.
   C#m A 
And I know now, that I'm so down.
       E 
Your lipstick stain is a work of art.
          G#m 
I've got your name tattooed in an arrow heart.
    C#m A 
And I know now, that I'm so down.

 E G#m C#m A 
Hey Hey Hey Hey Hey Hey Hey Hey.

       E 
She looks so perfect standing there.
      G#m 
In my American Apparel underwear.
   C#m A 
And I know now, that I'm so down.
       E 
Your lipstick stain is a work of art.
          G#m 
I've got your name tattooed in an arrow heart.
    C#m A 
And I know now, that I'm so down.

She Dont Love Me chords – Blake Shelton

 intro:  G A D  x2

 D G A D 
You know if i'd a seen her comin'
        G A D 
I'd a probably tried to hide
          G A D G A D 
But I came around the corner and she caught me by surprise
        G A D 
There was no ice cold shoulder
         G A D 
There was no ugly scene
             G A D G A D 
She just smiled and didn't say the things I thought she'd say to me

(chorus 1)
              G A D 
Well it was nothing like that rainy night
      G A D 
She left and slammed the door
      G A D 
Not only she don't love me
   A Em A D 
She don't hate me anymore


(same as other verses)

I felt like some ol' neighbour
Just some guy that she once new
You'd never know she loved me and I broke her heart in two
Was she hidin' her emotions
Or did she realy get that strong
Right then she turned and introduced me to her new friend John

(chorus 2)

I could tell the way he shook my hand
He never heard of me before
Not only she don't love me
She don't hate me anymore


SOLO

There was no ice cold shoulder
There was no ugly scene
She just smiled and didn't say the things
I just knew she'd say to me

(chorus 3)

I guess she got so caught up in him
My memory's gone ignored
Not only she don't love me
She don't hate me anymore


Now I know it might sounds crazy
But I don't know what hurts me more
Is it the fact that she don't love me\
Or she don't hate me anymore

Not only she don't love me 
She don't hate me anymore 

She Aint You chords – New Hollow V2

 -------------------------------------------------------------------------------
                              She Aint You
                            - New Hollow
-------------------------------------------------------------------------------
: phga

Guitar parts as figured from watching a live performance on YouTube by New Hollow

I've included both the picking, (which is how its played by the lead) and the chords
(which is played by the back up during verses and is easier to sing
with) as well as the words so you can sing your heart out

Tuning: Standard

--A's are easiest played as an F shape bar chord on 5th fret
--B*'s are B's that are easier played as an F shape bar chord on 7th fret


Intro/ Verse 1:

    Back up guitar plays a high accenting part
    in the beginning that goes like this:

    e|----12------------14--12------------11--12----------|
    B|----------------------------------------------------|
    G|----------------------------------------------------|
    D|----------------------------------------------------|
    A|----------------------------------------------------|
    E|----------------------------------------------------|

Lead

e|----------------------------------------------------|
B|----------------------------------------------------|
G|----------------------------------------------------|  Repeat throughout
D|--------6--------6-----6--------6-----------9--6----|  verses
A|------7-------7-----7--------7-----7-----6----------|
E|----0------0--------------9-----------7-------------|


              ---OR---
E                        C#m       B
  Its been a while since I saw your face
E                             C#m       B
  Maybe that's helped me move on
E                        C#m      B
  But I met a girl not a day too late
E                        C#m       B
  And of her I'm awfully fond


       E          C#m         B
And I hope my remedies don't show
       E             C#m     B
As I try to, try to, let you go
             E           C#m      B
Cause its awkward, oh so hard to see
      A      B*
The similarities


Chorus 1:

                C#m                      A     
She's got your hair, and she's got your eyes,
                          E                    B
      and she's got your exact same horoscope sign,
            C#m                     A    
She may be pretty, she's something new,
                           E          B
      but that means nothing..... 

She aint you


Verse 2:

e|----------------------------------------------------|
B|----------------------------------------------------|
G|----------------------------------------------------|  Repeat throughout
D|--------6--------6-----6--------6-----------9--6----|  verses
A|------7-------7-----7--------7-----7-----6----------|
E|----0------0--------------9-----------7-------------|

                   ---OR---
E                       C#m        B
  I find it hard not to look your way
E                       C#m        B
  But I get in what I can
E                             C#m      B
  And I find this song just a bit cliché
E                              C#m        B
  But I pray that you'll understand

                E            C#m      B
That there's nothing(nothing)on her mind
           E                 C#m      B
and she's far too, (far too) far too kind
         E              C#m       B
if you miss me, kiss me one more time
     A                 B*
at least for old time sake


Chorus 1:

                C#m                      A     
She's got your hair, and she's got your eyes,
                          E                    B
      and she's got your exact same horoscope sign,
            C#m                     A    
She may be pretty, she's something new,
                           E          B
      but that means nothing..... 

She aint you



INSTRUMENTAL 

She Is Love chords – Parachute

 Capo 2 in D

Intro:  D ,  A ,  Bm ,  D  x2

                Bm A G 
I've been beaten down, I've been kicked around, 
       Bm A G 
But she takes it all for me. 
          Bm A G 
And I lost my faith, in my darkest days,
       Bm A G 
But she makes me want to believe. 
                          D A Bm G 
They call her love, love, love, love, love. 
                          D A Bm G 
They call her love, love, love, love, love. 
                Bm A D ,  A ,  Bm ,  G 
She is love, and she is all I need. 

         D A Bm D 
She's all I need. 
          Bm A G 
Well I had my ways, they were all in vain,
        Bm A G  
But she waited patiently. 
           Bm A G 
It was all the same, all my pride and shame, 
         Bm A G 
And she put me on my feet. 

                          D A Bm G 
They call her love, love, love, love, love. 
                          D A Bm G 
They call her love, love, love, love, love. 
                Bm A G 
She is love, and she is all I need. 
                Bm A G 
She is love, and she is all I need.
                Bm A D 
She is love, and she is all I need.

She Burned Me Down Tabs by Type O Negative

  Type O Negative
 Dead Again
Song: She Burned Me Down
Tuning: BEADF#B
=============================================================
Notes
+ Intro solo is just my best guess. Please feel free to email me or add any solo parts
in the comments. I will be sure to add you as a contributing tabber.
+ Sorry, I couldn't get the solo at 6:14. If me or another member can figure it out then
I will add it in an update.
=============================================================

Intro
B |------------------------|------------------------|
F#|------------------------|------------------------|
D |--8b-88v--11b---11/13bv-|-8b8v---11/13v----15br--|
A |------------------------|------------------------|
E |------------------------|------------------------|
B |------------------------|------------------------|

B |------------------------|-----0--------------|
F#|------------------------|-----9----------9v--|
D |--8b-88v--11b---11/13bv-|-8-11---11-8--------|
A |------------------------|--------------------|
E |------------------------|--------------------|
B |------------------------|--------------------|

B |-------------------------|
F#|--7^9^7------------------|
D |--------6-8-6-8----------|
A |----------------9-8-9-6--|
E |-------------------------|
B |-------------------------|

B |--------------------------|------------------------|
F#|--------------------------|------------------------|
D |--13b-13-/16--/19b---20b--|--13b-13-/16--/19--16b--|
A |--------------------------|------------------------|
E |--------------------------|------------------------|
B |--------------------------|------------------------|

B |--------------------------|---------------------21b-19v--|
F#|--------------------------|--21-21-21b^19----------------|
D |--13b-13-/16--/19b---20b--|---------------20-20----------|
A |--------------------------|------------------------------|
E |--------------------------|------------------------------|
B |--------------------------|------------------------------|

The note at the 2nd fret on the D string is occasionally accented with a wah effect.
B |------------------------------------------------|
F#|------------------------------------------------|
D |-----2----2-----2----2-----2----2---------------|
A |--4-4-4--4-4-0-0-0--0-0-4-4-4--4-4----4-----4---|
E |-----------------------------------0-0-0-2-2-2--|
B |------------------------------------------------|

B |------------------------------------------------|
F#|------------------------------------------------|
D |-----2----2-----2----2-----2----2---------------|
A |--4-4-4--4-4-0-0-0--0-0-4-4-4--4-4----4-----4---|
E |-----------------------------------0-0-0-2-2-2--|
B |------------------------------------------------|

She burned me down . . . down to the ground
B |------------------------------------------------|
F#|------------------------------------------------|
D |-----2----2-----2----2-----2----2---------------|
A |--4-4-4--4-4-0-0-0--0-0-4-4-4--4-4----4-----4---|
E |-----------------------------------0-0-0-2-2-2--|
B |------------------------------------------------|

She burned me down . . . down to the ground
B |------------------------------------------------|
F#|------------------------------------------------|
D |-----2----2-----2----2-----2----2---------------|
A |--4-4-4--4-4-0-0-0--0-0-4-4-4--4-4----4-----4---|
E |-----------------------------------0-0-0-2-2-2--|
B |------------------------------------------------|

Blood, though thicker than water, is harder to clean up
B |----------- <5>-----------------<5>sustain to next lyric-|
F#|--------5----------------------<5>----------------------|
D |--6^4^6-------------------------------------------------|
A |--------------------------------------------------------|
E |--------------------------------------------------------|
B |--------------------------------------------------------|

You'll get it in the end

Baby chords – She And Him

 INTRO:  G Am D G  x2

           Am D G 
My little baby
            Am D G 
Oh, little baby

                Am 
Baby, I know I told you
    D G 
A million and more times that I, I love you so
                 Am 
Baby, I want to be sure
       D G 
You know that I need you and I, I'll never let you go

            Am D G 
Oh, little baby
           Am D G 
My little baby

                      Am 
Baby, if you should want me
       D 
I'll come when you call me
                G 
Yes, I'll be around
                   Am 
Baby, don't ever worry
     D G 
As long as you need me you know I'll never let you down

           D G 
I want to be with you until the day I die
             D Em Am D 
You always see me through, that's the reason why, why

 G Am D G Am 
Baby, I want to hold you
     D G 
So close to my heart that you, you can hear me say
                    Am 
Baby, tell me you love me
      D G 
And make me a promise that you, you'll never go away

            Am D G 
Oh, little baby
           Am D G 
My little baby
            Am D G 
Oh, little baby
            Am D G 
Oh, little baby
            Am D G 
Oh, little baby

**FADES AWAY**

My Baby She Told Me chords – Smoky Babe

 (I'm a Georgia native and there are absolutely no lyrics available for this song
anywhere. I had to listen to it over and over again and I'm iffy on quite a few lines.
Louisiana dialect aint my speciality. As for the chords I took some artistic liberty in 
spicing them up since I'm probably the only person that'll ever use this. Feel free to 
comment if
I messed up on the lyrics. I got the chords - strumming my banjo to the song and 
finding what sounded good. The Solos are just something I wrote to be used with a blues slide 
since they we're harmonica solo's in the original)

My Baby She Told Me
by Smoky Babe
(Lousiana Blues)

 G 
My baby she told me, long time ago.
                               C G 
Well you know she didn’t want, for me no more.
 G A# C G 
But thats alright. I have, to let, her go.
 G 
Thats alright mama, alright for you.
                   C G 
Thats alright baby, anyway you do.
                  A# C G 
Thats alright baby, anyway you do.

       (Solo)
 G C G A A# G G 
Well you told me last night, for the night before.
                 C G 
That your the one, don’t want me no more.
                      A# C G 
Well thats alright. I have, to let, you go.

    (Solo)
 G C A# A G G 
She a sweet little woman, frosty at home.
 G C G 
I’m crazy about, got love goin’ on.
                                 A# C G 
Thats alright baby; says she don’t, want me, no more.

        (Ending)
 G C G C A# A G