Tag: shes

Shes Not Crying Anymore chords – Billy Ray Cyrus

 C 
She used to cry when I'd come home late

                             Dm 
She couldn't buy the lies I told

         G7 
All she wanted was to be needed

                                 C 
Someone that she could call her own



The love I know I took for granted

                            Dm 
Until she walked out of my door

                G7 
Too little too late to say I'm sorry

                     C 
She's not crying anymore


                  F 
She's not crying anymore

 G7 C 
She ain't lonely any longer

                          F   
There's a smile upon her face 

            G7   
A new love takes my place

                  C 
She's not crying anymore



I hear she's really doing well now

                                 Dm 
She's picked herself up off the ground

          G7       
I wasn't there when I was needed

                            C  
But I was there to let her down



Sometimes you know I feel so foolish

                            Dm 
If I knew then what I know now

              G7 
Another tear would never fall


Cause I'd give our love my all

                             C 
If we could work things out somehow


                  F 
She's not crying anymore

 G7 C 
She ain't lonely any longer

                          F   
There's a smile upon her face
 
            G7   
A new love takes my place

                  C 
She's not crying anymore


                          F  
There's a smile upon her face
 
            G7 
A new love takes my place

                  Am F C  
She's not crying any--more

Shes Gone Gonegone chords – Glen Campbell

  She’s Gone Gone Gone  
 Glen Campbell  
 written by Harlan Howard
 1989 Walikin' In The Sun album
  
 Intro  A D E A 

 Verse 1
   
   A D          
 Well she said if I ever deceived her.
           E A    
 She'd be gone before I could count ten.
                 A7 D 
 I guess that I didn't believe her,
              E A         
 Cause just look at the trouble I'm in.
 
 Chorus 1

  A D                               
 Now she's Gone, Gone, Gone. Gone, Gone, Gone.
  E A 
 Crying won't bring her back.
                  A7 D  
 The more that I cry, the faster that plane flies,
  E A 
 Farther across the sky.

 riff   A D E A D E A 

 Verse 2
 
  A D 
 Well I lost every right to be happy.
          E A 
 When I lost the heaven I'd found.
                A7 D 
 She warned me she'd leave and she left me.
  E A 
 Before my first tear hit the ground.

 Chorus 2

  A D                                
 Now she's Gone, Gone, Gone. Gone, Gone, Gone.
  E A 
 Crying won't bring her back.
                  A7 D   
 The more that I cry, the faster that plane flies.
  E A                     
 Farther across the sky.

 riff   A D E A D E A 

 Verse 3

 
  A D  
 If I only knew where I could find her.
           E A 
 Well I'd crawl there on my hands and knees.
                         A7 D 
 cause each tick of the clock will remind her,
             E A 
 That she's one second farther from me.

 Chorus 3

  A D                              
 Now she's Gone, Gone, Gone. Gone, Gone, Gone.
  E A 
 Crying won't bring her back.
                  A7 D  
 The more that I cry, the faster the train flies.
  E A                     
 Farther across the sky.

 riff   A D E A D E A 

 Outro

  A D 
 Now she's Gone, Gone, Gone.  Gone, Gone, Gone.
  E A 
 Crying won't bring her back.
                  A7 D     
 The more that I cry, the faster that plane flies.
  E A E A 
 Farther across the sky.  Farther across the sky.

 flyinglibra51
 God Bless Glen Travis Campbell

Shes Fresh guitar chords by Kool And The Gang

Repeat theese chords:  Bm   Bm   G   A 


 Conversation is going 'round
 People talking 'bout the girl who's come to town
 Lovely lady pretty as can be
 No one knows her name she's just a mystery
 I have seen her maybe once or twice
 The one thing I can say thought she's very nice
 She's a lady one I really want to know
 Somehow I've got to let my feeling show

 She's fresh exciting
 She's so exciting to me
 She's fresh exciting
 She's so inviting to me yeah

 I've been thinking about the way you walk
 Baby I like the way you talk
 Tell you something I really can't hide
 Heaven must have sent you to be by my side
 Fresh and lovely like a dream come true
 I'll give anything to spend the night with you
 What a feeling and I can't stop it baby
 Miss frisky lady take me away

 Refrain

 She's fresh as a summer breeze
 She'll take you by surprise
 She means so much to me
 I'll do whatever to make her minebaby
 Oh yeah

 Oh yeah she's fresh so fresh
 She's fresh she's so fresh (x2)
 Fresh as a summer breeze
 She's fresh she's so fresh
 She means so much to me
 Yeah I want to take her by the hand
 And pray she'll understand
 'Cause I love the way she walks
 And ooh baby I love the way she talks
 I've got something and I hope she'll understand
 Miss frisky lady
 She's fresh
 She's fresh she's so fresh

Shes A Witch Tabs – Gengahr

 -------------------------------------------------------------------------------
                             She's A Witch - Gengahr
-------------------------------------------------------------------------------
: jordanaltimimi
 jordanhussain1

Couldn't find this tabbed anywhere else online. Tabbed it by ear off the NME acoustic
session so may be a few mistakes (let me know if there are any to amend) but this is 
ever so
slightly variated from the studio track.

Tuning: standard

Intro & choruses follow progression - A, E Minor, D, G
Verses follow progression -  D, G, F#, G

*STRUCTURE OF SONG*

-Intro (x1 progression)
-Chorus (x2 progressions) (note: chorus & intro are exactly the same)
-Verse One (x3 progressions)
-Chorus (x2 progressions)
-Verse Two (x3 progressions)
-Chorus (x2 progressions)
-Solo (not guitar piece) (he just strums chorus progression under the solo)
-Chorus (x2 progressions)
-Outro (x1 progression)


Intro / Chorus :

   On A barre chord (5th fret);
e|----------------------------------|
B|----------------------------5-----|
G|----6---------6---------6-----6---|
D|------7---------7---------7-----7-|
A|----------------------------------|
E|--5---------5---------5-----------|


   On E minor barre chord 7th fret;
e|-----------------------------------|
B|---8-------------------------------|
G|-----9-----------------------------|
D|-----------------------------------|
A|-7---------------------------------|
E|-----------------------------------|


   On D barre chord (10th fret);
e|-----------------------------------|
B|-----------------------------------|
G|----11-----------------------------|
D|-------12--------------------------|
A|-----------------------------------|
E|-10--------------------------------|


   On G barre chord (3rd fret);
e|------------------------------------|
B|--------------------------3---------|
G|---4--------4---------4-----4-------|
D|-----5--------5---------5-----5-----|
A|------------------------------------|
E|-3--------3---------3---------------|

Verses:

e|------------------------------------|
B|----10---------10-------------------|
G|-------11---------11----------------|
D|----------------------0-------------|
A|-12---------12----------------------|
E|------------------------------------|

e|------------------------------------|
B|---3-------3------------------------|
G|-----4-------4----------------------|
D|-----------------0------------------|
A|-5------5---------------------------|
E|------------------------------------|

e|------------------------------------|
B|---2-------2------------------------|
G|-----3-------3----------------------|
D|----------------0-------------------|
A|-4------4---------------------------|
E|------------------------------------|

e|------------------------------------|
B|---3-------3------------------------|
G|-----4-------4----------------------|
D|-----------------0------------------|
A|-5------5---------------------------|
E|------------------------------------|

Outro:

e|------------------------------------|
B|-10-------10-------10-------10------|
G|----11-------11-------11--------11--|
D|------------------------------------|
A|-12-------12-------12-------12------|
E|------------------------------------|


*******************************************
*******************************************

Shes 21 chords – Webb Pierce

 C F C 
There was a wedding and church bells were ringing

       F C G7 
I was there and heard them say  I do

 C F C 
I was proud to see him so happy

     F C G7 C 
But she’s just 21 and my dad he’s fifty two


 F C 
Dad’s been so alone since mom has been gone

                               G7 
And it hurts me to see him so blue

 C F C 
A man needs the love of a woman

     F C G7 C 
But she’s just 21 and my dad he’s fifty two


                       F C 
After the wedding and church bells stopped ringing

              F C G7 
I stayed and prayed that God would see them through

 C F C 
I’m so afraid she might hurt him

     F C G7 C 
For she’s just 21 and my dad he’s fifty two


 F C 
Dad’s been so alone since mom has been gone

                               G7 
And it hurts me to see him so blue

 C F C 
A man needs the love of a woman

     F C G7 C 
But she’s just 21 and my dad he’s fifty two

Shes Crazy And She Doesnt Care Tabs – Cloud Control

 Cloud Control - She's Crazy And She Doesn't Care


INTRO

E A D A x2

- the following riff is played in the intro, same goes for the verses (however it is actually played on keys):

e|----------------------------------|
B|-------------7-8-10-8-7-----------|
G|-------6-7-9------------9-7-6-----|
D|-6-7-9------------------------9-7-|
A|----------------------------------|
E|----------------------------------|


VERSE 1
E
Some are born different
Some of us are equal

E A D A

E
Some of us take
Make a living from the people

E A D A


PRE-CHORUS
E     A   D    A
We're not like that
E     A    D        A 
Never even thought about
E     A   D      A
We're not likely to 
       E
Make a profit anyway

E A D A x2


VERSE 2
        E
Will we ever catch up 
Will we talk 
Will we speak again

E A D A

           E
Now you're working for the man 
Change sides and you're one of them

E A D A


PRE-CHORUS
E     A   D    A
We're not like that
E     A    D        A 
Never even thought about
E     A   D      A
We're not likely to 
       E
Make a profit anyway


G#m  A  E  G# 
C#m  B  A  D 
F#m  A


CHORUS
    E                    G#                     C#m  B
The only one you love is crazy and she doesn't care
A                          D            F#m   A
Don't stop runnin till you work it out, yeah
    E                    G#                     C#m  B
The only one you love is crazy and she doesn't care
A                          D            F#m   A
Don't stop runnin till you work it out, yeah
    E                    G#                    A    E   
The only one you love is crazy and she doesn't care


- play riff twice, before returning to verse


VERSE 3
E
Some are born different
Some of us are equal

E A D A

E
Some of us take
Make a living from the people

E A D A


PRE-CHORUS
E     A   D    A
We're not like that
E     A    D        A 
Never even thought about
E     A   D      A
We're not likely to 
       E
Make a profit anyway

G#m  A  E  G# 
C#m  B  


CHORUS
A                          D            F#m  A
Don't stop runnin till you work it out, yeah
    E                    G#                     C#m  B
The only one you love is crazy and she doesn't care
A                          D            F#m   A
Don't stop runnin till you work it out, yeah
    E                    G#                    A    
The only one you love is crazy and she doesn't care


OUTRO

E A D A x2

end on E











Shes Long Gone Tabs – The Black Keys

 The Black Keys – She’s Long Gone                                                        


Guitar 1 – Standard
Guitar 2 - Standard

Intro

Guitar 1
e|--------------------------------0----------------------------------0--|
B|--------------------------------0----------------------------------0--|
G|----------------------------------------------------------------------|
D|---2-(h)2---0-------0----------------2-(h)2---0-------0---------------|
A|--------------2p0h2---2-------------------------2p0h2---2-------------|
E|-0----------------------3--3(s5)--0-----------------------3----(s5)---|

e|----------------------------------------------------------------------|
B|---------------------------------0------------------------------------|
G|---------------------------------0--------------------------2b3--2-0--|
D|---2-(h)2---0-------0-----------------2-(h)2---0-------0--------------|
A|--------------2p0h2---2--------------------------2p0h2---2------------|
E|-0----------------------3--3(s5)---0----------------------------------|

Guitar 1
e|--------------------------------------0-----------------------------------0-----|
B|--------------------------------------0-----------------------------------0-----|
G|--------------------------------------------------------------------------------|
D|-----2--(h)2----0----------0-----------------2-(h)2---0-------0-----------------|
A|-------------------2p0h2-----2--------------------------2p0h2---2---------------|
E|-0-----------------------------3-3(s5)--0------------------------3----(s5)------|
Guitar 2***************************************************************************
e|--------------------------------------------------------------------------------|
B|--------------------------------------------------------------------------------|
G|--------------------------------------------------------------------------------|
D|---14-(12h)14--12----------12-------------14-(12h)14--12---------12h14-(12)-14--|
A|------------------14-12h14----14s10----------------------14---------------------|
E|--------------------------------------------------------------------------------|


Guitar 1
e|--------------------------------------0-----------------------------------0-----------|
B|--------------------------------------0-----------------------------------0-----------|
G|--------------------------------------------------------------------------------------|
D|-----2--(h)2----0----------0-----------------2-(h)2---0-------0-----------------------|
A|-------------------2p0h2-----2--------------------------2p0h2---2---------------------|
E|-0-----------------------------3-3(s5)--0------------------------3----(s5)------------|
Guitar 2*********************************************************************************
e|--------------------------------------------------------------------------------------|
B|-------------------------------------------------------------------15—15h17p15--------|
G|-------------------------------------------------------------14s16-------------16s14--|
D|---14-(12h)14--12----------12-----------------14-(12h)14------------------------------|
A|------------------14-12h14----14s10---12p10-------------------------------------------|
E|--------------------------------------------------------------------------------------|

Verse

e|--------------------------------0----------------------------------0--|x4     
B|--------------------------------0----------------------------------0--|
G|----------------------------------------------------------------------|
D|---2-(h)2---0-------0----------------2-(h)2---0-------0---------------|
A|--------------2p0h2---2-------------------------2p0h2---2-------------|
E|-0----------------------3--3(s5)--0-----------------------3----(s5)---|

Chorus

Guitar 1
e|--------------------------------------------------------------|
B|--------------------------------------------------------------|
G|-------------------------------------------------------------

Shes Always A Woman chords – Billy Joel V7

 Artist: Billy Joel
Song: She's always a woman to me
 The stranger
: DJ
10th Oct 2014

CAPO: 1st fret (Sounds in the key of Bb)

Chord names and fret positions are relative to the capo:
  D     = xx0232     G6     = 320000     E7    = 020100     C     = x32010
  D4    = xx0233     A7     = x02223     A/G#  = 4x222x     C/B   = x2x010
  A     = x02220     F#     = 244322     F#m   = 244222     Am    = x02210
  G/D   = xx0033     Bm     = x24432     G/F#  = 2x0003     F6    = 100211
(D/A) = x0xxxx     Bm/A   = x04432     Em    = 022000     Bb    = x13331
(D/B) = x2xxxx     D4/A   = x00233     Dm    = xx0231     Bb/A  = x03331
(D)   = xx0xxx    Dsus2 = xx0230    Dm/C = x30231    Abdim= xx0101
  G     = 320003     D/C#   = x40232     G7/B  = x20001     A6    = x02222
 Gmaj7= 320002     E7/G#  = 4x0450     G7    = 320001
 
**************************************************************************

[Intro]
    D D4/A D A D G/D D 
|  /   /    /   /  |  /   /   /  /  |


[Verse 1]
           A D A D 
She can kill with a smile, she can wound with her eyes,
      (D/A) (D/B) (D)   G             Gmaj7   G6   Gmaj7
She can ru  - in  your faith with her casual lies,
          A7 D A7 F# 
And she only re - veals what she wants you to see,
      Bm Bm/A G6 A7 D D4/A D 
She hides like a child, but she's always a woman to me!


[Verse 2]
           A D A D Dsus2 
She can lead you to love, she can take you or leave you,
       (D/A)(D/B)(D))  G                Gmaj7      G6        Gmaj7
She can ask  for the truth, but she'll never be - lieve you,
             A7 D A7 F# 
And she'll take what you give her, as long it's free,
             Bm Bm/A 
Yeah, she steals like a thief,
             G6 A7 D D4/A D D/C# 
But she's always a woman to me!       |  /  /  /   /  |


[Verse 3]
 Bm Bm/A E7/G# E7 A A/G# F#m 
 Oh------,        she takes care of her - self-------,
           D G G/F# Em A7 D D4/A D 
She can wait if she wants,         she's a - head of her time,
 Dm Dm/C G7/B G7 C C/B Am 
Oh---------------, and she never gives out,
          F6 Bb Bb/A Abdim E7 A A6 A7 
And she never gives in,             she just changes her mind!


[Verse 4]
               A D A D 
And she'll promise you more than the garden of Eden,
            (D/A) (D/B)  (D)  G           Gmaj7                 G6   Gmaj7
Then she'll care - less - ly cut you, and laugh while you're bleeding,
           A7 D A7 F# 
But she brings out the best and the worst you can be,
          Bm Bm/A G6 A7 D D4/A 
Blame it all on your - self, 'cause she's alwa

Shes Fantastic chords – Sondre Lerche

 




 D     G (listen to the song to get the rythm)

 All the girls that I know suddenly seem so-so
 Suddenly no one quite can compare to her
 
  F#m A  
 Why? She's fantastic
 
   G F#m D Bm 
 I do not know what to do
  G A D 
 What is a guy to contribute?

  D G  
 
 All the girls my own age have me turning the page
 They're so eager to try
 She don't do nothing
  Fm# A  
 Why? She's fantastic
 
   G F#m D Bm 
 I do not know what to do
  G A D 
 What is a guy to contribute?
 

                        Em G Bm 
 Just like in that old movie about Carlotta's spell
             A D 
 I feel obsessed like Scottie felt
   A Em G 
 minus the drama and the fraud
     Bm A G 
 I hope I got to get into her way
             D G 
 Out of my way


 All the girls in this room sure look pretty and groomed
 but I must let you down
 She's ahead of you
 How? She's fantastic
 I do not know what to do
 Honestly, what can I contribute?


                         Em G Bm 
 Just like in that old movie about Rebecca's spell
              A D 
 I feel like Max never felt
   A Em G 
 minus the drama and the fraud
     Bm A G 
 I hope I got to get into her way
             D G 
 Out of my way


D   G (keep the pattern until the end)

 Late at night when I dream about girls that I've seen
 very few reach beyond my eyes after I'm gone

 No one makes me so weak
 and appears so unique
 In a cluster of freak
 she is all that I seek

 No one makes me confused
 and so certain I'd lose
 I'm battered and bruised
 I'm disheveled but true

 Everything is a blur
 Everything is a blur
 None of this would occur
                   F#m    
 If it wasn't for her
          A  
 She's fantastic
 
   G F#m D Bm 
 I do not know what to do
  G A D 
 What is a guy to contribute? 

Shes Gone For Good This Time Tabs by Carbon Leaf

 Standard tuning, no capo. There's way too many hammers/pull offs to include, so just 
listen to the song and it's pretty apparent when they're needed.

Intro
E|--0--2--------2--0--2-----0--3--2--0--------0-----0--------------0--3--2--0--|
B|--------3--3-----------3--------------3--2-----------------2--3--------------|
G|-----------------------------------------------2-----2--4--------------------|
D|-----------------------------------------------------------------------------|
A|-----------------------------------------------------------------------------|
E|-----------------------------------------------------------------------------|

E|--0--2--------2--0--2-----0--3--2--0--------------0--------------------------|
B|--------3--3-----------3--------------------2--3-----3--2--------------------|
G|--------------------------------------2--4-----------------4--2--------------|
D|-----------------------------------------------------------------4--2--4--0--|
A|-----------------------------------------------------------------------------|
E|-----------------------------------------------------------------------------|

Intro Part II

E|--------------------------------------------------------------------------|
B|--------------------------------------------------------------------------|
G|--2--------2-----------0--2--4--2--0-----2-----2--------------------------|
D|-----4--0-----0--2--4-----------------2--------------------0--2--4--2--0--|
A|--------------------------------------------2-----0--2--4-----------------|
E|--------------------------------------------------------------------------|

E|-----------------------------------------------------------------------------------|
B|-----------------------------------------------------------------------------------|
G|--2--------2-----------0--2--4--2--0--------4-----------2--------------------------|
D|-----4--0-----0--2--4-----------------5--5-----5--4--4-----4--2--4--2--0--------0--|
A|--------------------------------------------------------------------------2--0-----|
E|-----------------------------------------------------------------------------------|

Verse
E|--------------------------------------------------------------------------------|
B|--------------------------------------------------------------------------------|
G|--------------------------------------------------------------------------------|
D|--5--4--2--4--2--------0--5--4--2--4--2--0--------0--5--4--2--4--2--0--------0--|
A|-----------------2--0-----------------------2--0-----------------------2--0-----|
E|--------------------------------------------------------------------------------|

E|-----------------------------------------------|
B|-----------------------------------------------|
G|-----------0--2--4--2--0-----------------------|
D|--0--2--4-----------------2--4--2--0--------0--|
A|--------------------------------------2--0-----|
E|-----------------------------------------------|

The rest of the verse is DAGDAD

Shes Something Else Tabs by Easyworld

 She's Something Else

riff 1

e---------------------------------|
B---------------------------------|
G-9-9-9-9-9-9-9-9-8-8-8-8-8-8-8-8-|
D---------------------------------|
A-7-7-7-7-7-7-7-7-6-6-6-6-6-6-6-6-|
E---------------------------------|

e-------------------------------------------------|
B-------------------------------------------------|
G-14-14-14-14-14-14-14-14-12-12-12-12-12-12-12-12-|
D-------------------------------------------------|
A-12-12-12-12-12-12-12-12-10-10-10-10-10-10-10-10-|
E-------------------------------------------------|

e---------------------------------|
B---------------------------------|
G-9-9-9-9-9-9-9-9-8-8-8-8-8-8-8-8-|
D---------------------------------|
A-7-7-7-7-7-7-7-7-6-6-6-6-6-6-6-6-|
E---------------------------------|

e-------------------------------------------------|
B-------------------------------------------------|
G-14-14-14-14-14-14-14-14-14-14-12-12-14-14-12-12-|
D-------------------------------------------------|
A-12-12-12-12-12-12-12-12-12-12-10-10-12-12-10-10-|
E-------------------------------------------------|

riff 2 (this is very hard to hear but is essentially the same as the bassline)

e------------------------------|
B------------------------------|
G------------------------------|
D-2--9-11--6-6--11-9-7-7--6--4-|
A-2--9-11--6-6--11-9-7-7--6--4-|
E-0--7-9---4-4--9--7-5-5--4--2-|

Verse 1

riff 1
tonight we all smell the same
in the dark we look cool

riff one with
E            B       A        E
so it's safe to turn off your brain
E                  B
and what was that? i'm so
A                                  B
really really really i'm something else completely


Chorus 1

riff 2 x2 and
E                       B
can't hear me, can't see me
A       G#min   F#min
it's so much better this way
E                       B
believe me she's really
A       G#min   F#min
something else completely
(riff 2 stops)
A       E               B
something else completely


Verse 2 same as verse 1

show yourself in the perfect light
you kick them in so refusive
communicate in sounds all so mono-syllabic
and hello girls
yeah i'm so really really i'm really
i'm just something else completely


Chorus 2

riff 2 x4 and
E                       B
can't hear me, can't see me
A       G#min   F#min
it's so much better this way
E                       B
believe me she's really
A       G#min   F#min
something else completely
E                       B
can't hear me, can't see me
A       G#min   F#min
it's so much better this way
E                       B
believe me she's really
A       G#min   F#min
something else completely
(riff 2 stops)
A       E       C
something else


Middle 8 (each note played fast)

e-------------------------------------------------------------------------|
B-------------------------------------------------------------------------|
G-9-9-9-9-9-9-9-9-11-11-11-11-11-11-11-11-5-5-5-5-5-5-5-5-5-5-5-5-7-7-7-7-|
D-------------------------------------------------------------------------| x2
A-7-7-7-7-7-7-7-7-9--9--9--9--9--9--9--9--3-3-3-3-3-3-3-3-3-3-3-3-5-5-5-5-|
E-------------------------------------------------------------------------|

e-----------------------------------------------------------------|
B-----------------------------------------------------------------|
G-9-9-9-9-9-9-9-9-11-11-11-11-12-12-12-12-12-12-12-12-12-12-12-12-|
D-----------------------------------------------------------------|
A-7-7-7-7-7-7-7-7-9--9--9--9--10-10-10-10-10-10-10-10-10-10-10-10-|
E-----------------------------------------------------------------|

e-----------------------------------------------------------------------------|
B-----------------------------------------------------------------------------|
G-14-14-14-14-14-14-14-14-16-16-16-16-16-16-16-16-16bu18-18-18-18-18-18-18-18-|
D-----------------------------------------------------------------

Shes On Fire solo Tabs by Train

 -------------------------------------------------------------------------------
                             SHE'S ON FIRE - Train
-------------------------------------------------------------------------------
: firebowl99

Tuning: Standard

Solo

e|-----------------------------------------|
B|--9---7-------7--------------------------|
G|---------9-------9--------9--------------|
D|--9---9--9----9--9---9h11---11p9---------|
A|-----------------------------------------|
E|-----------------------------------------|

e|-----------------------------------------|
B|--9---7-------7--------------------------|
G|---------9---------9---------------------|
D|--9---9--9----9----9---------------------|
A|-----------------------------------------|
E|-----------------------------------------|

e|-----------------------------------------|
B|-9h10p9---------------10p9h10p12b--------|
G|--------11p9--------9--------------------|
D|---------------9h11----------------------|
A|-----------------------------------------|
E|-----------------------------------------|

e|-0-0--0----------------------------------------|
B|-7-9--7------------------------10-9-10/12~ ----|
G|--------9--------9-----------------------------|
D|------------9h11----------11p9-----------------|
A|-----------------------------------------------|
E|-----------------------------------------------|




************************************

| /   slide up
| \   slide down
| h   hammer-on
| p   pull-off
| ~   vibrato
| +   harmonic
| x   Mute note
| b   Bend
| pb  Pre-bend
| br  Bend release
| pbr Pre-bend release
| brb Bend release bend

************************************

Shes On Fire chords – Train

 -------------------------------------------------------------------------------
                             SHE'S ON FIRE - Train
-------------------------------------------------------------------------------


Intro:
 E  -  Asus2  -  E  -  Asus2 E Asus2 E Asus2 
Well this is just between us but between us let's get high
 E Asus2 E Asus2 
In pictures I have seen her and to see her is truly fine
       E Asus2 
She's on fire
       E Asus2 
She's on fire 

Interlude:
 E  -  Asus2  -  E  -  Asus2 E Asus2 E Asus2 
Flowers in her evening set I get the feeling she won't forget
 E Asus2 E Asus2 
And there's times you'd long to be her but to be her is surely blinding

       E Asus2 
She's on fire
       E Asus2 
She's on fire
       C#m 
She's on to me
         F# 
And I'm over me
       E Asus2 
She's on fire 

 Bsus2 Asus2 Bsus2 Asus2 
And if I could be inside her light
 D Dsus2/C D C 
I would steal enough to make my way into the night
 Bsus2 Asus2 G#m Asus2 
And if I could be inside her light I might just find I'd be alright

Solo:
 E  -  Asus2  -  E  -  Asus2  -  E  -  Asus2  -  C#m  -  Asus2 E E6 E E6 
Well it's not just a daydream if you decide to make it your life, your life
 E Asus2 C#m Asus2 
And this is not between us but between us let's keep getting back to where it's from

       E Asus2 
She's on fire
       E Asus2 
She's on fire
       C#m 
She's on to me
         F# 
And I'm over me
       E Asus2 
She's on fire
       C#m 
She's on to me
         F# 
And I'm over me
       A 
She's over me
         F# 
And I'm on to her
       E Asus2 
She's on fire
       E Asus2 
She's on fire
       E Asus2 
She's on fire

Bobby Shafto – Shes My Girl chords

 She's My Girl:Bobby Shafto.
#99 on BB Hot 100 on PARLOPHONE
Records in 1964.

INTRO:  D F C A  (x2)

#1.
 D G D G D 
I saw her face and I loved her....I know that 
 G D A 
she loves me, too.
     D G D 
I'm sorry, but I must take her..take her 
      E 
from you.

CHORUS:
 A D E 
She's my girl, I love her so.
 A D E 
She's my girl, so let her go.
 A D E 
She's my girl, oh, can't you see..
           A F E   
she loves me.

#2.
 D G D G D 
Close to my heart, I will keep her....I hope you 
 G D A 
won't feel too sad.
 D G D          
She must be mine cause I need her..need her so 
 E E7 
baaaad.

CHORUS:
 A D E 
She's my girl, I love her so.
 A D E 
She's my girl, so let her go.
 A D E 
She's my girl, oh, can't you see..
           A F E 
she loves me.

BRIDGE:
 D G D Bm A 
She's my once in a lifetime girl, and I know, and 
 A A7 
I know I must stay, I must stay by her side.

#3.
 D G D G D 
Close to my heart, I will keep her....I hope you 
 G D A 
won't feel too sad.
 D G D          
She must be mine cause I need her..need her so 
 E E7 
baaaad.

CHORUS:
 A D E 
She's my girl, I love her so.
 A D E 
She's my girl, so let her go.
 A D E 
She's my girl, oh, can't you see..
           A F E 
she loves me.

CHORUS:
 A D E 
She's my girl, I love her so.
 A D E 
She's my girl, so let her go.
 A D E 
She's my girl, oh, can't you see..
           A D E 
she loves me.

OUTRO:
 E A D E A Am7 C F E A 
She loves me......she loves me..


A sixties smash from Kraziekhat.

Bend The Clouds – Glad Shes Gone Tabs

 Bend The Clouds
Glad She's Gone

Intro (after 8 counts of drums)
e|-------------------------|
B|-------------------------|
G|-------------------------|
D|-------------------2-2-2-|
A|-------------2-2-2-2-2-2-|
E|-0-0-0-0-0-0-0-0-0-0-0-0-|
   * * * * * * * * * * * *
e|-----0~----0~-----------------|
B|-----3~----3~-----------------|
G|-----1~----1~-----------------|x2
D|-----2~----2~-5-5-5-5-7-7-7-7-|
A|--------------5-5-5-5-7-7-7-7-|
E|-0-0---0-0----3-3-3-3-5-5-5-5-|
   * *   * *

Verse
e|-----0~----0~-----------------|
B|-----3~----3~-----------------|
G|-----1~----1~-----------------|x5
D|-----2~----2~-5-5-5-5-7-7-7-7-|
A|--------------5-5-5-5-7-7-7-7-|
E|-0-0---0-0----3-3-3-3-5-5-5-5-|
   * *   * *

Bridge
e|---------------------------------|
B|---------------------------------|
G|---------------------------------|x1
D|-4-4-4-4-4-4-4-4-4-4-4-4-4-4-4-4-|
A|-2-2-2-2-2-2-2-2-2-2-2-2-2-2-2-2-|
E|---------------------------------|

Chorus
Guitar 1
e|---------------------------------|
B|---------------------------------|
G|-9-9-9-9-9-9-9-9-----------14^-12|x4
D|-9-9-9-9-9-9-9-9-5-5-5-5---------|
A|-7-7-7-7-7-7-7-7-5-5-5-5---------|
E|-----------------3-3-3-3---------|
Guitar 2
e|---------------------------------|
B|---------------------------------|
G|---------------------------------|x4
D|-2-2-2-2-2-2-2-2-5-5-5-5-7-7-----|
A|-2-2-2-2-2-2-2-2-5-5-5-5-7-7-----|
E|-0-0-0-0-0-0-0-0-3-3-3-3-5-5-----|

Re-intro
Let each note ring for 4 counts
Drums to a roll back into chorus
Guitar 1
e|-------------------------|
B|-------------------------|
G|-9~------9~------9~------|
D|-9~------9~------9~------|
A|-7~------7~------7~------|
E|-------------------------|

Guitar 2
e|-------------------------|
B|-------------------------|
G|-------------------------|
D|-2~------2~------2~------|
A|-2~------2~------2~------|
E|-0~------0~------0~------|

Song Order

Intro
Verse
Bridge
Chorus
Verse
Bridge
Chorus
Bridge
Chorus/Solo (in key E minor)
Bridge
Re-intro
Chorus
Verse

Until Shes Gone chords – Micah And The Reason

 UNTIL SHES GONE
www.micahandthereason.com

 G#m 
At the moment when the sun starts to risen
 C#m7 
You can see the light leaving her eyes and
G#maj7sus
Another night of sweet talking lies and 
     E9 D#9 
She told herself this won’t be the same 

Not ready to admit she wont look in the mirror
Cause thats the moment when it all becomes clearer
They touched souls now he wont come near her
But she’s grown numb to the pain

 C#m7 
She thought shed finally found
G#maj7sus
What she wants to come around
 G#m 
 And even though he wasnt here now
 E9                                   G#maj7sus
She’ll just let it go so it won’t bring her down

 G#m C#m7 
Cause shed settle for a warm hand than to go home alone
G#maj7sus                                         G#m 
Shed settle for any man until she can find her own
 G#m C#m7 
And you cant tell her nothing cause shes known it all along
     E9 D#9 
And shes gone be that way until shes gone 

 G#m D#m7   (Repeat 4x’s) 

She hears the ridicule but tries to pay it no mine
But you dont have to look deep to see it in her eyes
She just considers it a little bit of a sacrifice 
So she can get what she wants in this life

She just says shes trying to find what shes looking for 
But forgot that the universe is keeping score
And only pays whats collected from you nothing more
And then wonders why it wont all turn out right

She thought shed finally found
What she wants to come around
And even though he wasnt here now
She’ll just let it go so it wont bring her down

Cause shed settle for a warm hand than to go home alone
She’d settle for any man until she found her own
And you cant tell her nothing cause shes known it all along
And shes gone be that way until shes gone 

 Emaj7 
Oh I hope she finds 
 D#m7 
That peace in time 
 C#m7 G#m 
And I hope its really true 
Because if she were to sustain
All that would remain 
 C#m7                             G#maj7sus
Is the shell of what shes been through

Repeat Chorus

End

Shes Too Good To Be True chords – Exile

 C Am 
It's gettin' late, the day's at it's end
 F Fm 
My favorite time of night is right around the bend
 C Am G 
It's when the time comes to turn the lights down low
 C Am 
She pours the wine, and I lock the door
 F Fm 
She takes my hand like so many nights before
 C Am F G 
That's when I know heaven's waiting for me

Chorus:
 C Em 
She's too good to be true, she blows my mind
 F Fm 
She's still the one who thrills me time after time
        C Am F G       
It's unbelievable, the way she moves me
 C Em 
She's so easy to love, so tender to hold,
 F Fm 
She touches me like no one I've ever known
             C G C       
The way she moves me, she's too good to be true.


 C Am 
The radio plays a melody
 F Fm    
One designed especially for her and me,
 C Am G 
An old love song that we used to slow dance to
 C Am 
And when she says how happy she's been
 F Fm 
That old familiar feeling comes over me again
 C Am F G 
I count my blessings, how lucky I am.

Chorus:
 C Em 
She's too good to be true, she blows my mind
 F Fm 
She's still the one who thrills me time after time
        C Am F G 
It's unbelievable, the way she moves me
          C Em 
She's so easy to love, so tender to hold,
 F Fm 
She touches me like no one I've ever known
             C G Am F 
The way she moves me, she's too good to be true.
             C G C 
The way she moves me, she's too good to be true.

Shes So Kawaii solo Tabs by Leetstreet Boys

 Song: She's So Kawaii
Artist: LeetStreet Boys
 Otaku Hearts
Year: 2010
: Lito290

|-------------11-------------11-------------------------|
|---13--11--9------13--11--9-----13--11--9--11--13--11--|
|-------------------------------------------------------|
|-------------------------------------------------------|
|-------------------------------------------------------|
|-------------------------------------------------------|

|-------------11-------------11-----11-15-15--15--16--13|
|---13--11--9------13--11--9----------------------------|
|-------------------------------------------------------|
|-------------------------------------------------------|
|-------------------------------------------------------|
|-------------------------------------------------------|

Shes Gone Chords – Steelheart

Verse 1:
          C
   She's gone,
             G#
   Out of my life.
           A#
   I was wrong,
           G
   I'm to blame,
             G#
   I was so untrue.
F                             G
   I can't live without her love.

          C
   In my life
                     G#
   There's just an empty space.
    A#                 G
   All my dreams are lost,
                G#
   I'm wasting away.
                G
   Forgive me, girl.

Chorus:
    G#              D#
   Lady, won't you save me?
       A#               F
   My heart belongs to you.
    G#               D#
   Lady, can you forgive me?
       A#                F
   For all I've done to you.
    G#         A#
   Lady, oh, lady.

Verse 2:
          C
   She's gone,
              G#
   Out of my life.
             A#
   Oh, she's gone.
             G              G#
   I find it so hard to go on.
F                           G
   I really miss that girl, my love.

         C          G#
   Come back into my arms.
           A#
   I'm so alone,
               G
   I'm begging you,
                   G#
   I'm down on my knees.
F               G
   Forgive me, girl.

Chorus x1

Guitar Solo:
C - G# - A# - G
G# - F - G - G

Chorus x2

Ending:
D# - D - C