Tag: should

You Should See Me In A Crown chords by Billie Eilish

Verse          Chorus
----------     ----------
Em  02200x     E5  022xxx
G   32000x     G5  355xxx
Capo 4th fret
[Intro]
Em  G
[Verse 1]
Em
Bite my tongue, bide my time, wearing a warning sign
G
Wait 'til the world is mine
Em
Visions I vandalize, cold in my kingdom size
G
Fell for these ocean eyes
[Chorus 1]
E5
You should see me in a crown
E5
I'm gonna run this nothing town, watch me make 'em bow
E5  G5  E5  G5  E5
One by  one by  one
E5  G5  E5  G5
One by  one by
E5
You should see me in a crown
E5
Your silence is my favorite sound, watch me make 'em bow
E5  G5  E5  G5  E5
One by  one by  one
E5  G5  E5  G5  N.C.
One by  one by  one
[Verse 2]
Em
Count my cards, watch them fall, blood on a marble wall
G                        N.C.
I like the way they all, scream
Em
Tell me which one is worse, living or dying first
G
Sleeping inside a hearse (I don't dream)
[Bridge]
Em
You say, come over baby
G
I think you're pretty
Em
I'm okay, I'm not your baby
G
If you think I'm pretty
[Chorus 2]
E5
You should see me in a crown
E5
I'm gonna run this nothing town, watch me make 'em bow
E5  G5  E5  G5  E5
One by  one by  one
E5  G5  E5  G5
One by  one by
E5
You should see me in a crown
E5
Your silence is my favorite sound, watch me make 'em bow
E5  G5  E5  G5  E5
One by  one by  one
E5  G5  E5  G5  E5
One by  one by  one
[Interlude]
E5  E5
E5  G5  E5  G5
E5  G5  E5  G5
[Chorus 3]
E5
Crown
E5
I'm gonna run this nothing town, watch me make 'em bow
E5  G5  E5  G5  E5
One by  one by  one
E5  G5  E5  G5
One by  one by
E5
You should see me in a crown (you should see me, see me)
E5
Your silence is my favorite sound (you should see me, see me), watch me make 'em bow
E5  G5  E5  G5  E5
One by  one by  one
E5  G5  E5  G5  E5
One by  one by  one

If He Should Break Your Heart chords – Journey

 Name: Mike M
Artist: Journey
Title: If He Should Break Your Heart
Trial By Fire
Year: 1996
Standard Tuning
INTRO
Asus2 Bsus2     
E-|-0--0--------0--2-----0--0--------0--2--4-|
B-|-0-----4--0--------0--0-----4--0----------|
G-|-2--------------------4-------------------|
D-|-2--------------------4-------------------|
A-|-0--------------------2-------------------|
E-|-x--------------------x-------------------|
VERSE 1
Asus2 
Please be wrong
Bsus2  
Please don't tell me it's really you
Asus2 Bsus2 
Tell me eyes... Tell my heart what I'm goin' through
Asus2 Bsus2 
I believed, I believed I was over you
CHORUS
C#m Bsus2 
If he should break your heart
G#5 Asus2 
I'll always know where you are
C#m Bsus2 
If you should fall... Apart
G#5 Asus2 
I'll be there, I'll be around
C#m Bsus2 
If he should break... Your heart
Asus2 
I'll be there
VERSE 2
Asus2 
Is this right
Bsus2 
I don't care I'm alone with you
Asus2 Bsus2 
Here we are, once again you've got someone new
Asus2 Bsus2 
Lonely hands, please don't do what you wanna do
CHORUS
C#m Bsus2 
If he should break your heart
G#5 Asus2 
I'll always know where you are
C#m Bsus2 
If you should fall... Apart
G#5 Asus2 
I'll be there, I'll be around
C#m Bsus2 
If he should break... Your heart
Asus2 C#m  
From my soul I say... Good-bye yesterday
Bsus2 Asus2 
One more night alone, without the touch... Of you
Asus2 C#m   
Then I start to break... Is it my mistake
Bsus2 Asus2 
Tell me am I wrong... For holdin' on... To you
Bsus2 Asus2      
SOLO - If he should break your, If he should break your, If he should break your...Heart 
C#m Bsus2 
If he should break your heart
G#5 Asus2 
I'll always know where you are
C#m Bsus2 
If you should fall... Apart
G#5 Asus2 
I'll be there, I'll be around
C#m Bsus2 
If he should break... Your heart
Asus2 
I'll be there 
Bsus2 Asus2      
If he should break your, If he should break your, If he should break your...Heart
Thanks for viewing! 

Should Auld Aquaintace Be Forgot chords – Dougie Maclean

 Dieses Lied heißt sinngemäß übersetzt „Aus längst vergangener Zeit“ und ist bis heute
eines der bekanntesten Lieder im englischsprachigen Raum. Traditionell wird dieses Lied
zum Jahreswechsel gesungen in England und den USA. Aber auch international hat dieses 
alte Volkslied einen hohen Stellenwert.
Die Pfadfinderbewegung in Deutschland erschuf aufgrund des Inhaltes den deutschen Text
„Nehmt Abschied  Brüder“ und wird heute oftmals noch zum
Abschluss von Lager- und Ferienfahrten gespielt und gesungen.
Entstanden ist diese Melodie aus einer alten schottischen Volkweise aus dem
Jahre 1678, der Text stammt von James Watson aus dem Jahr 1711.
F-Moll ist für die Strummingversion - Beim Picking ist F-Dur besser
C G C F 
Should auld acquaintance be forgot, and never brought to mind?
C Am D G F Fm C 
Should auld acquaintance be forgot, and days of auld long syne?
REFRAIN:
F C G C F 
For auld lang syne, my dear. For auld lang syne.
C Am D G F Fm C 
We’ll tak a cup o’ kindness yet, for days of auld lang syne.
We twa hae run about the braes, and pou’d the gowans fine;
But we’ve wander’d many a weary fit, since day of auld lang syne.
And we tea hae paidl’d in the burn, rae morning sun till dine;
But seas between us braid hae roar’d, since days of auld lang syne.
Refrain:
And surely ye’ll be your pint’ stoup, and surely I’ll be mine!
And we’ll tak a cup o’ kindness yet, for auld lang syne.
And there’s a hand my trusty fiere, and gie’s a hand o’ thine.
And we’ll tak a right guid-willie-waught, for auld lang syne.
Refrain (1x wiederholen)

If I Should Fall Behind chords – Bruce Springsteen V3

 #-------------------------------PLEASE NOTE-------------------------------------#
# This file is the author's own work and represents their interpretation of the #
# song. You may only use this file for private study, scholarship, or research. #
#-------------------------------------------------------------------------------#
If I Should Fall Behind chords
Bruce Springsteen  (Lucky Town)
D Dsus2 D D D Dsus2 D 
We said we'd walk together baby come what may
Bm 
That come the twilight should we lose our way
G D D Dsus2 D 
If as we're walkin a hand should slip free
Bm 
I'll wait for you
G 
And should I fall behind
D D Dsus2 D 
Wait for me
D D Dsus2 D 
We swore we'd travel darlin' side by side
Bm 
We'd help each other stay in stride
G D D Dsus2 D 
But each lover's steps fall so differently
Bm 
I'll wait for you
G 
And should I fall behind
D D Dsus2 D 
Wait for me
D G D D Dsus2 D  
Now everyone dreams of a love lasting and true
G Bm 
But you and I know what this world can do
G D D Dsus2 D 
So let's make our steps clear that the other may see
Bm 
I'll wait for you
G 
And should I fall behind
D D Dsus2 D 
Wait for me
D D Dsus2 D 
Now there's a beautiful river in the valley ahead
Bm 
There 'neath the oak's bough soon we will be wed
G D D Dsus2 D 
Should we lose each other in the shadow of the evening trees
Bm 
I'll wait for you
G 
And should I fall behind
D D Dsus2 D 
Wait for me
Bm 
Darlin' I'll wait for you
G 
And should I fall behind
D D Dsus2 D 
Wait for me
Bm 
Yeh, I'll wait for you
G 
And should I fall behind
D D Dsus2 D 
Wait for me
Bm 
I'll wait for you
G 
And should I fall behind
D D Dsus2 D 
Wait for me
Set8

I Should Have Known It Tabs by Tom Petty And The Heartbreakers

 Tuning: D Tuning
Intro/Verse x4
d|------------------------------------------------------------------------|
A|------------------------------------------------------------------------|
F|-------------------5-2-----------------------2~-------------------------|
C|---0---0---------------------0---0--------------------------------------|
G|-3b--3b--0---0-2-3---------3b--3b--0---0-2-3----------------------------|
D|------------------------------------------------------------------------|
Bridge x2
d|------------------------------------------------------------------------|
A|/10-10-10-10-9--9--9--8---10\-------------------------------------------|
F|/11-11-11-11-10-10-10-9---11\-------------------------------------------|
C|------------------------------------------------------------------------|
G|------------------------------------------------------------------------|
D|------------------------------------------------------------------------|
Verse x1
d|------------------------------------------------------------------------|
A|------------------------------------------------------------------------|
F|-------------------5-2-----------------------2~-------------------------|
C|---0---0---------------------0---0--------------------------------------|
G|-3b--3b--0---0-2-3---------3b--3b--0---0-2-3----------------------------|
D|------------------------------------------------------------------------|
Chorus x1
d|0--0---3-2--3-2--3-2----------------------------------------------------|
A|0--0---3-3--3-3--3-3----------------------------------------------------|
F|1--1---2-2--2-2--2-2-------------2p0------------------------------------|
C|2--2---0-0--0-0--0-0-----------------------0----------------------------|
G|2--2-----------------------0-2-3-----3p0-3---0--------------------------|
D|0--0--------------------------------------------------------------------|
Verse x3
Bridge x2
Verse x1
Chorus x1
Alt. Verse x8
d|------------------------------------------------------------------------|
A|------------------------------------------------------------------------|
F|------------------------------------------------------------------------|
C|------------------------------------------------------------------------|
G|---0---0-------------2p0------------------------------------------------|
D|-3b--3b--0-----0-2-3-----3p0--------------------------------------------|
Chorus (with variaton)
d|0--0---3-2--3-2--3-2----------------------------------------------------|
A|0--0---3-3--3-3--3-3----------------------------------------------------|
F|1--1---2-2--2-2--2-2-------------2p0------------------------------------|
C|2--2---0-0--0-0--0-0-----------------------0-------0--------------------|
G|2--2-----------------------0-2-3-----3p0-3---0---3---0------------------|
D|0--0--------------------------------------------------------------------|
Outro Riff X16
d|---3--------------------------------------------------------------------|
A|-2-3-2--3-3-2-3-2-------------------------------------------------------|
F|-2-0-2--2-2-2-2-2-------------------------------------------------------|
C|-2-0-2--2-2-2-2-2-------------------------------------------------------|
G|-0-2-0--0-0-0-0-0-------------------------------------------------------|
D|---3--------------------------------------------------------------------|
d|3-2--3-2--3-2-----3-2--3-2--3-2-----------------------------------------|
A|3-3--3-3--3-3-----3-3--3-3--3-3-----------------------------------------|
F|2-2--2-2--2-2-----2-2--2-2--2-2-----------2p0---------------------------|
C|0-0--0-0--0-0-----0-0--0-0--0-0---------------------0-------0-----------|
G|------------------------------------0-2-3-----3p0-3---0---3---0---------|
D|------------------------------------------------------------------------|