Tag: Silence

Sound Of Silence chords – Disturbed

 Here is Disturbed's version of the timeless classic from Simon & Garfunkel from the new album "Immortalized"
 

 F#m E 
   Hello darkness, my old friend,
                            F#m 
I've come to talk with you again,
                      D A 
Because a vision softly creeping,
                         D A 
Left it's seeds while I was sleeping,
              D A 
And the vision that was planted in my brain
         F#m 
Still remains
            E F#m 
Within the sound of silence.

                             E 
In restless dreams I walked alone
                        F#m 
Narrow streets of cobblestone,
                   D A 
'neath the halo of a street lamp,
                           D A 
I turned my collar to the cold and damp
         D A 
When my eyes were s the flash of a neon light
                F#m 
That split the night
                 E F#m 
And touched the sound of silence.

                          E 
And in the naked light I saw
                            F#m 
Ten thousand people, maybe more.
                    D A 
People talking without speaking,
                    D A 
People hearing without listening,
                D A 
People writing songs that voices never share
            F#m 
And no one dare
             E F#m 
Disturb the sound of silence.


                          E 
Fools said i, you do not know
                       F#m 
Silence like a cancer grows.
                      D A 
Hear my words that I might teach you,
             D A 
Take my arms that I might reach you.
        D A 
But my words like silent raindrops fell,

And echoed
        E F#m 
In the wells of silence


                          E 
And the people bowed and prayed
                      F#m 
To the neon God they made.
                          D A 
And the sign flashed out it's warning,
                       D A 
In the words that it was forming.
                        D 
And the sign said, the words of the prophets


        F#m A 
Are written on the subway walls
              A 
And tenement halls.
                      E F#m 
And whisper'd in the sounds of silence.

Wall Of Silence chords – Chris De Burgh

 Chris de Burgh - Wall of Silence
From the  Eastern Wind (1980)
Comment for any corrections and please rate


Intro:  Bm G Bm 
Hollywood is such a dream,
                                       G 
And when you're only seventeen, it's wonderful,
    Bm 
A movie man said she could be a star,
                       G 
A beauty queen, or a cover girl,
        A F# Bm 
She believes and packs up her things,
          G A Bm 
And the wall of silence begins,

 Bm 
Every night was party night,
                                 G 
She was everyone's delight, he let her stay,
       Bm          
And when he'd had enough, he threw her out,
                           G 
And she found work in a small cafe,
           A F# Bm 
When she called they put her on hold,
          G A Bm 
And the wall of silence grows,

    G A Bm G A Bm G A Bm G A F#m 
Give me a break,
  F#m 
Give me a break,
   G 
This is Hollywood,
 F#m 
Open the door,
 F#m Bm A 
Open the door,
   E G A 
What am I going to do,
                         Bm A 
And when the money runs out,
                      E 
And there isn't any doubt,
            G A D G Dsus4 G A Bm 
That I'll have nowhere to go,

  Bm 
Hollywood is just a dream,
                                       G Bm G 
But when you're only seventeen, it's magical,
   Bm  
She went home to hide away,
                                         G 
She wore her sadness like a veil, and closed the door,
           A F# Bm 
Till the day she smiles and recalls,
          G A Bm G Bm A E G A Bm 
And the wall of silence falls...

Gravel Interlude Tabs by Mixtapes

 Mixtapes
Gravel (Interlude)
Ordinary Silence

E---------------------------------|-3~
B---------------------------------|-3~
G-----0-------0-------0-------0---|-0~
D---0---0---0---0---0-------0---0-|---
A-2-------3-------0---------------|---
E-----------------------3---------|---

we used to ride our bikes through that old subdivision
when it wasn't yet built we would waste our days
now it's all built up and the houses look the same
but honestly i think that's ok
and if the rain comes down i won't be whining
i can stay inside with the windows open
we can go outside and look up to the sky
sometimes i'm just happy that i'm alive
sometimes i'm just happy that i'm alive

Questions?
Email at cory.roesch

In The Silence chords – Asgeir

 In The silence
Ásgeir

 Vincent Castonguay


 D D 
Come, take my hand
 D 
Let's undo the knots of the past
          Em Bm 
From the night where phantoms toss and turn,
             G D Bm A 
go further, deeper as the day is closing


 D D 
Soft and fragile
 D 
There is grace in the dead of silence
       Em Bm 
As we dream gentle hands are shaping,
          G D Bm A 
further, higher as the new day enters


 D A D 
  Watch the mind run far away,
 G Bm 
way ahead of us
          D G D 
and everything that will be and was
 F# Bm G D 
here           and now


 D D 
We opened the door
 D 
Found a way, we hadn't seen before
         Em Bm 
Found a reality that shields us and clothes us,
          G D Bm A 
makes us hungry for things the day can offer


 D A D 
  Watch the mind run far away,
 G Bm 
way ahead of us
          D G D 
and everything that will be and was
 F# Bm G D 
here       and now


 D D Em Bm G D Bm A D A D 
  Watch the mind run far away,
 G Bm 
way ahead of us
          D G D 
and everything that will be and was
 F# Bm G D 
here       and now

Beautiful Nightmare chords – Skylar Grey

 Intro:  F#m ,  D ,  A ,  E 

Verse 1
            F#m 
I can't let go
                       D 
I'm addicted to your torture
                        A 
I'm a prisoner to the pain
                               E 
Although you're gone all the misery remains

          F#m 
I did my best
                        D 
Everyday just keeping busy
                        A 
To avoid the ghost of you
                           E 
But when I rest there is nothing I can do

Chorus
                         F#m  
My eyes are closing and I'm scared
                D 
Cause I only dream of you
                     A 
You're a beautiful nightmare
                  E 
And nothing can wake me up from you

Verse 2
            F#m 
I gave you love
                         D 
Gave you everything you asked for
                     A 
And this is what I get
                   E 
The silence only fills my head with noise

          F#m 
I did my best
                        D 
Everyday just keeping busy
                        A 
To avoid the ghost of you
                           E 
But when I rest there is nothing I can do

Chorus
                         F#m  
My eyes are closing and I'm scared
                D 
Cause I only dream of you
                     A 
You're a beautiful nightmare
                  E 
And nothing can wake me up from you

Outro
            F#m 
Beautiful nightmare
            D 
Beautiful nightmare
                     A 
You're a beautiful nightmare
                     E 
You're a beautiful nightmare

Pillow Of Your Bones chords – Chris Cornell

 -------------------------------------------------------------------------------
                             Pillow of Your Bones - Chris Cornell
-------------------------------------------------------------------------------

: Jones Perry
Intro riff by jjhand

Intro Riff (play 2x):
e|----------------------|--------------------------|
B|----------------------|--------------------------|
G|-5--5p3-----3---3-5-3-|------------5-------------|
D|-5--5---5---4---4____-|-3h4p3---------4--3-------|
A|-3--3____---3---3____-|------6--3-----------6--3-|
E|----------------------|--------------------------|


 Cm G# G F# F 
The embers of the saint inside of you

 Cm G# G F# F            
Are growing as I'm bathing in your glow

 Cm G# G F# F 
I'm swallowing the poison of your flower

 Cm G# G F# F 
And hanging on the rising of my low



 B A# B 
Colorful and falling from your mouth

                A# B 
Like a painted fever in recoil

                         D#m 
Like a lie without the pain



      D D#m 
On a pillow of your bones

        D F#       
I will lay across the stones

         Bm A#                   
Of your shore until the tide comes crawling

 D#m D D#m 
Throw my pillow on the fire

         D F#       
Make my bed under the eye

         Bm A# Cm  (intro riff)
Of your moon until the tide comes crawling back



 Cm G# G F# F 
A waning hand on silver granite waves

 Cm G# G F# F 
Will mend my broken limbs and bend my haze

 Cm G# G F# F 
I'm sleeping in the silence of your voice

 Cm G# G F# F 
I'm cradling the peril of my only choice



 B A# B 
Colorful and falling from your mouth

                A# B 
Like a painted fever in recoil

                         D#m 
Like a lie without the pain



      D D#m 
On a pillow of your bones

        D F#       
I will lay across the stones

         Bm A#                   
Of your shore until the tide comes crawling

 D#m D D#m 
Throw my pillow on the fire

         D F#       
Make my bed under the eye

         Bm A# Cm   
Of your moon until the tide comes crawling back



 B A# D#m Dm C#m B 
Even though the truth can burn inside or fall behind

        A# D#m Dm 
I will wander through your open mind

     C#m B A# D#m     
And you will find no lie can hide

 D D#m D F# Bm 
              Yeah...

           A# D#m 
Until the tide comes crawling



      D D#m 
On a pillow of your bones

        D F#       
I will lay across the stones

         Bm A#                   
Of your s

Cloud Factory chords – Sonata Arctica

 CLOUD FACTORY - Sonata Arctica
Acoustic version by sinForge xJp
Standard Tuning (EADGBe)
This is NOT based on an acoustic performance/recording!!


Recommended hord positions

   V E R S E  &  C H O R U S  |     K E Y   C H A N G E
e|--4--------2-7---2---0---4--|--3---1-6---4---1---1---6---------|
B|--4--------4-7---2---0---5--|--4---3-6---4---1---1---8---5-----|
G|--4---6----4-8---3---1---6--|--5---3-7---5---1---2---8---7-----|
D|--6---8----4-9---4---2---6--|--5---3-8---6---3---3---8---8-----|
A|--6---9----2-9---4---2---4--|--3---1-8---6---3---3---6---5-----|
E|--4---6------7---2---0------|------6-----4---1---1-------------|
    G#m F#/A# B F# E C#m Cm Bb Ab Fm F Eb Bb/D G#m                                                            
For every child there dawns the day   
 F#/A# B F# 
 They wonder from where they come  
     G#m                          
Why is the sky so pink tonight?
 F#/A# B                        
  How fast do clouds fly by?
            E F# G#m 
And so you come up with stories you tell 
          C#m B E 
Eyes are o - pen wide
          F# B G#m  
When you tell them about the sky
     F# B G#m  
And all that beneath resides 


 F# B E 
There is a factory clouds are made in
 F# B E  
They make 'em big and blue
     F# B E 
The factory eats you, it swallows you whole
    C#m G#m C#m G#m  
It fills you with conceit and never lets you leave
    F# B E   
If you ever dream at the end of the day
      F# B E  
That you´re gonna live as a free man
 F# B E 
There's no hook, no sinker, no line
     C#m G#m C#m G#m  
And you will never leave the cloud factory


 G#m F#/A# B F# 
If you join the same brigade   I   did when I was young
 G#m F#/A# B                     
You will never see beyond  the  skyline of this town


         E F# G#m 
Take my word, my son and run
            C#m B E 
While your dreams fly free
           F# B G#m 
Have them write my story down
      F# B G#m  
Like silence breaking sound 


 F# B E 
There is a factory clouds are made in
 F# B E  
They make 'em big and blue
     F# B E 
The factory eats you, it swallows you whole
    C#m G#m C#m G#m  
It fills you with conceit and never lets you leave
    F# B E   
If you ever dream at the end of the day
      F# B E  
That you´re gonna live as a free man
 F# B E 
There's no hook, no sinker, no line
     C#m G#m C#m G#m  
And you will never leave the cloud factory


 Bb ...  Eb ...  Ab ..
 Bb ...  Eb ...  Ab ..
 Bb ...  Eb ...  A

Elevator Days Acoustic Tabs by Mixtapes

 Mixtapes
Elevator Days (Acoustic)
Ordinary Silence

Based on:


Guitar 1: Ryan Rockwell
Intro:
E-4-7-9----4-7-9-----|
B-------7--------7-5-|
G--------------------|
D--------------------|
A------(4x)----------|
E--------------------|

Verse:
E A B A 2X

Pre-Chorus:
E-------------------------------|
B-------------------------------|
G-8-9-8-9-6-8-6-8-4-6-4-6-2-4-2-|
D-------------------------------|
A-------------------------------|
E-------------------------------|

And other nights where I had...
A B E E 2X

Cause recklessly...
A C# E

Chorus:
E A B A 2X

Post-Chorus:
E-------------|
B-------------|
G-------------|
D--6-7--9-11--|
A-------------|
E-------------|

And other nights where I had...
A B E E 2X

Solo:
E-4-7-9-------4-7-9------12-11-12-11-12-11-12-11----------------------|
B-------7-7--7------7-5--------------------------12-12-12-12-12-12-12-|
G---------------------------------------------------------------------|
D---------------------------------------------------------------------|
A---------------------------------------------------------------------|
E---------------------------------------------------------------------|

E-12-14-16-14-12-----|-------12-14-16----12-14-16-21-21-21-21-21-|
B-----------------14-|-14-14----------14-------------------------|
G--------------------|-------------------------------------------|
D------(2X)----------|-------------------------------------------|
A--------------------|-------------------------------------------|
E--------------------|-------------------------------------------|

E



Guitar 2: Maura Weaver
Intro/Verse: I'm not discussing this now...
2nd time palm muted
E--(4x)--
B---------|
G-9-------|
D-9-7-9-7-|
A-7-7-9-7-|
E---5-7-5-|

Pre-Chorus: And other nights where I had...
E-(16x)-|--------(2x)---------|
B-------|---------------------|
G---9---|-----99------99------|
D---9---|-7-9-99-6976-99-6976-|
A---7---|-7-9-77------77------|
E-------|-5-7-----------------|

This whole discussion and talk
3 & 4th time palm muted
E--(4x)--
B---------|
G-9-------|
D-9-7-9-7-|
A-7-7-9-7-|
E---5-7-5-|

And other nights where I had...
E--(2x)--
B---------|
G-----9-9-|
D-7-9-9-9-|
A-7-9-7-7-|
E-5-7-----|

Solo...     I'm really working on me
E--(2x)---|----|
B---------|----|
G-9-------|-9~-|
D-9-7-9-7-|-9~-|
A-7-7-9-7-|-7~-|
E---5-7-5-|----|

Questions?
Email at cory.roesch

Tough Luck chords – Nina Nesbitt

 This may be completely incorrect but it's a start so


Capo4

Intro

      D Em D Em 

e|-------2-------5-----2---0-----2-------5-----2---0--|
B|----3-------3-----3------0----3-------3-----3----0--|
G|--2------2------2--------0--2------2------2------0--|
D|-------------------------2-----------------------2--|
A|-------------------------2-----------------------2--|
E|-------------------------0-----------------------0--|



     Em G 
She puts her pen to paper
     Em G 
Lines across their hearts
     Em G 
You did it all to erase her
     Em G 
You left her standing in the dark


     Em G 
This time she’s praying for silence

     Em G 
Hoping that you would understand

     Em G 
She’s just building these roadworks

     Em G 
So it’s clearer when they land


     Em A Bm 
You can’t still own what you let go
     Em A G 
What don’t you understand?


[CHORUS]

 Bm G D A 
Tough luck I said I’d be here in a month but you waited two

 Bm G D A 
Only coming back ‘round because you heard I was with someone new

 Bm G 
And I was waiting here till you came back
 D A 
My heart was bleeding black
 Em Bm 
It’s tough love that I’m giving you, 
 Em Bm 
it’s tough luck on you

He asked a question, she answers
He made a crossword spelling guilt
Empty boxes filled with chances
But you just can’t leave the rose to wilt

You can’t still own what you let go
What don’t you understand?

[CHORUS] x2

The Epilogue chords – Crosses

 Artist: Crosses
Title: The Epilogue
 Crosses
: Nick

Tuning: Standard

[Intro]
 F#m ,  D ,  A F#m ,  D ,  A 


[Verse]
        F#m D 
It's a strange day
     A 
The roses are in bloom
          F#m D 
But in a strange way
   A 
I know somehow we're doomed


[Pre-Chorus]
 Bm 
I Look around, through the town
       D 
Not a soul to be found
            A 
In silence, not a sound
         A 
There's no one around but you
 Bm D 
In the back of the car, on the way from the bar
           Em 
In silence, here we are
   G E 
Reminding us how we're doomed


[Chorus]
          Bm Dsus2 
Well get set, it's time we've come to the end
       A E 
We've circled around our doom
              Bm Dsus2 
And, I won't stop, not 'til I get what I want
     A 
And all that I want is you


[Verse]
      F#m D 
In a strange place
          A 
When the sun goes down we move
        F#m D 
Into a strange phase
                A 
Like we've got nothing left to lose


[Pre-Chorus]
 Bm D 
So we slip through the town, with our heads in the clouds
            A 
In silence, not a sound
     A 
For miles and miles around
 Bm D 
Fall asleep in the park, underneath all the stars
           Em 
In silence, here we are
   G E 
Reminding of how we're doomed


[Chorus]
     Bm Dsus2 
Get set, it's time we come to the end
       A E 
We've circled around our doom
               Bm Dsus2 
Yeah, I won't stop, not 'til I get what I want
     A 
And all that I want is you


[Solo]
 Dsus2 ,  E ,  Asus2 
                 Is you
 Dsus2 ,  E ,  Asus2 
            All that I want is you
 Dsus2 ,  E ,  Asus2 
                 Yeah you
 Dsus2 ,  E ,  Asus2 
            All that I want is you

 A ,  B A ,  B  (hold)
 E 


[Chorus/End]
        Bm Dsus2 
So get set, it's time we come to the end
       A E 
We've circled around our doom
               Bm Dsus2 
Yeah, I won't stop, not 'til I get what I want
     A E 
And all that I want is you
         Bm Dsus2 
Now get set, it's time we come to the end
       A E 
We've circled around our doom
               Bm Dsus2 
Yeah, I won't stop, not 'til I get what I want
     A 
And all that I want is you

All For What chords – A Broken Silence

 Intro:  Abm - Abm -
 E - F# - Abm - B - E - F# -
 Abm - Abm -

VERSE 1
 Abm 
He wasnt born to privilege, but he was born to scrimmage, 
      E F# 
Realised to this world, there was more than image. 
Knew to succeed, you must ignore your critics. 
Loved his music, but deplored the business. 
Now, you can sell your soul and get scores of riches, 
But in the end result, youll be torn and twisted. 
Lived to the fullest, thought he saw his limits, 
Stayed on his principles, was to hardcore to pivot. 
Living to rhyme, but later driven to crime, 
So cool, most would of thought he aint sinned in his life, 
Things changed, at the blink of an eye, when he mentioned, 
‘I just got to do a thing for this guy’ said, 
‘Im choked’, looking at his kid, flat broke, 
Five years down the track, wish he hid, 
That dope, his pops always spoke about not mixing with bad folk, 
Now they pulled him from a river, just to give him a tagged toe.
 Abm -

CHORUS
 E 
Rob for the money, steal for the money!
 F# 
Man, I got to get them dollar bills for my honey!
          Abm 
Should I rob for the money, steal for the money!
     B 
Do deals for the money, look, chill for me honey!
          E 
Should I rob for the money, steal for the money!
        F# 
Got to get them dollar bills, for my honey! 
          Abm 
Should I rob for the money, steal for the money!
     Abm 
Do deals for the money, look, chill for me honey!
 E F# 
Life can be funny!   Bro, that boy got killed, killed for the...

VERSE 2
A once disciplined kid became inflicted within, 
Stricken with the sickness, of living for friends.
Bad habits of drinking didnt pay dividends, 
Wife gave him the ultimatum: leave or make ends.
Meet, so for a while, he lived in deceit,
Started making that money pile, without bringing receipts.
Mrs is all smiles, thinking its sweet, 
While his palms are sweaty, heart skipping a beat.
Till a night, he got drunk and started wetting his beak,
Dipped up in his mix, he aint slept in a week.
A once strong figure, got swept off his feet,
Said, ‘Im in hot water’, and I guess it was deep.
Said now, ‘Im probably safer in a cell than the street’.
A week later he knew how well he’d foreseen,
Selling to some D’s, then he gave up his team,
His crew found him, took his life just to pay for his deeds.

CHORUS

BRIDGE (2x)
 Abm E 
Everyday’s a trial we facing, pictures in my mind retracing.
 B Db 
Everyday’s a trial we facing, pictures in my mind retracing.

CHORUS

Official website of the  http://www.abrokensilencemusic.com/

Enjoy The Silence Tabs by Easyworld

 Enjoy the Silence (cover)


Verse 1

Cmin
Words like violence
Ebmin
Break the silence
G#
Come crashing in
Into my little world
Cmin
Painful to me
Ebmin
Pierce right through me
G#
Can't you understand
Oh my little girl


Chorus

Fmin
All I ever wanted
G#
All I ever needed
Cmin            Bb
Is here in my arms
Fmin
Words are very
G#
unnecessary
Cmin                    B
They can only do harm


Verse 2 (same as verse one)

G-5-7-8-10---3-5-7-8-8/10\8---|
D----------6----------------6-|
A-3-5-6-8--6-1-3-5-6-6/8 \6-6-|
E----------4----------------4-|

Vows are spoken
To be broken
Feelings are intense
Words are trivial
Pleasures remain
So does the pain
Words are meaningless
And forgettable


Repeat Chorus


Solo

e--------------------------------|
B--------------------------------|
G-10-12-13-----------------------|
D----------13-6-10-13-6-10-12-13-|
A-8--10-11-----------------------|
E----------11-4-8--11-4-8--10-11-|

e---------------------------|
B---------------------------|
G-10-12-13------------10-12-|
D----------13-6-10-13-------|
A-8--10-11------------8--10-|
E----------11-4-8--11-------|


Repeat Chorus


Cmin            Ebmin   G#
Enjoy the silence

Eyes Sewn Shut Tabs by Suicide Silence V3

 Tuning: AEADGB

. = Palm mute
b = bend
AH= artificial harmonic


Intro:

B|------------------------------------------------------|-
G|------------------------------------------------------|--
D|------------------------------------------------------|---
A|------------------------------------------------------|----x4
E|-333333------------------333333-------444444----------|---
A|-------2-1-0-2-1-0-2-1-0--------2-1-0--------2-1-0----|--
         . . . . . . . . .        . . .        . . .


0:13

B|------------------------------------------------------|-
G|------------------------------------------------------|--
D|------------------------------------------------------|---
A|------------------------------------------------------|----
E|-------------------------------------222233336666-----|---
A|-6-5-3-6-5-3-5-3-2-5-3-2-6-5-3-6-5-3------------------|--
   . . . . . . . . . . . . . . . . . .

                                                          2ndEnd:
B|------------------------------------------------------|-----------|-
G|------------------------------------------------------|-----------|--
D|------------------------------------------------------|-----------|---
A|------------------------------------------------------|-6--2--3---|----Repeat twice
E|------------------------------------------------------|-6--2--3---|---
A|-6-5-3-6-5-3-5-3-2-5-3-2-6-5-3-6-5-3-666622223333-----|-6--2--3---|--
   . . . . . . . . . . . . . . . . . .                    .  .  .



0:26
B|-------------------------|-------------------------------------|-
G|-------------------------|-------------------------------------|--
D|-------------------------|-------------------------------------|---
A|-------------------------|[x3] then----------------------------|----
E|-------------------------|----------------------222233336666---|---
A|-6-5-3-6-5-3-5-3-2-5-3-2-|----------6-5-3-6-5-3----------------|--
   . . . . . . . . . . . .            . . . . . .

B|-------------------------|-------------------------------|-
G|-------------------------|-------------------------------|--
D|-------------------------|-------------------------------|---
A|-------------------------|[x3] then-6--2--3--------------|----
E|-------------------------|----------6--2--3--------------|---
A|-6-5-3-6-5-3-5-3-2-5-3-2-|----------6--2--3--------------|--
   . . . . . . . . . . . .            .  .  . 


0:39
B|---------------------------------------------------------|---------|-
G|---------------------------------------------------------|---------|--
D|---------------------------------------------------------|---------|---
A|---------------------------------------------------x4----|----2----|----
E|-333333------------------333333-------444444-------------|----2----|---
A|-------2-1-0-2-1-0-2-1-0--------2-1-0--------2-1-0-------|----2----|--
         . . . . . . . . .        . . .        . . .            .


Breakdown:

0:54
B|------------------------------------------------------|-
G|------------------------------------------------------|--
D|------------------------------------------------------|---
A|-6--2-3-5--2-3-------6--2-3-5--2----------------------|----x2
E|-6--2-3-5--2-3-[x3]--6--2-3-5--2-2bAH-----------------|---
A|-6--2-3-5--2-3-------6--2-3-5--2----------------------|--
   .  . . .  . .       .  . . .  .


1:12
B|------------------------------------------------------|-
G|------------------------------------------------------|--
D|------------------------------------------------------|---
A|------------------------------------------------------|----
E|-------------------------------------222233336666-----|---
A|-6-5-3-6-5-3-5-3-2-5-3-2-6-5-3-6-5-3------------------|--
   . . . . . . . . . . . . . . . . . .

                                                        2ndEnd:
B|---------------------------------------------------|-----------|-
G|----------------------------------------

In The Silence chords – Praise And Worship

 -------------------------------------------------------------------------
                        In the Silence
-------------------------------------------------------------------------

 ***************************************************************
 *     "markchordz" 6 Years in the road(UG)                    *
 * Thanks for supporting my tabs here in Ultimate-guitar.com   * 
 ***************************************************************


************************************************************************** 
*Read first: Pls Rate, leave some comments and be sure that your         *
* guitar "tune" well before playing this song..                          *
*                                                                        *
*            All Rights Reserved © Copyright 2014                        *
**************************************************************************


 Dm9 Dm9 C 
In the silence of you majesty

  Dm9 C 
In the splendor of your holiness

  Dm9 C 
In the stillness of your glory


  Em D C 
Let me hear your voice

  Em D C D 
The gentle whisper of your voice


Chorus:

   G Am     
Father I long to stand before you
   Em C 
and lay my life before you

   G D C 
I come to worship you alone
       D 
oh my God

   G Am   
I reach my hands toward you
   Em C G 
With all my heart adore you

  Em D C  
Let me hear your voice

 
 Dm9 C 
With the power of your presence

  Dm9 C 
And your beauty all around me

  Dm9 C 
As the heaven stand in awe of you

  Em D C 
LEt me hear your voice

  Em D C D 
The gentle whisper of your voice

Social Silence Tabs by Washya

 -----------------------------------------------------------------------------
                                Social Silence - Washya
-----------------------------------------------------------------------------
Tuning: Drop B (BF#BEG#C#)
Intro
B|------------------------------------|
F#|-----------------------------------|
B|------------------------------------|
E|------------------------------------|
G#|--------5b*--------------7b*-------|
C#|-00-000-----0h3p0-00-000-----0h3p0-|x3

Part 2
B|----------------------------------------|
F#|---------------------------------------|
B|----------------------------------------|
E|-----------3333---------------5555------|
G#|-55556666------1111/55556666------3333-|
C#|----------------------------------3333-|x3
PM  ******** **** **** ******** **** **** 

Verses
B|-------------|   |---------------|
F#|------------|   |---------------|
B|-------------|   |---------------|
E|--------7/10-|   |---------------|
G#|-5-5/6-5/8--|   |-5-6-8-3-5-6-1-|
C#|-5-5/6------|x3 |-5-6-8-3-5-6-1-|
                  PM * *   * * * 

Chorus
B|-----------------------------------------------------------|
F#|----------------------------------------------------------|
B|-----------------------------------------------------------|
E|--------------------55555555-88888888-----------555--------|
G#|-55555555-11111111-33333333-66666666-66-666666-333-3333/6-|
C#|-55555555-11111111-------------------66-666666-----3333/6-|
PM                                         ******

Solo
B|-----------------------------------------------------------------16---17~-|
F#|-------------------------------------------------------12-13-15---15-----|
B|------------------------------------------------9-11-13-------------------|
E|--------------------7-8-10--------7-8-10-7-8-10---------------------------|
G#|-------5-7-8-5-7-8--------7-8-10-----------------------------------------|
C#|-5-7-8-------------------------------------------------------------------|
PM  * * * * * * 

B|--17-15-14----14h17p14h17p14-------------16-------16--------15-------17~-|
F#|----------15----------------15h17p15p14----17p14----17p14-----14p12-----|
B|-------------------------------------------------------------------------|
E|-------------------------------------------------------------------------|
G#|------------------------------------------------------------------------|
C#|------------------------------------------------------------------------|

Verses
B|-------------|   |---------------|
F#|------------|   |---------------|
B|-------------|   |---------------|
E|--------7/10-|   |---------------|
G#|-5-5/6-5/8--|   |-5-6-8-3-5-6-1-|
C#|-5-5/6------|x3 |-5-6-8-3-5-6-1-|
                  PM * *   * * * 

Chorus
B|-----------------------------------------------------------|
F#|----------------------------------------------------------|
B|-----------------------------------------------------------|
E|--------------------55555555-88888888-----------555--------|
G#|-55555555-11111111-33333333-66666666-66-666666-333-3333/6-|
C#|-55555555-11111111-------------------66-666666-----3333/6-|
PM                                         ******

Let All Mortal Flesh Keep Silence chords – Public Domain

 LET ALL MORTAL FLESH KEEP SILENCE
Real Key (F)

Guitar: Capo 5

 Am G Am Gm F Esus E 
Let all mortal flesh keep silence, And with fear and trembling stand;
 F Am G Am Gm F Esus E 
Ponder nothing earthly minded, For with blessing in His hand,
 A Dm Am G F Dm G Am 
Christ our God to earth descendeth, Our full homage to demand.

 Am G Am Gm F Esus E 
King of kings, yet born of Mary, As of old on earth He stood,
 F Am G Am Gm F Esus E 
Lord of lords, in human vesture, In the body and the blood;
 A Dm Am G F Dm G Am 
He will give to all the faithful His own self for heavenly food.

 Am G Am Gm F Esus E 
Rank on rank the host of heaven Spreads its vanguard on the way,
 F Am G Am Gm F Esus E 
As the Light of light descendeth From the realms of endless day,
 A Dm Am G F Dm G Am 
That the powers of hell may vanish As the darkness clears away.

 Am G Am Gm F Esus E 
At His feet the six wingèd seraph, Cherubim with sleepless eye,
 F Am G Am Gm F Esus E 
Veil their faces to the presence, As with ceaseless voice they cry:
 A Dm Am G F Dm G Am 
Alleluia, Al  -  le - lu  -  ia,               Alleluia, Lord Most High!

Rooftops Chords – Mest

 Mest
Rooftops
Submitted by: jeremyunderground41@yahoo.com

Key: E

Tuning: Standard EADGBE

Chords used:
 E  -    022100
 B  -    x24442
 C#m  -  x46654
 A  -    x02220
 F#m  -  244222
 G#m  -  466444
 B/Eb  - x698xx


Intro:  E - F#m - G#m - A - x2


Verse 1:
  E 
Staring at the
broke street light
Some of those
lonely nights
   C#m 
I didn't know if we
               B 
would make it through
  E 
Staying up until 5 AM
Watching the sun come up again
     C#m A B 
I'd do it all again if i could


Refrain 1:
 F#m 
   So if I call will 
        G#m 
you be there?
 A 
   I miss the nights
            B 
we used to share


Chorus 1:
 E 
Up on the rooftop
Listening to punk rock
 A 
Nobody believed that
This could be our one shot
 G#m A B 
That was all we had
     E 
The nights that we wasted
Got us through the days
      A 
that Seemed never ending
Always in a haze but
 C#m B A 
We just didn't care
    C#m B A (hold)
No we just didn't care


Verse 2:
     E 
The only place 
that we could go
Staring at a world
we didn't know
 C#m B 
Wondering if this was all we had
 E 
40 ounce intoxicated dreams
All our faded memories
 C#m 
That's what made us 
 A B 
who we are today


Refrain 2:
 F#m 
   So if I call will 
        G#m 
you be there?
(If I call will
you be there?)
 A 
   I miss the nights
            B 
we used to share


Chorus 2:
 E 
Up on the rooftop
Listening to punk rock
 A 
Nobody believed that
This could be our one shot
 G#m A B 
That was all we had
     E 
The nights that we wasted
Got us through the days
      A 
that Seemed never ending
Always in a haze but
 C#m B A 
We just didn't care
    C#m B A --
No we just didn't care


Interlude:  E -- B -- A -- B - A - B - A -

Silence:  E - B/Eb - A --


Bridge:
           E 
All these nights
       B/Eb 
Left alone
              A 
Is what made us
           E 
All these nights
       B/Eb 
Left alone
              A 
Is what made us
      A 
What made us


Chorus 3:
 E 
Up on the rooftop

Listening to punk rock
 F#m 
Nobody believed that
This could be our one 
      G#m A - A - A -(hold)
shot That was all we had


Chorus 3:
 E 
Up on the rooftop
Listening to punk rock
 A 
Nobody believed that
This could be our one shot
 G#m A B 
That was all we had
     E 
The nights that we wasted
Got us through the days
      A 
that Seemed never ending
Always in a haze but
 C#m B A 
We just didn't care
    C#m B/Eb A --  E - B - C#m - A (Hold)
No we just didn't care

Aces Up Chords – Mxpx

 MXPX
Aces Up
Plans Within Plans
2012 Fat Wreck Chords
Submitted by: jeremyunderground41@yahoo.com

Key: F#, G#

Tuning: Standard EADGBe

Chords used
 F#  -  244322
 C#  -  x46664
 Ebm  - x68876
 B  -   x24442
 G#m  - 466444
 Bbm  - x13321
 G#  -  466544
 Eb  -  x68886


Intro:  F# - C# - B - F# - C# - x4


Verse 1:
        F# 
If you push yourself 
                C# 
away from everyone you
      G#m 
know How do you expect 
         B 
relationships to grow
 F# 
You feel like a 
             C# 
character inside a book
      G#m 
That ends in a disaster
    B 
No happy ever 
 C# F# 
after No no


Chorus 1:
 B F# 
    Just deal the cards 
 B F# 
    and hope that you get aces
 B F# 
    And when you play your hand 
 B F# 
    put on your poker faces
 B Ebm C# 
     Cause life just don't deal aces
         F# Bbm B 
You may have to bluff sometimes
         F# Bbm B F# - C# - B - F# - C# -
You may have to bluff sometimes


Verse 2:
     F# 
The youngest brightest minds
              C# 
can't figure out the cause
          G#m 
Of our incurable unhappiness
     B 
and all our flaws
     F#  
Our mass has reached passed
             C# 
critical to obvious
   G#m 
I beg you I beseech
         B 
you But I can't seem
    C# F# 
to reach you No no


Chorus 2:
 B F# 
    Just deal the cards 
 B F# 
    and hope that you get aces
 B F# 
    And when you play your hand 
 B F# 
    put on your poker faces
 B Ebm C# 
     Cause life just don't deal aces
         F# Bbm B 
You may have to bluff sometimes
         F# Bbm B 
You may have to bluff sometimes


Bridge: 

Silence:
 F# G#m B 
Don't give up on us
 F# G#m B 
Stand and fight as one

Distortion:
 F# G#m B 
Don't give up on us
 F# G#m B 
Stand and fight as one


Outro: 
 F# - C# - B - F# - C# - x2
 G# - Eb - C# - G# - Eb - x2,  Eb --(hold)

Something Beautiful Tabs by Newsboys V4

 Song: Something Beautiful
Album: Go
Artist: Newsboys

Tuning: EADGBe(standard)

Each dash mark indicates one beat. At the end of the last 1, repeat to the first 3.
Repeat this six times. Then go down to the chorus, where chords are used.

First verse:
I wanna start it over, I wanna start again
I want a new beginning, one without an end
I feel it inside, calling out to me

A]--------------------------------33333----------[
E]-------------------------------------3311111111[

Chorus:
C
---It's a voice that whispers my name

Am                         G
---It's a kiss without any shame

          F          G     F
Something beautiful, yeah, yeah

C
---Like a song that stirs in my head

Am                           G
---Singing love will take us where

            F
Something's beautiful


The next part resembles the beginning, but is not the same.

Second verse:
I've heard it in the silence, seen it on a face

                                            C
I've felt it in a long hour, like a sweet embrace

  F                       G
I know this is true, It's calling out to me


e]-------------------------------------------------------------|
B]----1-----------------------------1--------------------------|
G]-------------------------------------------------------------|
D]-------------------2-----------------------------2-----------|
A]3333-33--------3333-33--------3333-33--------3333-33---------|
E]-------11111111-------11111111-------11111111-------11111111-|

Chorus:
C
---It's a voice that whispers my name

Am                         G
---It's a kiss without any shame

          F          G     F
Something beautiful, yeah, yeah

C
---Like a song that stirs in my head

Am                           G
---Singing love will take us where

            F
Something's beautiful


Instrumental solo:
Shift from first position to seventh position, using the G and B strings only.
Fingers one and three are used on the G string, on the 7th and 9th frets.
Fingers two and four are used on the B string, on the 8th and 10th frets.
In summary, the instrumental solo is quite simple, using only four notes.

B]-------2444224--------------24224------------2444224--------------24224---[
G]1313131-------133--131313131-----133--1313131-------133--131313131-----133[


Bridge:

C                             Am                                 G
It's the child on her wedding day, It's the daddy that gives her away

          F          G     F
Something beautiful, yeah, yeah

C                         Am                                G
When we laugh so hard, we cry, Oh, the love between you and I

          F
Something beautiful


Chorus:

C
---It's a voice that whispers my name

Am
---It's a kiss without any shame

          F          G     F
Something beautiful, yeah, yeah

C
---Like a song that stirs in my head

Am                           G
---Singing love will take us where

            F
Something's beautiful

C
---It's the child on her wedding day

Am                               G
---It's the daddy that gives her away

          F
Something beautiful

C
---When we laugh so hard, we cry

Am                               G
---Yes, the love between you and I

          F
Something beautiful


Ending:
Repeat eight times, and add an extra 3 on E or G Major chord for the finishing touches.

D]2-0--------[
A]----3-2-0--[
E]----------3[

I hope that you understand and learn to play this great song!
Play along with the recording to get the best out of it.
Feel free to rate and comment on this tab.

Face To Face Chords – Divided By Friday

 Divided by Friday
Face to Face
From "Prove It" - 2011
Chords by blackoctober119


Intro:  D - Bm - G Bm - A 


Verse:
 D 
You've been on my mind
      Bm 
So I said I'd find some time to let you know
 G 
I finally found it so
 Bm A 
Here goes nothing.
 D Bm 
I must admit I've lied
                       G 
But before I tell you why
                Bm A 
Please hear me out
            Bm A G 
You were a chance that I was too afraid of taking


Chorus:
         D 
This is it
         G 
This is all I have to say
   Bm F# 
I used to stay awake and wonder
 G 
Praying for the day when you would
 D 
Notice me but now I'm slowly
 G Bm 
Noticing that while you were my world
                 F# 
You weren't the one
            G A 
And now my searching days are done.


Verse:
           D Em 
You never said you cared for me
           Bm G 
You never told me anything
         D Em 
But the silence got me wondering
       Bm 
My curiosity
            G 
It got the best of me.
             Bm A G 
You got the best of me.


Chorus:
         D 
This is it
         G 
This is all I have to say
   Bm F# 
I used to stay awake and wonder
 G 
Praying for the day when you would
 D 
Notice me, but now I'm slowly
 G Bm 
Noticing that while you were my world
                 F# 
You weren't the one
            G A 
And now my searching days are done.


Bridge:
             Bm 
You are the one that got away
             A 
You are the one that I let go of
        F# 
I'm so glad you ran away
           G 
Because I know I never could've
Told you face to face
   Bm A 
I started thinking things were never gonna change
              F# G 
That I would never find someone 'cause it was far too late.
              Bm 
But then she showed up
            A 
When I was let down
           F# 
I felt my heart jump
               G 
She helped me up from the ground and said


Chorus:
         D 
This is it
         G 
This is all I have to say
   Bm F# 
I used to stay awake and wonder
 G D 
Praying for the day that I would find you
              G 
But now it's come true
       Bm F# 
And I swear I'm here to stay
            G A 
And if you left me I would say


Ending:
             Bm 
You are the one that got away
             A 
You are the one that I let go of
           F# 
So please never run away
           G 
Because I never want to say
             Bm 
You are the one that got away
             A 
You are the one that I let go of
           F# 
So please never run away
           G 
So please never run away
             Bm 
You are the one who got away
             A G 
You are the one, the only one I can't let go of.