Tag: Sin

Sin City chords – Flying Burrito Brothers

  
Use capo on 2nd fret 

Intro:  D A D D A  
This old town is filled with sin 
         D7 G  
It will swallow you in 
    D A A7  
If you've got some money to burn 
         D A  
Take it home right away 
 A D7 G  
You've got three years to pay 
     D A7 D D7  
But Satan is waiting his turn 
          G A7 D D7  
This old earthquake's gonna leave me in the poor house 
    G D A  
It seems like this whole town's insane 
        G A7 D D7 G  
On the thirty-first floor a gold plated door 
       D A7 D A  
Won't keep out the Lord's burning rain 
     D A  
The scientists say 
         D7 G  
It will all wash away 
     D A A7  
But we don't believe any more 
             D A  
Cause we've got our recruits 
         D7 G  
And our green mohair suits 
    D A7 D D7  
So please show your I.D. At the door 
          G A7 D D7  
This old earthquake's gonna leave me in the poor house 
    G D A7  
It seems like this whole town's insane 
        G A7 D D7 G  
On the thirty-first floor a gold plated door 
       D A7 D A  
Won't keep out the Lord's burning rain 


SOLO   

   D A  
A friend came around 
          D7 G  
Tried to clean up this town 
     D A A7  
His ideas made some people mad 
        D A  
But he trusted his crowd 
       D7 G  
So he spoke right out loud 
     D A7 D D7  
And they lost the best friend they had 
          G A7 D D7  
This old earthquake's gonna leave me in the poor house 
    G D A7  
It seems like this whole town's insane 
        G A7 D D7 G  
On the thirty-first floor a gold plated door 
       D A7 D D7  
Won't keep out the Lord's burning rain 
        G A7 D D7 G  
On the thirty-first floor a gold plated door 
       D A7 G D  
Won't keep out the Lord's burning rain

Slime And Oxygen chords – Black Lips

 Intro
e---------------------------|
b---------------------------|
g---------------------------|
d---------------------------|
a---2---2---2---2---2---2---|
e-0---0---0---0---0---0-----|

This basically turns into violent strumming of the E chord

Chords:  E A D G A D E A D 
I walked the path of million men
 G A D 
I gorge the belly I fight and sin
 E A D 
Battles in the Trojan War
 G A D 
I drink the wine and blood of before
 E A D 
A nimble skull will always crack
 G A D 
1000 year faithful attack
 E A D 
Will a coward die from calloused hands
 G A D 
3000 rationed spinach cans

 E A D 
owooohhhhhh
 G A D 
owooohhhhhh

 E A D 
Juggernaut will crush the bum
 G A D 
Combatant of the drunken slum
 E A D 
Gnawing on the greed of war

 E A D 
A giddy doctrine will not live
 G A D 
A pancake covered battle shield
 E A D 
Must condemn the weakling mind
 G A D 
For your book that must be bind

 E A D 
owooohhhhhh
 G A D 
owooohhhhhh

Tab By: Austin Wiseman

Bella Sin Alma chords – Ricardo Cocciante

 Esta si esta wena. Acordes y letra corregidos.
A ver si pueden cantarla. Es bien dificil hacerlo bien.
Saludos.

 C Fmaj7 C Fmaj7 
Ahora siéntate, allí frente a mi
 C Fmaj7 
escúchame muy bien
         Gsus4 G 
y sin interrumpir
          A#sus2 
hace ya tiempo que
           G Gsus4 G 
quería decírtelo
        C 
Tratar de convivir
    Fmaj7 C Fmaj7 
inútil resulto
           C Fmaj7 
todo sin alegría
          G Gsus4 G 
sin una lagrima
       A#sus2 
nada por agregar
         G Gsus4 G 
ni para dividir
                 F 
Tu trampa me atrapo
           C 
y yo también caí
                  A#sus2 
que pase el próximo
         G 
le dejo mi lugar
          Am 
Pobre del que vendrá
               G Gsus4 G 
que pena me da !

                C F 
Cuando en el cuarto el
          C F 
te pida mas y mas
             C F 
nada te costara
           G Gsus4 G 
se lo concederás
         A#sus2 
Como sabes fingir
            G Gsus4 G 
Se te dá cómodo

         C F 
Yo te conozco bien
           C F 
no sufro mas por ti
           C F 
y si vuelves a mi
          G Gsus4 G 
te lo demostraré
             Dm 
porque esta vez yo se
           G Gsus4 G 
No se te olvidará       (sube un tono a D)

            D G 
Y ahora desnúdate
          D G 
sabes hacerlo bien
          D G 
pero seguro estoy
             A Asus4 A 
que ya no caigo más
          C 
y te arrepentirás
            A Asus4 A 
cuerpo sin alma

Na,na,na,na,na,na...

Sin Miedo A Nada chords – Alex Ubago V2

 A# A#7 D# 
me muero por escucharte  decir las cosas que nunca digas, más
                Cm Fm 
me callo y te marchas, mantengo la esperanza
                     A# A#7 D# 
de ser capaz algún día,  de no esconder las heridas
          G G# A# D# Fm 
que me duelen al pensar que te voy queriendo cada día un poco más
                G# A# Cm 
Cuánto tiempo vamos a esperar
                   Cm Fm 
Me muero por abrazarte y que me abraces tan fuerte
                   A# A#7 D# 
me muero por divertirte   y que me beses cuando despierte
                  Cm Fm 
acomodado en tu pecho hasta que el sol aparezca
                         A# A#7 D# 
Me voy perdiendo en tu aroma,  me voy perdiendo en tus labios
         G G# A# D# Fm 
que se acercan susurrando palabras que llegan a este pobre corazón
                    G# D# Cm 
Voy sintiendo el fuego en mi interior

                   G# A# D# 
Me muero por conocerte, saber qué es lo que piensas
  G G# A# D# 
abrir todas tus puertas y vencer esas tormentas
            G G# 
que nos quieran abatir
                A# D# G G# 
Centrar en tus ojos mi mirada, cantar contigo al alba
   A# D# G G# 
besarnos hasta desgastarnos nuestros labios
   G# A# D# G G# 
Y ver en tu rostro cada día crecer esa semilla
    A# A#7 D# Fm G# A# Cm 
crear, soñar, dejar todo surgir, apartando el miedo, a sufrir

                   Cm Fm 
Me muero por explicarte lo que pasa por mi mente
                   A# A#7 
me muero por intrigarte
                   D# 
y seguir siendo capaz de sorprenderte
             Cm Fm 
Sentir cada día ese flechazo al verte
                      A# A#7 
qué más dará lo que digan
                       D# G G# 
qué más dará lo que piensen si estoy loco es cosa mía
             A# D# Fm 
Y ahora vuelvo a mirar el mundo a mi favor
                 G# A# Cm

A Direst Desire – His Salvation Is Sin Tabs

 -------------------------------------------------------------------------------
        HIS SALVATION IS SIN - a Direst Desire
-------------------------------------------------------------------------------
: Michael Beatson
 michaeljbeatson

Tuning: DGCFAd (Full Step Down)

Sounds a bit different to recorded track in places, this is how it's played live.


Intro: 

Guitar 1:
d|---------------------------------------------------------------------------|
A|---------------------------------------------------------------------------|
F|---------------------------------------------------------------------------|
C|---------------------------------------------------------------------------|
G|---------------------------------------------------------------------------|
D|-/12-0-0-000-10h12-00-8h10-10b10b10b----12-0-0-000-10h12-00-8h10-10b10b10b-|

d|---------------------------------------------------------------------------|
A|---------------------------------------------------------------------------|
F|---------------------------------------------------------------------------|
C|-1010101010101010101010101010101010--5555555555555555-7--777777------------|
G|-1010101010101010101010101010101010--5555555555555555-7--777777------------|
D|--8-8-8-8-8-8-8-8-8-8-8-8-8-8-8-8-8--3333333333333333-5--555555--0-2b--/---|


Guitar 2: Repeated

d|---------------101010-1212b12b1313r12---------------101010-1212b12b1313r12-|
A|-101010-121212------------------------101010-121212------------------------|
F|---------------------------------------------------------------------------|
C|---------------------------------------------------------------------------|
G|---------------------------------------------------------------------------|
D|---------------------------------------------------------------------------|


Verse 1:

Guitar 1: Palm Muted with stops in some parts

d|---------------------------------------------------------------------------|
A|---------------------------------------------------------------------------|
F|---------------------------------------------------------------------------|
C|---------------------------------------------------------------------------|
G|--222-2222-55555555-222-55555-000-55555------------------------------------|
D|--000-3333-77777777-333-77777-222-55555------------------------------------|


Pre Chorus:

Guitar 1: Same as Verse. PM'd

Guitar 2:

d|--------------------------------------------------------------5------------|
A|--787775777777777-787775777777777-787775777777777-787775777777-77----------|
F|---------------------------------------------------------------------------|
C|---------------------------------------------------------------------------|
G|---------------------------------------------------------------------------|
D|---------------------------------------------------------------------------|


Verse 2:

Guitar 1: Same as Verse. PM'd

Guitar 2: Same as Pre Chorus.


Pre Chorus 2:

Guitar 1: Same as Verse but open strumming.

Guitar 2: 

d|------------------------------5---------------7----------7--10--12---------|
A|--787775777777777-787775777777-77-787775777777-77-7877757-78--78--10-------|
F|---------------------------------------------------------------------------|
C|---------------------------------------------------------------------------|
G|---------------------------------------------------------------------------|
D|---------------------------------------------------------------------------|


Instrumental Break:

Guitar 1: x2

d|---------------------------------------------------------------------------|
A|--101010-1212121212b12b13131313r12--101010-1212121212b12b13131313r12-------|
F|---------------------------------------------------------------------------|
C|---------------------------------------------------------------------------|
G|--------

Sin Tu Amor chords – Los Freddys

 Gm G7 Cm D7 
Me he quedado sin tu amor
                Gm 
Me acompaña mi dolor
         G7 Cm D7 
Siento frío el corazón
                  Gm 
Me hace falta tu calor

         G7 Cm D7 
Es tan grande mi dolor
                  G 
Necesito de tu amor

 G Bm Am D7 
Recuerdo el primer día que te vi
    Am D7 G G7 
Sentí lo que jamás había sentido
    C Cm G 
Mi corazón cifró todo su anhelo
         Em Am D7 G G7 
Solo en ti amor mío nada más en ti

     C Cm G 
Mas nunca imaginó que sufriría
          Em Am 
Sin tu amor vida mía
      D7 G 
Hoy tengo que sufrir

 G#m G#7 C#m D#7 
Me he quedado sin tu amor
                G#m 
Me acompaña mi dolor
         G#7 C#m D#7 
Siento frío el corazón
                  G#m 
Me hace falta tu calor

         G#7 C#m D#7 
Es tan grande mi dolor
                  G# 
Necesito de tu amor

 G# Cm A#m D#7 
Recuerdo el primer día que te vi
    A#m D#7 G# G#7 
Sentí lo que jamás había sentido
    C# C#m G# 
Mi corazón cifró todo su anhelo
         Fm A#m D#7 G# G#7 
Solo en ti amor mío nada más en ti

     C# C#m G# 
Mas nunca imaginó que sufriría
          Fm A#m 
Sin tu amor vida mía
      D#7 G# 
Hoy tengo que sufrir

Sin From Genesis Tabs by Evangelion

 Sin From Genesis, by Shiro Sagisu - Evangelion 2.22: You Can (Not) Advance

e|--------------------------------------------------------------------------|
B|--------------------------------------------------------------------------|
G|--------------------------------------------------------------------------|
D|---------------------2-0-2-5-3-2-0-2--------------------------------------|
A|-3-2-0-2-5-3-2-0-2--------------------------------------------------------|
E|-------------------0-----------------0------------------------------------|

e|--------------------------------------12-10-12-15-13-12-10----------------|
B|-----------13-12-10-12-15-13-12-10-12----------------------12-------------|
G|-------9------------------------------------------------------------------|
D|---2-9--------------------------------------------------------------------|
A|-2------------------------------------------------------------------------|
E|--------------------------------------------------------------------------|

e|--------------------------------------------------------------------------|
B|--------------------------------------------------------------------------|
G|--------------------------------------------------------9-7-9-12-10-9-7-9-|
D|-------------------2-0-2-5-3-2-0-2-10-9-7-9-12-10-9-7-9-------------------|
A|-3-2-0-2-5-3-2-0-2--------------------------------------------------------|
E|--------------------------------------------------------------------------|

e|----------------------------12-10-12-15-13-12-10-12-12---12---19----------|
B|-13-12-10-12-15-13-12-10-12-----------------------------------------------|
G|--------------------------------------------------------------------------|
D|--------------------------------------------------------------------------|
A|--------------------------------------------------------------------------|
E|-----------------------------------------------------------------0--------|

e|--------------------------------------------------------------------------|
B|--------------------------------------------------------------------------|
G|--------------------------------------------------------------------------|
D|---------------------2-0-2-5-3-2-0-2--------------------------------------|
A|-3-2-0-2-5-3-2-0-2--------------------------------------------------------|
E|-------------------0-----------------0------------------------------------|

e|--------------------------------9-7-9-12-10-9-7---------------------------|
B|-----------10-9-7-9-12-10-9-7-9-----------------9-------------------------|
G|-------9------------------------------------------------------------------|
D|---2-9--------------------------------------------------------------------|
A|-2------------------------------------------------------------------------|
E|--------------------------------------------------------------------------|

e|--------------------------------------------------------------------------|
B|--------------------------------------------------------------------------|
G|--------------------------------------------------------9-7-9-12-10-9-7-9-|
D|-------------------2-0-2-5-3-2-0-2-10-9-7-9-12-10-9-7-9-------------------|
A|-3-2-0-2-5-3-2-0-2--------------------------------------------------------|
E|--------------------------------------------------------------------------|

e|--------------------------------------------------------------------------|
B|--------------------------------------------------------------------------|
G|--------------------------------------------------------------------------|
D|-10-10-10-10-10-10-10-10-10-10--------------------------------------------|
A|--------------------------------------------------------------------------|
E|--------------------------------------------------------------------------|

Marcha De Los Muertos Sin Ojos Tabs by Machetazo

   Machetazo
 Sinfonias Del Terror Ciego
Song:  MArcha De Los Muertos Sin Ojo

: Pablo1349


.  - palm mute           /  - slide up to
\  - slide down to       ~  - vibrato
h  - hammer on           b  - Bend
p  - pull off            Suffixes for bend
t  - tap                 f  - full bend    h - half bend
ph - pinched harmonic    q  - quarter bend t - tap bend
*  - see comment         ^  - Hold bend    r release bend
x  - Stuccatto           ~  - vibrato bend
,  - slight palm mute    () - ghost note, sustained note
"  - tremolo note          - Trill

Tuning B E A D F# B


Fade In
|--------------------------------------------------------------------|
|--------------------------------------------------------------------|
|--------------------------------------------------------------------|
|------------------------------4-5-------------------------------5-4-|
|-4-445-444-445-444-445-444-44-2-3--4-445-444-445-444-445-444-44-3-2-|
|-2-223-222-223-222-223-222-22------2-223-222-223-222-223-222-22-----|
  . ... ... ... ... ... ... ..      . ... ... ... ... ... ... ..


|---------------------------------|
|---------------------------------|
|---------------------------------|
|---------3-------7-------10--999-|
|-5-------1-------5-------8---777-|
|-3-------------------------------|
  "       "       "       "    Not a very fast tremolo picking here

|--------------------------------------------------------------------|
|--------------------------------------------------------------------|
|--------------------------------------------------------------------|
|------------------------------4-5-------------------------------5-4-|
|-4-445-444-445-444-445-444-44-2-3--4-445-444-445-444-445-444-44-3-2-|x2
|-2-223-222-223-222-223-222-22------2-223-222-223-222-223-222-22-----|
  . ... ... ... ... ... ... ..      . ... ... ... ... ... ... ..


|---------------------------------|
|---------------------------------|
|---------------------------------|
|---------3-------7-------10--999-|
|-5-------1-------5-------8---777-|
|-3-------------------------------|
  "       "       "       "    Not a very fast tremolo picking here

**
|----------------------------------------------------------------------|
|----------------------------------------------------------------------|
|----------------------------------------------------------------------|
|------------------4----------------------4----------------------4-----|
|-4----------------2--5--4----------------2--5--4----------------2--5--|
|-2--22222222222------3--2--22222222222------3--2--22222222222------3--|
     ...........            ...........            ...........

|------------------|
|------------------|
|------------------|
|------------------|
|-7777777755555555-|x2  Repeat From "**"
|-5555555533333333-|

|--------------------------------------------------------------------|
|--------------------------------------------------------------------|
|--------------------------------------------------------------------|
|------------------------------4-5-------------------------------5-4-|
|-4-445-444-445-444-445-444-44-2-3--4-445-444-445-444-445-444-44-3-2-|x2
|-2-223-222-223-222-223-222-22------2-223-222-223-222-223-222-22-----|
  . ... ... ... ... ... ... ..      . ... ... ... ... ... ... ..


|---------------------------------|
|---------------------------------|
|---------------------------------|
|---------3-------7-------10--999-|
|-5-------1-------5-------8---777-|
|-3-------------------------------|
  "       "       "       "    Not a very fast tremolo picking here

**
|----------------------------------------------------------------------|
|----------------------------------------------------------------------|
|----------------------------------------------------------------------|
|------------------4----------------------4----------------------4-----|
|

What Sin Replaces Love chords – Ryan Adams

 This song pretty much revolves around a simple two chord structure, the first being a
 Em - Dsus2 - Em  and the chorus is  G  to  F# .
Definitely listen to the song because they really lay on the texture.
This version is based on the 8-03-2007 Red Rocks show, found here:
https://archive.org/details/radams2007-08-03.aud.flac16

    Em Dsus2
---7-----------7------|
---8-----------7------|
---9-----------7------|
---9-----------7------|
---7-----------7------|
----------------------|


              Em Dsus2 Em Dsus2 Em Dsus2 Em
Tell me what sin         replaces love

  Dsus2 Em Dsus2 Em Dsus2 Em Dsus2 Em
I wanna know,       right now

              Em Dsus2 Em Dsus2 Em Dsus2 Em
Tell me what sin         replaces love

  Dsus2 Em Dsus2 Em Dsus2 Em Dsus2 Em
I wanna know,       right now

(continued with higher energy, optional walk up is E-F#-G-F#-E)

Imagine yourself on a mountain
Mountain discovered with flowers
Flowers discolored with horses
Horses distracted by stones
Stone distrusted with me
Then you might know what I mean

        G F#
'Cause I want to kick love right in its gut
 G F#
Beat it and leave for dead
 G F#
Wash my hands in the river
 G F# Em
Lie down and die in your bed

(repeat 1st verse)
     G F#
The voice on the receiver
   G F#
Baby cry howlin' in the wind
  G F#
I don't wanna beg for your mercy
 G F# Em
I wanna know right know, what sin

Tell me what sin replaces love
I wanna know, right now

Como Pollo Sin Cabeza chords – Fito Y Fitipaldis

 Intro:  A A E 
En una chabola lejos del asfalto
 D A 
vive hace tiempo un señor muy raro,
 A E 
es extravagante y huele a butano.
 D A 
Si alguien le desprecia, él le da la mano.
 A C#m 
No hablará contigo más de media hora
 D A 
siempre hay mucha gente cuando no está a solas.
 A E 
Dicen que el demonio de la mala suerte
 D A 
un día con sus garras lo cogió muy fuerte.

 A E 
Tiene el pelo oscuro, los ojos claros
 D A 
y los dientes negros de mascar tabaco.
 A E 
Su mano derecha repleta de anillos
 D A 
en la izquierda un vaso guarda el equilibrio.
 A C#m 
Hay quien esta vida se la toma a broma
 D A 
y hay quien se suicida con balas de goma.
 A E 
No hay por qué pasar el tiempo pensando en lo perdido
 D A 
ni llorando lágrimas de cocodrilo.

                         D 
Si le duelen los recuerdos,
                         A 
se los cura con ginebra.
                         E 
Él quiere enterrar el tiempo,
                         A 
dentro de un reloj de arena.
                         D 
Como nunca tiene sueño,
                         A 
se pasa la noche entera
                         E 
con su viejo catalejo,
                         A 
que le acerca a las estrellas.


(Que te voy a decir, GRACIAS.)

He Understands My Tears Chords – The Isaacs

 INTRO
 G A D G Em7 A D D 
He understands my tears 

VERSE 1
     A D  
Its hard to believe He still loves me 
 A D  
Knowing how wrong I have been 
      A D  
When all I can say is I'm sorry 
      G A A 
When all I can feel is my sin 

CHORUS 
 A G D  
He understands when all I can do is cry 
 A G A D  
He feels the hurt that no one can see down inside 
              G A  
And when the words get in the way 
   D G  
I know He still hears 
     Em7 A D  
For He understands my tears 
 
 G G Em A D D 

VERSE 2 
     A D  
You may not believe that I'm broken 
     A D  
For all you can see is my smile 
        A D  
Oh but He hears the heart that's unspoken 
     G G A A 
And He gives me strength through each  trial 
 
 
CHORUS 
 A G D  
He understands when all I can do is cry 
 A G A D  
He feels the hurt that no one can see down inside 
              G A  
And when the words get in the way 
   D G  
I know He still hears 
     Em7 A D  
For He understands my tears 

TAG
                 G A  
Oh and when the words get in the way 
   D G G 
I know He still hears 
     Em7 A D G  
For He understands when no one else can 
 Em7 A G Em7 D  
He understands my tears

Shes A Fool Chords – Lesley Gore V2

 #-------------------------------PLEASE NOTE-------------------------------------#
# This file is the author's own work and represents their interpretation of the #
# song. You may only use this file for private study, scholarship, or research. #
#-------------------------------------------------------------------------------#
She s A Fool chords
Lesley Gore 1963 (Mark Barkan and Ben Raleigh)

Capo III

 G C D 
She don't know that she's a lucky girl,
 G C D 
Got the best thing in the whole, wide world,
 Bm C 
Got a love that's hard to find,
               G C 
Got the boy I wish was mine, but..

 F C G 
She's a fool (SHAG-A-DOO-LA),
 F C G      
She's a fool (SHAG-A-DOO-LA),
 F G 
She has his love but treats him cruel (SHAG-A-DOO-LA, SHAG-A-DOO-LA).

 G C D 
He don't know it, but she cheats on him,
 G C D 
With a boy like that it's such a sin.
 Bm C   
I would never be untrue,
               G C 
I would never make him blue, but...

 F C G 
She's a fool (SHAG-A-DOO-LA),
 F C G      
She's a fool (SHAG-A-DOO-LA),
 F G 
She has his love but treats him cruel (SHAG-A-DOO-LA, SHAG-A-DOO-LA).

 G# C# Eb C# 
I know there is gonna come a day
 G# C# Eb C# 
He will tell her, "Girl, be on your way.".
 Cm C# 
Maybe then he'll turn to me,
                G# 
Then how happy I will be that...

 F# G# 
She's a fool (SHAG-A-DOO-LA),
 F# G# 
She's a fool (SHAG-A-DOO-LA),
 F# G# 
She has his love but treats him cruel (SHAG-A-DOO-LA, SHAG-A-DOO-LA).

 G A 
She's a fool (SHAG-A-DOO-LA),
 G A 
She's a fool (SHAG-A-DOO-LA),
 G A 
She has his love but treats him cruel (SHAG-A-DOO-LA, SHAG-A-DOO-LA).

 G A 
She's a fool (SHAG-A-DOO-LA),
 G A 
She's a fool (SHAG-A-DOO-LA). . .


Set8

Joshua Martin – You Are chords

 -------------------------------------------------------------------------------
                             YOU ARE - Joshua Martin
-------------------------------------------------------------------------------
Tabbed by:NeXusjoshuam
E-mail:martinjoshua1998@gmail.com

Tuning:EADGBe

[V1]

. E 
 You've seen our past and future
. A 
 You've seen the world we live
. C#m 
 You've lived a life among us
. A 
 You've died and took our sin

[V2]

. E 
 You've raised up from the grave
. A 
 You've given us Your name
. C#m 
 You've loved us from the start
. A 
 You've told us who we are.

[P]

.             B A 
 What You've done is nothing we can pay You for

[C1]

. E A 
 You are the King of Glory
. C#m B 
 You are the light that's holy
. E A 
 You are the one and only
. C#m B 
 You are.(Jesus)

[V3]

 We see the love that frees us
 We hear the name of Jesus
 We look to Your our freedom
 We sing and praise Your kingdom

[ C2 ]

. E A 
 You are the hope of nations
. C#m B 
 You are the joy of heaven
. E A 
 You are the God who loves us
. C#m B 
 You are   (Jesus)

[ B ]

. C#m 
 You are.
. B 
 You are
. A 
 You are
. E B 
 You are,Je-sus.


************************************

| /   slide up
| \   slide down
| H   hammer-on
| p   pull-off
| ~   vibrato
| +   harmonic
| x   Mute note
| B   Bend
| pb  Pre-bend
| br  Bend release
| pbr Pre-bend release
| brb Bend release bend

************************************

Horros Chords – Herra Ylppo Ja Ihmiset

 Eb5 Db5 Eb5 Db5 Eb5 Db5 F5 Gb5 Eb5 Db5 Eb5 Db5 Eb5 Db5 F5 Gb5 Ab5 Abm Fb Gb 
Sinä kesänä liikuin tivolin mukana ja tapasin sinut
 Abm Fb Gb 
Sinä kesänä päätin että alkaa elämä, kun tapasin sinut
 Abm Fb Gb 
Sinä esitit tanssiasi. Mä peittelin riemuani
       Abm Fb Gb 
Ja mä pyysin sinua omakseni. Tai no piti, mutta menetin rohkeuteni

 Abm Fb Gb 
Halusin nähdä sinun huoneesi
 Gb 
Nähdä sinun maailmasi
 Abm Fb Gb 
Halusin astua sun vaunuusi
 Gb 
Ja katsoa tanssiasi
 Abm Fb Gb 
Ilman että mikään meitä keskeyttää
 Gb 
Se on elämää!
 Abm Fb 
Estä minua uppoamasta
 Gb 
Herätä minut horroksesta

 Eb5 Db5 Eb5 Db5 Eb5 Db5 F5 Gb5 Eb5 Db5 Eb5 Db5 Eb5 Db5 F5 Gb5 Ab5 
Herätä minut horroksesta!

 Abm Fb Gb 
Loppukesästä tivoli suljettiin ja menetin sinut
 Abm Fb Gb 
Minä autoin sinua muutossasi niin menetin sinut
 Abm           Fb                Gb 
Minä kannoin tavaroitasi ja peittelin itkuani
 Abm Fb Gb 
Pyysinkö sinua omakseni? No piti, mutta menetin rohkeuteni

 Abm Fb Gb 
Halusin nähdä sinun huoneesi
 Gb 
Nähdä sinun maailmasi
 Abm Fb Gb 
Halusin astua sun vaunuusi
 Gb 
Ja katsoa tanssiasi
 Abm Fb Gb 
Ilman että mikään meitä keskeyttää
 Gb 
Se on elämää!
 Abm Fb 
Estä minua uppoamasta
 Gb 
Herätä minut horroksesta

 Gb6 Abadd9 Cb Dbsus4 
Sinä uskoit näkeväsi tulevaisuuteen
 Gb6 Abadd9 Cb Dbsus4 
Tähtikartan kuvioista
 Eb Fb 
Joissa minä olen yksin 
            Eb/G Ab Ab9 
ja sinä matkalla kaukaisuuteen...

 Abm Fb Gb 
Halusin nähdä sinun huoneesi
 Gb 
Nähdä sinun maailmasi
 Abm Fb Gb 
Halusin astua sun vaunuusi
 Gb 
Ja katsoa tanssiasi
 Abm Fb Gb 
Ilman että mikään meitä keskeyttää
 Gb 
Se on elämää!
 Abm Fb 
Estä minua uppoamasta
 Gb 
Herätä minut horroksesta!

 Abm Fb 
Estä minua uppoamasta
 Gb 
Herätä minut horroksesta!
 Abm Fb 
Estä minua uppoamasta
 Gb 
Herätä minut horroksesta!
 Abm Fb 
Estä minua uppoamasta
 Gb 
Herätä minut horroksesta!
 Abm Fb 
Estä minua uppoamasta
 Gb 
Herätä minut horroksesta!

 Eb5 Db5 Eb5 Db5 Eb5 Db5 F5 Gb5 Eb5

Ella Chords – Jose Alfredo Jimenez

 A A7 E7 D 
e---0----0-----0----2----|
B---2----2-----0----3----|
G---2----0-----1----2----|
D---2----2-----0----0----|
A---0----0-----2----0----|
E---0----0-----0----0----|

Y LA CANCION VA  MAS O MENOS ASI:

 A 
Me canse de rogarle

Me canse de decirle

Que yo sin ella
           E7 
De pena muero

Ya no quizo escucharme

SI sus LAbios se Abrieron

Fue pa´decirme
            A 
Ya no te quiero


Yo senti que mi vida

Se perdia en un abismo
             A7 
Profundo y negro
            D 
Como mi suerte

Quice hayar el olvido
             A 
Al estilo Jalisco
                  E7 
Pero aquellos mariachis

Y aquel tequila
                A 
Me hicieron llorar


Me canse de rogarle

Con el llanto en los ojos

Alce mi copa y brinde
       E7 
Por ella

No podia despreciarme

Era el ultimo brindis

De un bohemio por
       A 
Una reyna



Los mariachis

Callaron, de mi mano sin
                 A7 
Fuerza cayo mi copa
             D 
Sin darme cuenta

Ella quizo quedarse
                   A 
Cuando vio mi tristeza
                   E7 
Pero ya estaba escrito

Que aquella noche
              A E7 ..  A 
Perdiera su amor

Favorite Sin intro Tabs by Jackyl

 I've been hearing this song on the radio a lot and to my surprise there was no tab yet.
It's pretty catchy so I thought I'd take a stab at the tab. It sounds like there are two guitars,
one in standard, one in drop D. This tab is in standard and just the intro until I have time
to tab the rest.

-------------------------------------------------------------------------------
                             FAVORITE SIN - Jackyl
-------------------------------------------------------------------------------
Tabbed by: sickstring11

Tuning: Standard

e|----------------------------------------------1------0------------|
B|---------3----1---3---1-------3-------3----------------------3----|
G|------------2----------------2-2----------0------0-------0--------| x2
D|-----0----0---------------------------------0------0-------0---0--|
A|-----------------------0-2/3--------------------------------------|
E|---------------------------------1/3------------------------------|

************************************

| /   slide up
| \   slide down
| h   hammer-on
| p   pull-off
| ~   vibrato
| +   harmonic
| x   Mute note
| b   Bend
| pb  Pre-bend
| br  Bend release
| pbr Pre-bend release
| brb Bend release bend

************************************

I Saw The Light Chords – The Ryan Oreilly Band

 Band: The Ryan O'Reilly Band
Song: I Saw The Light & Elizabeth

Tuning: Standard EADGBe


I prefer to play with CAPO 2


Also, I was not able to find any kind of lyrics for this song, so I tried my best to 
understand what they are singing. Excuse my mistakes.
-------------------------------------------------------------------------------------


 G G 
I saw the light, I saw the light
 C G 
No more darkness, no more night
 G 
Now I'm so happy, no sorrow in sight
 G D G 
Praise the lord, I saw the light


 G 
I wandered so lonely, life filled with sin
    C G 
I wouldn't let my dear saviour in
 G 
Then Jesus came, like a stranger in the night
 G D G 
Praise the lord, I saw the light



 G 
I saw the light, I saw the light
 C G 
No more darkness, no more night
 G 
Now I'm so happy, no sorrow in sight
 G D G 
Praise the lord, I saw the light


 G G C 
Elizabeth's walking through the garden
 D C G 
at the morning that I come.
 G C 
Wouldn't be graving off the last
   D C G 
Suburbans hanging on my wall.
 D C G 
She's supposed for the best lines of every play,
 D C G 
Not every line but just the one.
 G C 
The winds are dancing with the trees
     D C G 
Its distance bells sing the morning song.


 D ,  G G C 
Elizabeth asked me if I know her name
   D C G 
I said I do but I never tell
 G C 
Say everything is going on around
     D C G 
and yes that's probably just as well
 D C G 
Everybody's gonna let you down
 D C G 
That's I why I shall not let them first.
 G C 
Thinks it's gonna be a long walk home tonight
 D C G 
said, we are staring at her empty purse.


 C G 
She knows every word in that country song
     A D 
She makes me sing it, she sings along
 C G 
Surrounded by the friends she thought were (...)
 A D 
singing in ghettos where I come from,
 C G 
she steals the show.


 D ,  C ,  G G C 
Elizabeth's different every time you see her
 D C G 
Changes like a russian dog
 G C 
Walks back home alone through the garden
 D C G 
As the rains begin to fall
 D C G 
Garden fence broke down last night
 D C G 
The dogs that were barking are now inside
 G C 
Travelling girl in the morning moon
      D C G 
Yeah everything's gonna be alright.


 C G 
She knows every word in that country song
     A D 
She makes me sing it, she sings along
 C G 
Surrounded by the friends she thought were (...)
 A D 
Singing in ghettos where I come from,
 C G 
She steals the show.


 D ,  C</sp

Hail The King Chords – Citizens

 Verse 1:

 C 
We have been justified by faith through Jesus Christ
 G D/A 
Its only by His grace we stand
 C 
Once bound by sin and shame, now slave to righteousness
 G D/A 
Our faith perfected by His love

PreChorus:

 C G 
Praise the Savior, He has won!
 G Em C 
Our sin defeated through His blood
  C G 
Now exalted, Jesus reigns
         Em D 
Hail the King, praise His name!

Chorus:

 C G 
We rejoice in the hope of the Glory of God
 Em D 
We rejoice in the hope of the Glory of God
 C G 
We rejoice in the hope of the Glory of God
 Em D G 
We rejoice in the Glory of God

Bridge:

 C 
Our hope of glory is

Found in the one who gives
 G D/A 
Great joy to sing about the love that He poured out
 C 
Forever lifted high

Is our Savior Jesus Christ
 G D/A 
The gift of God given in love

A Heart That Aint Ever Been Pure Chords – Cranford Nix

 This is a tab based off his original recording


CHORDS:
 D       (000232)
 Dsus2   (000233)
 Dsus4   (000230)
 G       (320003)
 A       (002220)
 Bm      (224432)


INTRO:  D - Dsus4 - Dsus2 - D  (x2)

VERSE 1:
 D G 
If I'm getting drunk,
             A D 
I'm getting drunk for the week; 
 Bm A 
remember, I'm a freak. 
 D G A D             
And if I get drunk and I say I hate your guts; 
 Bm A 
it's just because drinking makes me nuts.

CHORUS:
     G A 
And remember I'm so unsure, 
 G A 
and so fucking insecure,
     G A 
and I don't know if there's a cure,
 D Bm                
for a heart that ain't ever been pure;
   G A D 
A heart, that's never met yours.

VERSE 2:
 D G 
And if I start screaming 
            A D 
about some no good little bitch; 
 Bm A 
it's just because that little bitch snitched. 
 D G A D 
And if I start dissing my band or blaming my bad luck; 
 Bm A 
it's just because all my songs suck.

CHORUS:
     G A 
And remember I'm so unsure, 
 G A 
and so fucking insecure,
     G A 
and I don't know if there's a cure,
 D Bm                
for a heart that ain't ever been pure;
   G A D 
A heart, that's never met yours.

VERSE 3:
 D G 
And if another girl comes screaming
     A D 
and beating on a door; 
 Bm A 
I've never seen that girl before. 
 D G A D 
And I love you more than anything but still I sin; 
 Bm A 
My friends say losers don't win (don't know why I listen to them though).

CHORUS/END:
     G A 
And remember I'm so unsure, 
 G A 
and so fucking insecure,
     G A 
and I don't know if there's a cure,
 D Bm                
for a heart that ain't ever been pure;
   G A D 
A heart that has never been pure.
       G A D 
Oh, a heart that has never been pure.
       G A D 
Oh, a heart that has never met yours.

Kes Yhdess Chords – Anna Eriksson

 KESÄ YHDESSÄ-ANNA ERIKSSON

 A Bm   
Sinä olet aurinko     Minä olen kuu 
 E F#m 
 Sinun valosi lämpöinen minusta heijastuu
  A Bm 
Tämän kesän päivät ja yöt me taivaita  matkataan
   Db F#m D E  
 Ja joka hetki yhä enemmän toisiimme uskotaan 
 A Bm 
Kun sinuun sukellan et hukuta minua
  E F#m 
Kun lennät korkealla en kadota sinua 
 A B#m 
Kaikki taiat kesäyön me yhdessä todistetaan ja 
 Db F#m D E   
Joka hetki yhä syvemmin toisimme kietoudutaan. 
                  A E D A E D 
                 Kesä yhdessä katsellaan nämä hetket taivaissa leijaillaan 
                  Dbm F#m 
                 Kauaksi katoaa kaikki muu kun
                          D E F#m 
                 Kun aurinko paistaa niin loistaa kuu 
                       D E A E F#m 
                 Ja kaksi kiertolaista rakastuu 
 A Bm 
Tämä hehkuva maa jonka Aurinko lämmittää 
 E F#m 
Sen lempeä kuutamo aina yöksi viilentää 
 A Bm 
Nämä kesän päivät ja yöt ovat meidän tarinaa 
 Dbm F#m D E 
Ja joka hetki yhä enemmän toisiimme rakastutaan 

          Kerto 

 F#m D E A F#m D  
Kaunis sinitaivas valkopilvineen tai yön tumma vaippa 
          E A 
Kaikkine tähtineen
 Bm E Bm E 
Taikovat unelmia joihin yhdessä kurkoitetaan
  F#m Dbm D E 
Salaisimpiin satuihin sinun kanssasi sukelletaan 

Kerto