Tag: Smile

Velvet Mornings chords – Demis Roussos

 Capo II 

      D C G D C G  
La la la la la la la la la la la la la la la la la la la la la la la la la la la  

 G C G  
Velvet mornings will come every new day 
 G C Am                                
Golden sunrise and the scent of rain 
         D                    
Whisper softly a melody  
    C 
of love words In ecstasy
     G D C G     
as you lie so very close to me 
 
       D C G D C G  
La la la la la la la la la la la la la la la la la la la la la la la la la la la  

 C G                                      
Triki, triki, triiiiiki, triiiki, triki, Mon Amour, triki, triki, triki, triiiiii 
 C G  
Triki, triki, triiiiiki, triiiki, triki, Mon Amour, triki, triki, triki, triiiiii 
 Am G  
Triki, triki, triiiiiki, triiiki, triki, Mon Amour, triki, triki, triki, triiiiii 
 Am F# D7  
Triki, triki, triiiiiki, triiiki, triki, Mon Amour, triki, triki, triki, triiiiiiiiiiiiiii
 
 G C G  
Velvet mornings gently touching my face 
 G C Am                                
Come and find me in your warm embrace 
        D                            
As you wake up and smile to me 
     C                
you make real my reverie
     G D C G                      
and I know my day begins and ends with you 

       D C G D C G  
La la la la la la la la la la la la la la la la la la la la la la la la la la la   
 
 C G                                      
Triki, triki, triiiiiki, triiiki, triki, Mon Amour, triki, triki, triki, triiiiii 
 C G  
Triki, triki, triiiiiki, triiiki, triki, Mon Amour, triki, triki, triki, triiiiii 
 Am G  
Triki, triki, triiiiiki, triiiki, triki, Mon Amour, triki, triki, triki, triiiiii 
 Am F# D7 G 
Triki, triki, triiiiiki, triiiki, triki, Mon Amour, triki, triki, triki, triiiiiiiiiiiiiii

Just To See You Smile intro Tabs by Tim Mcgraw

 Adapted to be played by a single guitar. (Some less noticeable notes were 
sacrificed during the making of this tab)

Part of this is also repeated later in the song. 

|----------------------------|----------------------------|
|--------------2-------------|--------------2-------------|
|----------------------------|----------------------------|
|--3h-4--4--4-----4--4--4----|--3h-4--4--4-----4--4--4----|
|----------------------------|----------------------------|
|----------------------------|----------------------------|


-----2-----1----------------|----------------------------|
-----------------4-----2----|-----0----------------------|
----------------------------|-----------3-----1----------|
--4-----4-----4-----4-------|--4-----4-----4-----4-------|
----------------------------|----------------------------|
----------------------------|----------------------------|


--------14-13-11------------|----------------------------|
-----------------14----11---|--14-11----11-14-11---------|
--------------------13------|--------13----------13-10---|
----------------------------|----------------------------|
----------------------------|----------------------------|
----------------------------|----------------------------|


-----14----13----11---------|----------------------------|
-----------------------14---|-----12----11----9----------|
--11----11----11----11------|--11----11----11----11------|
----------------------------|----------------------------|
----------------------------|----------------------------|
----------------------------|----------------------------|


--------9h-7--------9h-7----|--------9h-7--------9h-7----|--14-14-16------||
-----7-----------7----------|-----7-----------7----------|--14-14-14------||
--8-----------8-------------|--8-----------8-------------|-----13-13------||
----------------------------|----------------------------|----------------||
----------------------------|----------------------------|----------------||
----------------------------|----------------------------|----------------||

Pray chords – Kendall Payne

 Pray~Kendall Payne

Capo on 4th fret

        
I will ( C ) pray for you ( D ) now, for you have ( G ) been my faithful ( Em ) friends
         
While the ( C ) road we walk is ( D ) difficult ( G ) indeed
     
I could ( C ) not ask for ( D ) more than what you've ( G ) already ( Em ) been 
       
Only ( C ) that you would ( D ) say these prayers for ( Em ) me
 
           
May your ( C ) heart break ( D ) enough that ( G ) compassion enters ( Em ) in 
                
May your ( C ) strength all be ( D ) spent upon the ( G ) weak
         
All the ( C ) castles and ( D ) crowns you build and ( G ) place upon your ( Em ) head
                  
May they all ( C ) fall, come crashing ( D ) down around your ( G ) feet
               
May you ( C ) find every ( D ) step to be ( G ) harder than the ( Em ) last
                                                           
So your ( C ) character grows ( D ) greater each ( G ) stride
                
May your ( C ) company ( D ) be of humble ( G ) insignificance ( Em )
 
May your ( C ) weakness be your ( D ) only source of (G or Em) pride 
        
             
What you ( C ) do unto ( G ) others may it ( D ) all be done to ( Em ) you 
              
May you ( Am ) meet the One who ( D ) made us
                                               
And see Him ( Em ) smile when life is ( D ) through 

                  
May your ( C ) blessings be ( G ) many but not ( D ) what you hoped they'd ( Em ) be
                       
And when you ( Am ) look upon the ( D ) broken
                 
May mercy show ( Em ) you what you could not ( D ) see

              
May you ( C ) never be ( D ) sure of any ( G ) plans you ( Em ) desire
                  
But you'd ( C ) learn to trust the ( D ) plan He has for ( G ) you
                  
May your ( C ) passions be ( D ) tried and tested ( G ) in the holy ( Em ) fire
          
May you ( C ) fight with all your ( D ) life for what is (G or Em) true 
          
           
I have ( C ) prayed for you ( D ) now all my ( G ) dear and faithful ( Em ) friends 
                  
But what I ( C ) wish is more than ( D ) I could ever ( G ) speak
            
As the ( C ) way wanders ( D ) on I'll long to ( G ) see you once ( Em ) again
        
Until ( C ) then, would you ( D ) say these prayers for ( Em ) me?
        
Oh, ( C ) that you would ( D ) pray for ( G ) me

Tell The World chords – Eric Hutchinson

 Capo 4

 C F C 
Let's tell the world all the things we've done
 C G C 
Falling in love and the setting sun
 C F C 
I've got a song and a smile so bright
 C G C 
I'll make you wish you were here tonight

 C F C C G C C F C 
All of the places we ever go
 C G C 
Feel familiar I'm never alone
 C F C 
All of the people that I don't know
                                 G C               
Will be looking me up when they all get home

 C F C 
Let's tell the world all the things we've done
 C G C 
Falling in love and the setting sun
 C F C 
I've got a song and a smile so bright
 C G C 
I'll make you wish you were here tonight

            F C 
And if you tell the world your secrets
           Am F 
You never know what's set in stone
              G 
And what can grow woah woah

SOLO:
 C F C C G C 
X2

 C F C 
Tell the world, tell the world
           G 
I'm gonna tell the world
 C F C 
Tell the world, tell the world
                            G 
That I got somethin' on my mind

 C F C 
Let's tell the world all the things we've done
 C G C 
Falling in love and the setting sun
 C F C 
I've got a song and a smile so bright
 C G C 
I'll make you wish you were here tonight

 C F C 
Let's tell the world all the things we've done
 C G C 
Falling in love and the setting sun
 C F C 
I've got a song and a smile so bright
 C G C 
I'll make you wish you were here tonight

 C F C 
Na na na na na na na na na 
 C G C 
Na na na na na na na na na
 C F C 
Na na na na na na na na na 
 C G C 
Na na na na na na na na na

The Way We Live chords – Johnny Rivers

 G Am 
You ask me why I don't smile
          Em Am 
Is there something troublin' me
 C G Em 
Just open your eyes and look around
 Am G 
And tell me what do you see

Can you understand the things people do
And the way they treat each other
And tell me how far has man really come
When today he's still killing his brother

 Am Em 
It makes no difference where you do it
 Am D 
Or what name you use
 Bb F Dm 
I know if things keep going this way
 Bb F 
Everyone's gonna lose
 Bb F D 
Everybody's gonna lose

We're doing alright with material things
You can tell by the way we live
But with all these things man has learned how to do
Still hasn't learned how to give

If you don't have the answers right now
I'll see you after a while
But if next time I still look this way
You'll know why I don't smile...

Notes:
- Intro and outro same as verses.
- These are just the root chords.  There are probably added 7ths, 6ths, and other things.
- I'm not certain about the Am at the end of each verse... keep going back and forth on 
how it sounds.
- If there are errors, suggestions, or improvements, PM me or comment.

Violet Hour chords – The Clientele

 Intro on  B B7sus4 
terraces that climb like vines towards the moon the five a sides

                                                                       
the evening inter-city lights I see your face each time I close my eyes


 B7sus4 E B7 *
Jude I told you yesterday that I know nothing all my friends are loaded & they smile

 B7sus4 E B7 *
picking up the pieces from a bleary night away exhaust fumes, magnolias & light



 E **                                                            B7sus4 
Helen in the art-class light yes I guess that if I stay, I'll stay all night

 E **                                                                     B7sus4 
And I know that you're not afraid but every time I close my eyes I see your face



 B7sus4 E B7 *
Walking down to Springfield Park uneasy in the haze uneasy in the sunlight & the quiet

 B7sus4 E B7 *
Living life without love in your mother's waiting room minute here by minute it's like dying



 E **                                                             B7sus4 
Terraces that climb like vines towards a moon that hangs above another night

 E **                                                                 B7sus4 
Streets so filled with echoing you're so tired that you believe in everything



 B7sus4 E B7 *
So that summer came & went & I became cold yeah I became cold yeah I became cold

 B7sus4 E B7 *
So that summer came & went & I became cold yeah I became cold yeah I became cold 



Solo on B


 B7sus4 E7 ***          C#7sus4 E B7sus4 E7 ***   C#7sus4 E 
So that summer came & went & I became cold yeah I became cold yeah I became cold 

 B7sus4 E7 ***           C#7sus4 E B7sus4 E7 ***   C#7sus4 E 
So that summer came & went & I became cold yeah I became cold yeah I became cold 




*(pick the fifth of b string and pull off)
**(pick the forth of e string and pull off)
***(from the 7th fret)

Start Again chords – Ryan Dolan

 Ryan Dolan - Start Again
From the single: Start Again (2014)
Comment for any corrections and please rate


Capo 2

Intro:  Em D C Em D 
I guess life was tough, growing up
    C 
I didn't even know if I could make it or not
        Em D C 
'Cause every day is harder on your own

                Em D 
And when they look at me, it's clear to see
                  G C 
That they don't want to be the ones who hang around with me
     Em D C 
So now I guess I'll go it on my own

  C 
Life was hard and I got down
     Em 
But I got up and carried on
  D Am 
Time passed so slow

      C 
The life I lived was all in vain
    Em  
A worthless show, a pointless game
  D A 
Time was so cold

                      C Em 
'Cause I can live a lifetime living these lies
        G D 
I can laugh and act okay
                C Em 
I can show a smile and say I'm happy
                G D 
But there has got to be a better way

          C 
I wanna live
          Em 
I wanna love
              G D 
Don't wanna care about anything
                      C Em 
'Cause I can live a lifetime living this life
                 C 
I'll start again

      Em D 
I'm tongue-tied, feels like
      C 
I'm losing hold of this life
     Em D C 
But I don't wanna be the one I love, no

  C 
Life was hard and I got down
     Em 
But I got up and carried on
  D Am 
Time passed so slow

      C 
The life I lived was all in vain
    Em 
A worthless show, a pointless game
  D A 
Time was so cold

                      C Em 
'Cause I can live a lifetime living these lives
        G D 
I can laugh and act okay
                C Em 
I can show a smile and say I'm happy
                G D 
But there has got to be a better way

          C 
I wanna live
          Em 
I wanna love
              G D 
Don't wanna care about anything
                      C D 
'Cause I can live a lifetime living this life
                 Em 
I'll start again

                      C Em 
'Cause I can live a lifetime living these lies
        G D 
I can laugh and act okay
                C Em 
I can show a smile and say I'm happy
                G D 
But there has gotta be a better way

          C 
I wanna live
          Em 
I wanna love
              G D 
And I don't care about anything
                      C Em 
'Cause I can live a lifetime living this life
                 C 
I'll start again

                     C Em 
So I won't waste a lifetime living this life
                 C 
I'll start again

Ferry Cross The Mersey chords – Gerry And The Pacemakers V5

 Just adding missing 7th chords etc.

ooooooooooooooooo000000000000ooooooooooooooooo

Ferry Cross The Mersey - Gerry and the Pacemakers

ooooooooooooooooo000000000000ooooooooooooooooo

 D Am7 D Am7 D Am7 D Am7 D Am7 D Am7 
Life     goes on day after day
 D Am7 D Am7 D Am7 D Am7 
Hearts   torn in every way

    D F#m 
So ferry 'cross the Mersey
             Em A7 
'cause this land's the place I love
               D Am7 D Am7 
and here I'll stay

 D Am7 D Am7 D Am7 D Am7 
People   they rush everywhere
 D Am7 D Am7 D Am7 D Am7 
Each    with their own secret care

    D F#m 
So ferry 'cross the Mersey
             Em A7 
'cause this land's the place I love
               D Am7 D Am7 
and here I'll stay

 Em A7 D 
People around every corner
 Em A7 D 
They seem to smile and say
 Em A7 F#m 
We don't care what your name is boy
 E7 A7 
We'll never turn you away

 D Am7 D Am7 D Am7 D Am7 
So     I'll continue to say
 D Am7 D Am7 D Am7 D Am7 
Here   I always will stay

    D F#m 
So ferry 'cross the Mersey
             Em A7 
'cause this land's the place I love
               D Am7 D Am7 
and here I'll stay
               D Am7 D Am7 
and here I'll stay
           D 
Here I'll stay

Street Of Hearts chords – Niels Geusebroek

 Niels Geusebroek - Street of Hearts
The official soundtrack from the movie Hartenstraat (2014)
Comment for any corrections and please rate

        EADGBe
 Fmaj7 :  x33210
    G7 :  320001

Intro:  C Am C 
I will show you who I really am
          Am C 
And I'm sick and tired of feeling blue
  Fmaj7 G7 Am 
Hope I'll never be alone again
  Fmaj7 Am G7 
Now that I've run into you

  C 
Give me your love
   Fmaj7 
Shimmering stars
  G7 
You make me run
                 C 
Through your street of hearts
  C 
Give me your smile
           Fmaj7 
And I'll sing you a song
  G7 Am 
Never alone, never apart
      Fmaj7 G7 C 
I'm running through your street of hearts

      Am C 
My broken heart is finally cured
       Am C 
You sweep me right off my feet
  Fmaj7 G7 Am 
Make me feel like a loving bird
  Fmaj7 Am G7 
Do I ever so what I want to be

  C 
Give me your love
   Fmaj7 
Shimmering stars
  G7 
You make me run
                 C 
Through your street of hearts
  C 
Give me your smile
           Fmaj7 
And I'll sing you a song
  G7 Am 
Never alone, never apart
      Fmaj7 G7 Am 
I'm running through your street of hearts

       G7 C 
No I won't let her take her back
  Fmaj7 G7 Em Am 
Love without you by my side
         D 
This is all we need
         G7 
This is all of me

  C 
Give me your love
   Fmaj7 
Shimmering stars
  G7 
You make me run
                 C 
Through your street of hearts
  C 
Give me your smile
           Fmaj7 
And I'll sing you a song
  G7 Am 
Never alone, never apart
      Fmaj7 G7 Am 
I'm running through your street of hearts
      Fmaj7 G7 Am 
I'm running through your street of hearts
      Fmaj7 G7 Am 
I'm running through your street of hearts
      Fmaj7 G7 C     (Continue playing the C from now on)
I'm running through your street of hearts
Running through your street of hearts
Running through your street of hearts
Running through your street of hearts
Running through your street of hearts

Ryan Dolan – Start Again chords

 F#m E 
I guess life was tough, growing up
   D 
I didn't even know if I could make it or not
         F#m E D 
'Cause every day is harder on your own
                F#m E 
And when they look at me, it's clear to see  
                  A D 
That they don't want to be the ones who hang around with me
    F#m E D 
So now I guess I'll go it on my own

 D                      
Life was hard and I got down
        F#m        
But I got up and carried on
 E Bm 
Time passed so slow
 D 
The life I lived was all in vain
 F#m 
A worthless show, a pointless game
 E B 
Time was so cold

                     D F#m 
'Cause I can live a lifetime living these lies
       A E 
I can laugh and act OK
               D F#m 
I can show a smile and say I'm happy
                A E 
But there has got to be a better way
          Bm 
I wanna live
          F#m 
I wanna love
             A E 
Don't wanna care about anything
                      D E 
'Cause I can live a lifetime living this life
             D 
I'll start again


      F#m E 
I'm tongue-tied, feels like
        D 
I'm losing hold of this life
     F#m E D 
But I don't wanna be the one I love, No

 D                      
Life was hard and I got down
        F#m        
But I got up and carried on
 E Bm 
Time passed so slow
     D 
The life I lived was all in vain
   F#m 
A worthless show, a pointless game
 E B 
Time was so cold

                     D F#m 
'Cause I can live a lifetime living these lies
        A E 
I can laugh and act OK
              D F#m 
I can show a smile and say I'm happy
               A E 
But there has got to be a better way
          Bm 
I wanna live
          F#m 
I wanna love
              A E 
Don't wanna care about anything
                     D E 
'Cause I can live a lifetime living this life
             F#m 
I'll start again

                     D F#m 
'Cause I can live a lifetime living these lies
       A E 
I can laugh and act OK
               D F#m 
I can show a smile and say I'm happy
               A E 
But there has got to be a better way
         Bm 
I wanna live
         F#m 
I wanna love
             A E 
Don't wanna care about anything
                      D E 
'Cause I can live a lifetime living this life
            D 
I'll start again
                    F#m E 
So I won't waste a lifetime living this life
            A 
I'll start again

Teresa – Stay chords

 Stay
© 2011 by Kuhnert, Lebang
Teresa: http://www.mileandfriends.de/teresa
Stay: http://www.jamendo.com/de/track/914271/stay


 C#maj7 F# F#maj7 F#7 C#maj7 F# F#maj7 

Verse 1:
 C#maj7 F# F#maj7 F#7 
A smile and a happy gaze

 C#maj7 F# F#maj7 
on flower filled summer days


 C#maj7 F# F#maj7 F#7 
A Sweet gentle melody

 C#maj7 F# F#maj7 
is bringing back serenity


 C#maj7 F# F#maj7 F#7 
A soothing candle light

 C#maj7 F# F#maj7 
on a dark and stormy night

 Dm# Fm F#maj7 
Those found memories just express one wish


Chorus:
I want you to 
 C# 
Stay
            B F# 
I want to stay with you all of my life

I want you to
 C# 
Stay
            B F# 
I want to stay with you all of my life
I want you to 

 C# 
Stay    
            B 
I want to stay with you
            F# 
and now I pray for you

                        Dm# 
You always stay in my heart

   Fm F#maj7 
I still can feel your smile


Verse 2:
A fire in wintertime
is locking out snow and rime

A shoulder to leaning on
until all pain and sorrow gone

The most important part
an understanding heart

Those found memories just express one wish

Chorus

Bridge

 Am# Fm B F# 
A long and heartfelt goodnight kiss 

 Am# Fm B7 
and many other things I miss,

 Dm# Fm F#maj7 
that I'll never do with you again.
 
But I want you to stay...

Chorus

U chords – Austin Mahone

 All the song goes like  A B E A , like that: 
"
       A B E 
Cus I know that all my dreams
            A 
Are coming true yeah
       A B 
And I know-ow-ow-ow-ow-ow
            E A 
I'll never feel the way I feel girl "

So, enjoy the song and any doubts,email me: lilicescalf


                
Chords: | A B |  E A |
Turn your radio up, Turn your radio up
Ain't no other Shawty I've heard of baby,
Put a million on that that that that,
I took my world and gave you half of it baby,
I pray I'll never get it back back back back.
I love your style,
I love your smile,
I love your eyes,
They look like diamonds to me!
But you could have it all,
All of it baby,
In your favorite store blowin' stacks stacks stacks.

       A B E 
Cus I know that all my dreams
            A 
Are coming true yeah
       A B 
And I know-ow-ow-ow-ow-ow
            E A 
I'll never feel the way I feel girl 
      A B E A 
With you oh baby you yeah you,
 A B E A 
you oh baby you yeah you,

Chords: | A B |  E A |
I'll go up and get a star for you baby
Pick it out and bring it back back back back
I'm glad you opened up your heart for me baby
I ain't lying that's a fact fact fact fact
I remember us sitting up late in my one bedroom apartment
Memories runnin' thru my head head head head
You the only one I want if you were to leave me
I don't know what I would do instead stead stead stead
Cus I love ya I love ya
Even if I'm tempted I swear
I'll never put none of them other above ya
Hoping I can get along with your big brothers
Cus I'm in it for the long hard like truckers
Party in love, purple label kisses, just give me a minute
And I'll be making you my Mrs.
We can look exquisite, trips to the pacific
Look up in the sky like look you know I did it

       A B E 
Cus I know that all my dreams
            A 
Are coming true yeah
       A B 
And I know-ow-ow-ow-ow-ow
            E A 
I'll never feel the way I feel girl 
      A B E A 
With you oh baby you yeah you,
 A B E A 
you oh baby you yeah you,

Chords: | A B |  E A |
Turn your radio up, Turn your radio up,
Turn your radio up, Turn your radio up,
Let me see them hands up, Let me see them hands up,
Let me see them hands up, Let me see them hands up

       A B E 
Cus I know that all my dreams
            A 
Are coming true yeah
       A B 
And I know-ow-ow-ow-ow-ow
            E A 
I'll never feel the way I feel girl 
      A B E A 
With you oh baby you yeah you,
 A B E A 
you oh baby you yeah you,
 A B E A 
you oh baby you yeah you,
 A B E A 
you oh baby you yeah you,
Yeah you.

I Wont Let You Go chords – Snow Patrol

  Kwint & Troy (from Sir Jupiter)

Special chords used:
 G/B  [x20010]
 Dm7  [xx0211]


INTRO:
 C G/B Dm7 C   x2

VERSE:
 C                         
  No one can ever follow
 G/B 
  No one can ever know
 Dm7 C 
  Wind up the spinning top and watch it go, watch it go
 C 
  Never gonna be easy, was it?
 G/B 
  You didn't think it'd be so much fun
 Dm7 C 
  Smile comes despite the danger get some get some


PRE-CHORUS:
 F C 
There's something happening here
 F C G 
There's something here that I just can't explain
 F C 
I know I'm where I belong
 F C G 
Deep down inside I am no longer lost!


CHORUS:
 C Am 
I won't let you go       (This is what you really want)
 Am F 
So don't let go of me    (This is what you asked for)
 C Am 
I wanted something more  (This is what you really want)
 Am F 
I wanted this right here (This is what you asked for)


VERSE:
 C                         
  No one can ever follow
 G/B 
  No one can ever know
 Dm7 C 
  Wind up the spinning top and watch it go, watch it go
 C 
  Never gonna be easy, was it?
 G/B 
  You didn't think it'd be so much fun
 Dm7 C 
  Smile comes despite the danger get some get some


PRE-CHORUS:
 F C 
There's something happening here
 F C G 
There's something here that I just can't explain
 F C 
I know I'm where I belong
 F C G 
Deep down inside I am no longer lost!


CHORUS:
 C Am 
I won't let you go       (This is what you really want)
 Am F 
So don't let go of me    (This is what you asked for)
 C Am 
I wanted something more  (This is what you really want)
 Am F 
I wanted this right here (This is what you asked for)

 C Am 
Keep laugh until it hurts
 Am F 
It hurts 'till we learn
 C Am 
Down the point of fear
 Am F 
But there's joy somehow in me!


BRIDGE:
        C Am G F 
You're not as strong as I am               x2

 C Am 
Oooh oh oh, this is what you really want
 Am F 
Oooh oh oh, this what you asked for
 C Am 
Oooh oh oh, this is what you really want
 Am F 
Oooh oh oh, this what you asked for


CHORUS:
 C Am 
I won't let you go       (This is what you really want)
 Am F 
So don't let go of me    (This is what you asked for)
 C Am 
I wanted something more  (This is what you really want)
 Am F 
I wanted this right here (This is what you asked for)

             C                      
This is that 1, 2, 3, 4
 Am 
Now come back to carry us
''                 F 
Now 1, 2, 3, 4 now  now   (This is what you asked for)
             C 
This is that 1, 2, 3, 4
 Am 
Now come back to carry us
''                 F 
Now 1, 2, 3, 4 now  now   (This is what you asked for)


If you have any suggestions/corrections, please let us know in the comments!

False Alarm chords – Smile Empty Soul

 This is a very simple song to play, it uses the same four bar chords throughout 
the whole song(F - Ab - Eb - Bb). If you're playing acoustic (or if you just want 
to use open chords) you can tune your guitar down a half step and play Em - G - D - A.

Intro, 2 bars

 F Ab 
Glass shard sticking out of my heart
          Eb Bb 
Now the summer has subsided for the rain
 F Ab 
Last time take a look in these eyes
         Eb Bb 
Spend eternity escaping from the pain

 F Ab 
Last chance when the hummingbirds dance
          Eb Bb 
And the river's overflowing on its banks
 F Ab 
Hold tight when the weather is right
           Eb Bb 
There's another that awaits to take your place

Break for 2 bars
          
 F Ab 
  False alarm I could have sworn
       Eb Bb 
That something else was going on
 F Ab 
 False alarm I could have sworn
       Eb     
That something else 



Just follow this pattern and listen for the changes and you'll do just fine. 

Chemicals Tabs by Smile Empty Soul

 Smile Empty Soul: Chemicals

: mysticguitar77

YouTube Channel: MysticGuitar77

Date last modified: January 30, 2014

Tuning: Drop C# (C#,G#,C#,F#,A#,D#)

Riff 1 (clean w/ phaser)
D#|---------------------------------------------------------------------|
A#|---------------------------------------------------------------------|
F#|---------------------------------------------------------------------|
C#|---------------------------------------------------------------------|
G#|-8-10-10-8-10-8-10/12--12-12-12-12-8-10-10-8-10-8-10/12--12-12-12-12-|
C#|-0-0--0--0-0--0-0--0---0--0--0--0--0-0--0--0-0--0-0--0---0--0--0--0--|

D#|-------------------------------------------------------|
A#|-------------------------------------------------------|
F#|-------------------------------------------------------|
C#|-------------------------------------------------------|
G#|-8-10-10-8-10/12-8--5-5-5-5-8-10-10-8-10/12-8--5-5-5-5-|
C#|-0-0--0--0-0--0--0--0-0-0-0-0-0--0--0-0--0--0--0-0-0-0-|

Play Riff 1 x2

Riff 2 (distortion)
D#|---------------------------------------------------------------------|
A#|---------------------------------------------------------------------|
F#|-10-12-12-10-12-10-12/14--14-14-14-10-12-12-10-12-10-12/14--14-14-14-|
C#|-x--x--x--x--x--x--x--x---x--x--x--x--x--x--x--x--x--x--x---x--x--x--|
G#|-8--10-10-8--10-8--10/12--12-12-12-8--10-10-8--10-8--10/12--12-12-12-|
C#|-0--0--0--0--0--0--0--0---0--0--0--0--0--0--0--0--0--0--0---0--0--0--|

D#|---------------------------------------------------------|
A#|---------------------------------------------------------|
F#|-10-12-12-10-12/14-10--7-7-7-10-12-12-10-12/14-10--7-7-7-|
C#|-x--x--x--x--x--x--x---x-x-x-x--x--x--x--x--x--x---x-x-x-|
G#|-8--10-10-8--10/12-8---5-5-5-8--10-10-8--10/12-8---5-5-5-|
C#|-0--0--0--0--0--0--0---0-0-0-0--0--0--0--0--0--0---0-0-0-|

Play Riff 2 x2
Play Riff 1 x2   "Every time I see your face..."

Riff 3   "There ain't nothing left here for you to say..."
D#|----------------------|
A#|------------3---------|
F#|-10----7----2----5----|
C#|-8-----5----0----3----| just the chords, strumming pattern is 
G#|-8-----5----0----3----| pretty straightforward
C#|-8-----5----0----3----|
               ^ end on this chord final time

Play Riff 3 x4   "...so shut your mouth..."
Play Riff 2 x1
Play Riff 1 x2   "Every time I speak the truth..."
Play Riff 3 x4   "There ain't nothing left here for you to say..."

Solo/lead
D#|--------------------------------------------------------|
A#|--------------------------15-15-15-15-15-15-15-13-13-13-|
F#|-10-12-12-10-12-10-12/14--14-14-14-14-14-14-14-14-14-14-|
C#|-x--x--x--x--x--x--x--x---x--x--x--x--x--x--x--x--x--x--|
G#|-8--10-10-8--10-8--10/12--12-12-12-12-12-12-12-12-12-12-|
C#|-0--0--0--0--0--0--0--0---------------------------------|

D#|-------------------------------------------------------------------|
A#|-------------------------------------------------------------------|
F#|-12-12-11-11~--------------------10-12-12-10-12/14-10--7-7-7-7-7-7-|
C#|---------------10-10-10-10-10-10-x--x--x--x--x--x--x---x-x-x-x-x-x-|
G#|---------------------------------8--10-10-8--10/12-8---5-5-5-5-5-5-|
C#|---------------------------------0--0--0--0--0--0--0---0-0-0-0-0-0-|

D#|----------------------------------|
A#|----------------------------------|
F#|-5/7-7-7--5-5-7-7\5/7\5/10--10-10-|
C#|-x-x-x-x--x-x-x-x-x-x-x-x---x--x--|
G#|-3/5-5-5--3-3-5-5\3/5\3/8---8--8--|
C#|----------------------------------|

D#|--------------------------------------------|
A#|--------------------------15-15-15-15-15-15-|
F#|-10-12-12-10-12-10-12/14--14-14-14-14-14-14-|
C#|-x--x--x--x--x--x--x--x---x--x--x--x--x--x--|
G#|-8--10-10-8--10-8--10/12--12-12-12-12-12-12-|
C#|--------------------------------------------|

D#|------------------------------------------|
A#|-18-18-18---------------------------------|
F#|----------17-17-----------------------

International Smile chords – Katy Perry V2

 
Hi there!  This was a request over at Live Love Guitar and
I actually had it mostly tabbed from when the album came out,
but that bridge part was driving me nuts so I had put it off
and forgot about it.  Well, it's done now and it sounds good :)


**IMPORTANT NOTES**
-The intro timing is tough. Just follow the strumming as indicated.

-All the verses are 2 BEATS PER CHORD.  It's easy to get the timing
once you get going (the chorus is different but it's easy to stay
on beat, just play along with the song!)

-THE BRIDGE: One strum per chord, might take a couple tries to get
the timing.  Again- PLAY ALONG WITH THE SONG!

-For the last part of the bridge, to keep the timing, I put the lyrics
for the chorus in there and it really helps having it that way.
There's no singing except for that last line indicated with '**'.
Hope it makes sense!



STANDARD TUNING w/
CAPO ON 5


Intro (strumming)            *-once
Bm- down,up,down,up (pause) D* Em*
Bm- down,up,down,up (pause) D* Em*


 G Bm A Em G 
  Flowers in her hair, she don't care
      Bm A Em G 
Peach  pink lips, yeah, everybody stares
         Bm A Em 
Ooh Ooh Ooh You think you've seen her in a magazine
 G Bm A Em G 
Ooh Ooh Ooh It's like she walked right out of your dreams


      Bm A Em G 
Black ray-bans, you know she's with the band
     Bm A Em 
Passport stamps, she's cosmopolitan
 G Bm A Em 
Ooh Ooh Ooh, yeah she runs the place like Penny lane
 G Bm A Em G  -once
Ooh Ooh Ooh, yeah your lucky if you're on her plane


                             Bm  -once
From Tokyo, to Mexico, to Rio!


      G Bm A G Bm A 
That girl's a trip, a one way ticket
           G Bm A 
Takes you miles high, so high,
        G D Bm A 
'cause she's got that one international smile
       G Bm A 
Catch her if you can
             G Bm A 
Yeah, she's so in demand
           G Bm A 
Takes you miles high, so high,
        G D Bm A 
'Cause she's got that one international smile



Bm- down,up,down,up (pause) D* Em*


                G Bm A Em G 
She's got that, je ne sais quoi, you know it
   Bm A Em 
So  tres chic, yeah, she's a classic
 G Bm A Em 
Ooh Ooh Ooh, but she's footloose and so fancy free
 G Bm A Em G 
Ooh Ooh Ooh, yeah, she dances to her own beat


             Bm A Em G 
'Cause she's the muse and the artist
    Bm A Em 
Al-ways leaves a trail of stardust
 G Bm A Em 
Ooh Ooh Ooh,'Cause she's a little bit of Yoko,
 G Bm A Em G  -once
Ooh Ooh Ooh,and she's a little bit a "oh no"


                    Bm *  Bm *   Bm *  -*once
From LA, Miami, to New York City!



      G Bm A G Bm A 

Sitting Ducks Tabs by Smile Empty Soul V2

 Smile Empty Soul: Sitting Ducks

: mysticguitar77

YouTube Channel: MysticGuitar77

Date last modified: January 28, 2014

Tuning: Drop C# (C#,G#,C#,F#,A#,D#)

Riff 1 (clean w/ some chorus)
D#|---------------------------------------------------------------------|
A#|----3---3---3---3-----7---7---7---7---7---7---7---7------------------|
F#|------------------------------------------------------7---7---6---6\-|
C#|---------------------------------------------------------------------|
G#|-/2---2---2---2---2/5---5---5---5------------------------------------|
C#|------------------------------------5---5---5---5---5---5---5---5----|

Play Riff 1 x4   "Shut down, falling..."

Riff 2   "We squawk like silly birds making all of the noises..."
D#|---------------------------------------------------------------------|
A#|----3---3---3---3-----7---7---7---7---7---7---7---7------------------|
F#|------------------------------------------------------7---7---7---7--|
C#|---------------------------------------------------------------------|
G#|-/2---2---2---2---2/5---5---5---5------------------------------------|
C#|------------------------------------5---5---5---5---5---5---5---5----|

Play Riff 2 x2   "We have all of the poisons in a row..."
Play Riff 1 x4   "Zone out, lie down..."
Play Riff 2 x2   "We squawk like silly birds making all of the noises..."
                  (2nd time through gets cut short)

Riff 3 (w/ distortion)   "In a row..."
D#|-----------------------------------------------------------------|
A#|-------------------------------------7-7-7---7-7-7---------------|
F#|-4-4-4-4-4-4-4-4-7-7-7-7-7-7-7-7-----7-7-7---7-7-7---7-7-7-6-6-6-|
C#|-4-4-4-4-4-4-4-4-7-7-7-7-7-7-7-7-5-5-5-5-5-5-5-5-5-5-5-5-5-5-5-5-|
G#|-2-2-2-2-2-2-2-2-5-5-5-5-5-5-5-5-5-5-5-5-5-5-5-5-5-5-5-5-5-5-5-5-|
C#|---------------------------------5-5-5-5-5-5-5-5-5-5-5-5-5-5-5-5-|

Play Riff 3 x2

Riff 4 (back to clean)
D#|------------------------------------------------------------------|
A#|----3---3---3---3---3---3---3---3---------------------------------|
F#|------------------------------------4---4---4---4-----------------|
C#|----------------------------------------------------7---7---7---7-|
G#|-/2---2---2---2---2---2---0---0-----------------------------------|
C#|----------------------------------5---5---5---5---5---5---5---5---|

Play Riff 4 x2   (2nd time through gets cut short)

Riff 5    "We squawk like silly birds making all of the noises..."
D#|---------------------------|
A#|-3-------7-------7---------|
F#|-------------------------7-|
C#|---------------------------|
G#|-2-------5-----------------|
C#|-----------------5-------5-|

Play Riff 5 x2   (pluck with pick/fingers and let chords ring out)
Play Riff 3 x4   "In a row..."

Ending   "In a row..."
D#|------------------|
A#|------------------|
F#|-4~---------------|
C#|-4~---------------|
G#|-2~---------------|
C#|------------------|

Enjoy!!

Black And Blue Tabs by Smile Empty Soul

 Smile Empty Soul: Black And Blue

: mysticguitar77

YouTube Channel: MysticGuitar77

Date last modified: January 28, 2014

Tuning: Drop C# (C#,G#,C#,F#,A#,D#)

Riff 1
D#|-------------------------------------------------|
A#|-------------------------------------------------|
F#|-4-4-4-4-3-4-7-7-7-7-----------------------------|
C#|-4-4-4-4-3-4-7-7-7-7-2-4-5-5-5-5-4-2-5-5-5-5-2-0-|
G#|-2-2-2-2-1-2-5-5-5-5-2-4-5-5-5-5-4-2-5-5-5-5-2-0-|
C#|-4-4-4-4-3-4-7-7-7-7-2-4-5-5-5-5-4-2-5-5-5-5-2-0-|

I know those chords look funky, but I'm 100% sure based on a live video that
that is how Shaun plays it. You can omit those notes on the low C# string
if you want and it'll still sound relatively close, just won't sound as
heavy as it does on the record.

Play Riff 1 x2

Riff 1 (lead guitar bit that comes in second time through)
D#|-----------------------------------------------------------|
A#|-----------------------------------------------------------|
F#|-4-4-4-4-3-4-7-7-7-7-9-11-12-12-12-12-11-9-12-12-12-12-9-7-|
C#|-x-x-x-x-x-x-x-x-x-x-x-x--x--x--x--x--x--x-x--x--x--x--x-x-|
G#|-2-2-2-2-1-2-5-5-5-5-7-9--10-10-10-10-9--7-10-10-10-10-7-5-|
C#|-----------------------------------------------------------|

Riff 2   "You're crossing over, faulting your weakness..."
D#|---------------------------------------------------------|
A#|---------------------------------------------------------|
F#|-4-4-4-4-4-3-4-7-7-7-7-7---------------------------------|
C#|-4-4-4-4-4-3-4-7-7-7-7-7-2-4-5-5-5-5-5-4-2-5-5-5-5-5-2-0-|
G#|-2-2-2-2-2-1-2-5-5-5-5-5-2-4-5-5-5-5-5-4-2-5-5-5-5-5-2-0-|
C#|-------------------------2-4-5-5-5-5-5-4-2-5-5-5-5-5-2-0-|
      * * *         * * *         * * *         * * *

Play Riff 2 x2   "Time to discover, where its the deepest..."

Riff 3   "I don't understand how you look right through it..."
D#|-2--2-2-2--2-2-----------------------------------------|
A#|-3--3-3-3--3-3-----------------------------------------|
F#|-4--4-4-4--4-4--------------7--7-7-7--7-7--------------|
C#|-4--4-4-4--4-4-5-5--5-5-5-5-7--7-7-7--7-7-2-2--2-2-2-2-|
G#|-2--2-2-2--2-2-5-5--5-5-5-5-5--5-5-5--5-5-2-2--2-2-2-2-|
C#|---------------5-5--5-5-5-5---------------2-2--2-2-2-2-|

D#|--------------------------|
A#|--------------------------|
F#|--------------------------|
C#|-2/5-5-5-5--5-5-7-7-7-7-7-|
G#|-2/5-5-5-5--5-5-7-7-7-7-7-|
C#|-2/5-5-5-5--5-5-7-7-7-7-7-|

Riff 4   "Black and blue you stare into the void..."
D#|-------------------------------------------------------|
A#|-------------------------------------------------------|
F#|-4--4-4-4--4-4--4-4-4-7-7------------------------------|
C#|-4--4-4-4--4-4--4-4-4-7-7---5--5-5-5--5-5--5-5---7-7---|
G#|-2--2-2-2--2-2--2-2-2-5-5---5--5-5-5--5-5--5-5---5-5---|
C#|-4--4-4-4--4-4--4-4-4-7-7-0-5--5-5-5--5-5--5-5-0-4-4-0-|

D#|----------------------------------------------------|
A#|-5--5-5-5--5-5--5-5-5-------------------------------|
F#|-4--4-4-4--4-4--4-4-4-2-2---7--7-7-7--7-7-9-9-9-9-9-|
C#|-2--2-2-2--2-2--2-2-2-0-0---5--5-5-5--5-5-7-7-7-7-7-|
G#|-2--2-2-2--2-2--2-2-2-0-0---5--5-5-5--5-5-7-7-7-7-7-|
C#|-2--2-2-2--2-2--2-2-2-0-0-0-5--5-5-5--5-5-7-7-7-7-7-|

Play Riff 1 x2   "Black and blue!!"
Play Riff 2 x2   "You coulda caught it, you know the season..."
Play Riff 3 x1   "I don't understand how you look right through it..."
Play Riff 4 x2   "Black and blue you stare into the void..."

Riff 5
D#|-----------------------------------------------------|
A#|-----------------------------------------------------|
F#|-4-4-4-4-/7-----------/7-----------------------------|
C#|-4-4-4-4-/7-7-5-5-5-5-/7-7-2-2-2-2-0-2-2-2-0-2/4-2-0-|
G#|-2-2-2-2-/5-7-5-5-5-5-/5-7-2-2-2-2-0-2-2-2-0-2/4-2-0-|
C#|-4-4-4-4----7-5-5-5-5----7-2-2-2-2-0-2-2-2-0-2/4-2-0-|

Play Riff 5 x4   "Losing ground!!"

Fill 1
D#|--------------------|
A#|--------------------|
F#|--------------------|
C#|-5-5-0-5----7-7-0-7-|
G#|-5-5-0-5----7-7-0-7-|
C

Smile For A While chords – Smile For A While

 Am - G - Bm - C Am - G - Bm - F#m Am - Bm - Am - D C - D -

 G - C - C Am - G - Bm - C Am - G - Bm - F#m Am - Bm - Am - D C - D -

 G - C - C Am - G - Bm - C Am - G - Bm - F#m Am - Bm - Am - D C - D -

 G - C - C Am - G - Bm - C Am - G - Bm - F#m Am - Bm - Am - D C - D -

 G - C - C Am - G - Bm - C Am - G - Bm - F#m Am - Bm - Am - D C - D -

 G - C - C Am - G - Bm - C Am - G - Bm - F#m Am - Bm - Am - D C - D -

 G - C - C Am - G - Bm - C Am - G - Bm - F#m Am - Bm - Am - D C - D -

 G - C - C Am - G - Bm - C Am - G - Bm - F#m Am - Bm - Am - D C - D -

 G - C - C Am - G - Bm - C Am - G - Bm - F#m Am - Bm - Am - D C - D -

 G - C - C Am - G - Bm - C Am - G - Bm - F#m Am - Bm - Am - D C - D -

 G - C - C Am - G - Bm - C Am - G - Bm - F#m Am - Bm - Am - D C - D -

 G - C - C Am - G - Bm - C Am - G - Bm - F#m Am - Bm - Am - D C - D -

 G - C - C Am - G - Bm - C Am - G - Bm - F#m Am - Bm - Am - D C - D -

 G - C - C Am - G - Bm - C Am - G - Bm - F#m Am - Bm</span

False Alarm Tabs by Smile Empty Soul V2

 Smile Empty Soul: False Alarm

: mysticguitar77

YouTube Channel: MysticGuitar77

Date last modified: January 26, 2014

Tuning: Drop C# (C#,G#,C#,F#,A#,D#)

Riff 1 (palm muted and with a lot of bass and reverb)
D#|-------------------------------------------------------------|
A#|-------------------------------------------------------------|
F#|-------------------------------------------------------------|
C#|-4-4-4--4-4-4-4-7-7-7--7-7-7-0-0-0-0--0-0-0-0-4-4-4--4-4-4-0-|
G#|-4-4-4--4-4-4-4-7-7-7--7-7-7-0-0-0-0--0-0-0-0-2-2-2--2-2-2-0-|
C#|-4-4-4--4-4-4-4-7-7-7--7-7-7-0-0-0-0--0-0-0-0-4-4-4--4-4-4-0-|

Play Riff 1 x2

Riff 2   "Glass shards sticking out of my heart..."
D#|---------------------------------------------------|
A#|---------------------------3--3--3--3-3------------|
F#|---------------------------2--2--2--2-2------------|
C#|-4--4--4--4-4-7--7--7--7-7-0--0--0--0-0-4--4--4--0-|
G#|-4--4--4--4-4-7--7--7--7-7-0--0--0--0-0-2--2--2--0-|
C#|-4--4--4--4-4-7--7--7--7-7-0--0--0--0-0-4--4--4--0-|

Play Riff 2 x4   "Last time take a look in these eyes..."

Riff 3 (clean)
D#|--------------------------------------0--0-0-|
A#|--------------------------------------3--3-3-|
F#|-----6--6-6-----9--9-9-----4--4-4-----2--2-2-|
C#|-----4--4-4-----7--7-7-----2--2-2-----0--0-0-|
G#|---4-4--4-4---7-7--7-7---2-2--2-2---0-0--0-0-|
C#|-4---4--4-4-7---7--7-7-2---2--2-2-0---0--0-0-|

Play Riff 3 x6   "False alarm, I could have sworn..."
                  (obvious break in 2nd time through)
Play Riff 2 x4   "Glass shards sticking out of my heart..."

Riff 4 (Guitar 1)
D#|-----------------------------------------------|
A#|-3--3--3-3-3-3--3-3-3-3------------------------|
F#|-2--2--2-2-2-2--2-2-2-2-6--6--6-6-6-6--6-6-6-6-|
C#|-0--0--0-0-0-0--0-0-0-0-4--4--4-4-4-4--4-4-4-4-|
G#|-0--0--0-0-0-0--0-0-0-0-4--4--4-4-4-4--4-4-4-4-|
C#|-0--0--0-0-0-0--0-0-0-0-4--4--4-4-4-4--4-4-4-4-|

D#|------------------------------------------------|
A#|-3--3--3-3-3-3--3-3-3-3-------------------------|
F#|-2--2--2-2-2-2--2-2-2-2-4-4-4-4-7-7-7-7-7-------|
C#|-0--0--0-0-0-0--0-0-0-0-4-4-4-4-7-7-7-7-7-7-7-7-|
G#|-0--0--0-0-0-0--0-0-0-0-2-2-2-2-5-5-5-5-5-7-7-7-|
C#|-0--0--0-0-0-0--0-0-0-0-------------------7-7-7-|

Riff 4 (Guitar 2, just the chords, not exact strumming pattern)
D#|-----------------------------------------------------|
A#|-----------------------------------------------------|
F#|-14--16--18--14--/18--11----14--16--18--14--16b--11~-|
C#|-x---x---x---x----x---x-----x---x---x---x---x----x---|
G#|-12--14--16--12--/16--9-----12--14--16--12--14b--9~--|
C#|-----------------------------------------------------|

Play Riff 2 x4   "Glass shards sticking out of my heart..."
Play Riff 4 x1   (beginning of riff gets repeated this time,
                  listen to song for this)
Play Riff 3 x2   (let last chord ring out)

Enjoy!!