Tag: somebody

Are You That Somebody acoustic chords by Siren Gene

Capo 1

Emadd9   022030

[Intro]
Em   Am7   Bm Bm7  Em
Em   Am7   Bm Bm7  Em

[Verse 1]
    Em                                 Am7
Oh boy, I've been watching you like a hawk in the sky
       Bm            Bm7      Emadd9 
That flies, and you were my prey
 Em                       Am7
Boy, I promise you if we keep bumpin' heads
    Bm7                   Em
I know that one of these days
 Em                         Am7
We gon' hook it up, pro'ly talk on the phone
     Bm            Bm7           Em
But see, I don't know if that's good
Em                           Am7
I've been holdin' back this secret from you
    Bm 
I probably shouldn't tell it, but

[Chorus]
  Em
  If I, if I let you know
Am7
  You can't tell nobody
Bm7
  I'm talkin' bout nobody
Emadd9
  Are you responsible?
Am7
  Boy I gotta watch my back
Bm7
  Cause I'm not just anybody
Emadd9
  Is it my go? Is it your go?
Am7
  Sometimes I'm goody-goody
Bm7
  Right now naughty-naughty
Emadd9
  Say yes or say no
Am7
  Cause I really need somebody
Bm7
  Tell me are you that somebody?

[Verse 2]
 Em                               Am7
Boy, won't you pick me up at the park right now
         Bm7                     Em     Emadd9  Em
Up the block, while everyone's sleep, sleeps, sleeps
Em                               Am7               Bm7
I'll be waiting there with my trench, my locs, my hat
                 Em
Just so I'm low key
                 Am7   Bm7
If you tell the world
    Emadd9                            Am7
Oh boy, see I'm trusting you with my heart, my soul
      Bm7
I probably shouldn't let you but 

[Chorus]
  Emadd9
  If I, if I let you know
Am7
  You can't tell nobody
Bm7
  I'm talkin' bout nobody
Emadd9
  I hope you're responsible
Am7
  Boy I gotta watch my body
Bm7
  I'm not just anybody
Emadd9
  Is it my go?  Is it your go
Am7
  Sometimes I'm goody-goody
Bm7
  Right now I'm naughty-naughty
Emadd9
  Say yes or say no
        Am
  Cause I really need somebody
   Bm7 
  Tell me are you that somebody

[Outro]
Em   Am7   Bm Bm7  Em
Em   Am7   Bm Bm7  Em

Somebody Else Is Taking My Place chords – Connie Francis

 C A7 D7 
Somebody else  is taking my place

 G7 C 
Somebody else  now shares your embrace

 F C A7 
While I am trying  to keep from crying

 D7 G7 
You go around with a smile on your face


 C A7 D7 
Little you care  for vows that you made

 G7 C 
How little you care  how much I have paid

 F C A7 
My heart is aching  my heart is breaking

     D7 G7 C 
For somebody's taking my place


            A7 D7 
Little you care  for vows that you made

 G7 C 
How little you care  just how much I’ve paid

 F C A7 
My heart is aching  my heart is breaking

     D7 G7 C 
For somebody's taking my place

Somebody Else Tabs – The 1975

 -------------------------------------------------------------------------------
                        // S O M E B O D Y  E L S E //
                                  
                                   The 1975
-------------------------------------------------------------------------------

: mileskane

Tuning: Standard (EADGBe)

Adam Hann's solo, tabbed from live performance at Guild of Students, Liverpool, 9/11/2015

e|---------------------------------------------------------------------------|
B|-15b17r15-------15-15-----------15b17r15-------15-15-----------------------|
G|----------14-17--------------------------14-17-----------------------------|
D|---------------------------------------------------------------------------|
A|---------------------------------------------------------------------------|
E|---------------------------------------------------------------------------|

e|---------------------------------------------------------------------------|
B|-15b17r15-------15-15-----------15b17r15-------15--------------------------|
G|----------14-17--------------------------14-17----16-14--------------------|
D|---------------------------------------------------------------------------|
A|---------------------------------------------------------------------------|
E|---------------------------------------------------------------------------|

e|---------------------------------------------------------------------------|
B|-15b17r15-------------15-15-----15b17r15-------15-15-----------------------|
G|----------16p14----17--------------------14-17-----------------------------|
D|----------------17---------------------------------------------------------|
A|---------------------------------------------------------------------------|
E|---------------------------------------------------------------------------|

e|---------------------------------------------------------------------------|
B|-15b17r15-------15-15-----------17-18-17-15----15--------------------------|
G|----------14-17-----------------------------17----17-----------------------|
D|---------------------------------------------------------------------------|
A|---------------------------------------------------------------------------|
E|---------------------------------------------------------------------------|

************************************

| b   Bend
| r   Release

************************************

Somebody To Love chords by Queen V3

 Somebody To Love -capo 1

     G D/F# Em C C D C D G 
Can a  ny   bo   dy find me    somebody to  love?

 G D/F# Em C D G D/F# Em 
Each morning I get up I die a little
     G A D 
Can barely stand on my feet
        G D/F# Em A7 
Take a look in the mirror and cry
                           D 
Lord what you're doing to me
        G A D 
I have spent all my years in believing you
       D A7 D C 
But I just can't get no relief,  Lord!
 G G 
Somebody, somebody
     G D/F# Em C D G 
Can anybody find me   somebody to love?

 G D/F# Em C D G D/F# Em 
I work hard every day of my life
   G A D 
I work till I ache my bones
        G D/F# Em                           
At the end          I take home my 
 A7 D    
Hard earned pay all on my own
       G A D 
I get down on my knees and I start to pray
          D A7 D C 
Till the tears run down from my eyes Lord
 G G 
Somebody - somebody
     G D/F# Em C D G G G7 
Can anybody find me   somebody to love?

 C 
   He works hard everyday 
    C7 
I try and I try and I try
     F 
But everybody wants to put me down
      Fm 
They say I'm goin' crazy
 A 
They say I got a lot of water in my brain
Got no common sense
                        D 
I got nobody left to believe
 Dsus4 D Dsus4 D Dsus4 D Dsus4 D 
Yeah      yeah      yeah      yeah

(Solo) -same chords as verses
    D 
Oh Lord
 G G 
Somebody   somebody
     G D/F# Em C D G          
Can anybody find me   some   body to love?

 G D/F# Em C D G 
        Can you find me, find me, someone to love

        G D/F# Em 
Got no feel      I got no rhythm
  G A D 
I just keep losing my beat
     G D/F# Em 
I'm ok      I'm alright     (he's alright)
 A7 D 
Ain't gonna face no defeat
        G A D 
I just gotta get out of this prison cell
     D A7 D C 
Someday I'm gonna be free, Lord!

Break (G)

     G D/F# Em C D G          
Can anybody find me   somebody to love?

(Outro)   
 G D/F# Em C D  (a few times)

Dairybeat – To Love Somebody – Bee Gees – Cover chords

 DAIRYBEAT: TO LOVE SOMEBODY (Barry & Robin Gibb) 4/4 – 94

|./.    |: Repeat the previous Chord and/or Measure of 4-Counts.
/  //    : Breaks and/or Down Beats
n.c.     : No Chord


Intro:

 |n.c.           |n.c.       |D        |./.            |./.    |
                                              THERE’S A LIGHT,
e┌────────────────────────────────────────────────┐
b├────3───5─3─────────────────────────────────────┤
g├2─4───4─────4─0─4─2─────────────────────────────┤
d├────────────────────────────────────────────────┤
a├──────────────────────0─0─0─────0─0─0─────0─0─0─┤
e└────────────────────────────────────────────────┘

Verse 1:

 Em                          | G                     | D     |
   A CERTAIN KIND OF LIGHT,   THAT NEVER SHONE ON ME,

 C                   | D               | A                | G 
  I WANT MY LIFE TO BE,  LIVED WITH YOU,  LIVED WITH YOU.

       | D     | Em                     | G                             | D     |
THERE’S WAY,     EV’RYBODY’S SAYIN’,   TO DO EACH AND EV’RY LITTLE THING,

 C                  | D                      | A           | G         |
  BUT WHAT DOES IT BRING,  IF I AIN’T GOT YOU,  AIN’T GOT, BABY.

Chorus:
                                                                     /
                                                               1  2  3
 D                        | A            | G                        | D 
YOU DON’T KNOW WHAT IT’S LIKE,  BABY, YOU DON’T KNOW WHAT IT’S LIKE.

             /    //              /    //           /        //
            | A                    | G                 | D           |
TO LOVE SOME-BODY,   TO LOVE SOME-BODY,   THE WAY I LOVE YOU.

Interlude:

 |n.c.           |n.c.        |D      |./.         |./.    |
                                              IN MY BRAIN,
e┌────────────────────────────────────────────────┐
b├────3───5─3─────────────────────────────────────┤
g├2─4───4─────4─0─4─2─────────────────────────────┤
d├────────────────────────────────────────────────┤
a├──────────────────────0─0─0─────0─0─0─────0─0─0─┤
e└────────────────────────────────────────────────┘

Verse 2:

 Em                        | G                    | D     |
   I SEE YOUR FACE AGAIN,   I KNOW MY FRAME OF MIND,

 C                        | D               | A                | G 
  YOU AIN’T GOT TO BE SO BLIND,  AND I’M BLIND,  SO SO SO BLIND.

     | D     | Em                          | G                        | D     |
I’M A MAN,     CAN’T YOU SEE WHAT I AM,   I LIVE AND BREATHE FOR YOU,

 C                       | D                   | A           | G          |
  BUT WHAT GOOD DOES IT DO,  IF I AIN’T GOT YOU,  AIN’T GOT,  BABY.

Chorus + Outro:
                                                                     /
                                                               1  2  3
 D                        | A            | G                        | D 
YOU DON’T KNOW WHAT IT’S LIKE,  BABY, YOU DON’T KNOW WHAT IT’S LIKE.

             /    //              /    //           /        //
            | A                    | G                 | D           |
TO LOVE SOME-BODY,   TO LOVE SOME-BODY,   THE WAY I LOVE YOU.

 A        |
OH, BABY.
                                                                     /
                                                               1  2  3
 D                        | A            | G<

You Might Need Somebody chords – Randy Crawford V2

 My first Tab :-)


INTRO:
 Ebm ,  A ,  Ebm ,  A ,  Ebm  (Can't actualy describe when the "A" comes. You can also ignore it)
 Ebm / Fm / Ebm 


VERSE 1:

      Ebm Abm Gb 
When sombody reaches for your heart

 Abm Gb Bb 
    open up and let them through

      Ebm Abm Gb 
everybody needs someone around

 Abm Gb Db Dbsus4/Db / Dbsus4/Db 
things can tumble down on you


VERSE 2:

     Ebm Abm Gb 
You discover when you look around

 Abm Gb Bb 
    you don't have to be alone

          Ebm Abm Gb 
just one lover is all you need to know

 Abm Gb Db Dbsus4/Db / Dbsus4/Db 
    when you're feeling all alone


CHORUS:

    Abm  
oh you might need somebody

    Abm Bbm ,  Ab 
oh you might need somebody, too

           Ebm 
you might need somebody, too


2x SOLO


VERSE 3:

        Ebm Abm Gb 
If there's fire stirring in your heart

 Abm Gb Bb 
    and you're sure it's strong and right

         Ebm Abm Gb 
Keep it burning, through the cold and dark,

 Abm Gb Db Dbsus4/Db / Dbsus4/Db 
    It can warm your lonely nights


CHORUS:

    Abm  
oh you might need somebody

    Abm Bbm ,  Ab 
oh you might need somebody, too

           Ebm 
you might need somebody, too

I Dont Wanna Love Somebody Else chords – A Great Big World

 A Great Big World - I Dont't Wanna Love Somebody Else
From the  Is There Anybody Out There? (2014)
Comment for any corrections and please rate


Capo 3

Intro:  D Em D Em 
Oh, I built a world around you
 D Em 
Oh, you had me in a dream, 
                            D 
I lived in every word you said
       A F# 
The stars had aligned
                   Bm A 
I thought that I found you
     G A D Em 
And I don't wanna love somebody else

 D Em 
Oh, we left it all unspoken
 D Em 
Oh, we buried it alive,
                               D  
And now it's screaming in my head
 D Em 
Oh, I shouldn't go on hoping
 D Em 
Oh, that you will change your mind,
                              D 
And one day we could start again
      A F# Bm A 
Well I don't care if loneliness kills me
 G A D A Bm G A G 
I don't wanna love somebody else

 D Em 
Oh, I thought that I could change you
 D Em D 
Oh, I thought that we would be the greatest story that I tell
     A F# Bm A 
I know that it's time to tell you it's over
     G A Bm G A D 
But I don't wanna love somebody else

I Dont Wanna Love Somebody Else Acoustic Tabs by A Great Big World

 A Great Big World - I Don't Wanna Love Somebody Else
From the  Is There Anybody Out There? (2014)
This is my first acoustic tab so comment for any corrections and please rate

The original is played with the capo on the 3rd fret, if you want to play it
with capo 3 you can use these tabs though I think that it might sound a little off-tone.


Capo 8

Intro:
   C
E|------------------|
B|--1---1---1---1---|
G|----0---0---0---0-|
D|------------------|
A|-3-3-3-3-3-3-3-3--|
E|------------------|

Verse 1: 2x                              1x
   C               F                     C
E|----------------------------------| E|------------------|
B|--1---1---1---1---1---1---1---1---| B|--1---1---1---1---|
G|----0---0---0---0---2---2---2---2-| G|----0---0---0---0-|
D|----------------------------------| D|------------------|
A|-3-3-3-3-3-3-3-3-3-3-3-3-3-3-3-3--| A|-3-3-3-3-3-3-3-3--|
E|----------------------------------| E|------------------|

Chorus: 1x
   G       E       F                       G       C
E|------------------------------------------------------------------|
B|--0---0---0---0---0---0---1---1---1---1---0---0---1---1---1---1---|
G|----0---0---1---1---2---2---2---2---2---2---0---0---0---0---0---0-|
D|------------------------------------------------------------------|
A|---------2-2-2-2-3-3-3-3-3-3-3-3-3-3-3-3---------3-3-3-3-3-3-3-3--|
E|-3-3-3-3---------------------------------3-3-3-3------------------|

Verse 2: 2x                              1x
   C               F                     C
E|----------------------------------| E|------------------|
B|--1---1---1---1---1---1---1---1---| B|--1---1---1---1---|
G|----0---0---0---0---2---2---2---2-| G|----0---0---0---0-|
D|----------------------------------| D|------------------|
A|-3-3-3-3-3-3-3-3-3-3-3-3-3-3-3-3--| A|-3-3-3-3-3-3-3-3--|
E|----------------------------------| E|------------------|

Verse 3: 2x                              1x
   C               F                     C
E|----------------------------------| E|------------------|
B|--1---1---1---1---1---1---1---1---| B|--1---1---1---1---|
G|----0---0---0---0---2---2---2---2-| G|----0---0---0---0-|
D|----------------------------------| D|------------------|
A|-3-3-3-3-3-3-3-3-3-3-3-3-3-3-3-3--| A|-3-3-3-3-3-3-3-3--|
E|----------------------------------| E|------------------|

Chorus: 1x
   G       E       F                       G       C
E|------------------------------------------------------------------|
B|--0---0---0---0---0---0---1---1---1---1---0---0---1---1---1---1---|
G|----0---0---1---1---2---2---2---2---2---2---0---0---0---0---0---0-|
D|------------------------------------------------------------------|
A|---------2-2-2-2-3-3-3-3-3-3-3-3-3-3-3-3---------3-3-3-3-3-3-3-3--|
E|-3-3-3-3---------------------------------3-3-3-3------------------|

Verse 4: 1x
   C          F          C          F          C
E|--------------------------------------------------------|
B|--------------------------------------------------------|
G|-0----------2----------0----------2----------0----------|
D|--------------------------------------------------------|
A|-3----------3----------3----------3----------3----------|
E|--------------------------------------------------------|

Chorus: 1x
   G       E       F                       G       Am
E|------------------------------------------------------------------|
B|--0---0---0---0---1---1---1---1---1---1---0---0---1---1---1---1---|
G|----0---0---1---1---2---2---2---2---2---2---0---0---2---2---2---2-|
D|------------------------------------------------------------------|
A|---------2-2-2-2-3-3-3-3-3-3-3-3-3-3-3-3---------0-0-0-0-0-0-0-0--|
E|-3-3-3-3---------------------------------3-3-3-3------------------|

Outro: 1x
   F               G                C
E|----------------------------------0-|
B|---1-------1-------0-------0------1-|
G|-------2-------2-------0-------0--0-|
D|----------

I Wanna Dance With Somebody chords – Scott Matthew

 I wanna dance with somebody (Somebody who loves me)

Standard tuning

Capo on 4th fret

I made this Tab based on the music video by Scott Matthew's version of the song. Enjoy!

Intro
 F Dm  2x

     F Dm F Dm 
    The Clocks strikes upon the hour, and the sun begins to fade,
     F Dm F Dm 
    enough time to figure out how to chase my blues away.
     Gm C Dm G 
    I've done alright up on 'til now, it's the light of day that shows   me  how,
          Gm C                
    and when the night falls


    REFRAIN
     F Dm 
    Oh! I wanna dance with somebody, 
     F Dm 
    I wanna feel the heat with somebody.
     F Dm B 
    Yeah! I wanna dance with somebody,
                  C   
    but with somebody who loves me.



    F Dm F Dm 
   I've been in love and I lost my senses, spinning through the town,
    F Dm F Dm 
    sooner or later the fever ends, and I wind up feeling down.
    Gm C 
    I need a man who will take a chance,
           Dm G 
    on a love that'll burn hot enough to last.
         B C 
    my lonely heart calls.  


    REFRAIN 2x

     F Dm 
    Oh! I wanna dance with somebody, 
     F Dm 
    I wanna feel the heat with somebody.
     F Dm B 
    Yeah! I wanna dance with somebody,
                  C   
    but with somebody who loves me.

    OUTRO

     F Dm 
    Don't you wanna dance, with me baby?
     F Dm 
    Don't you wanna dance, with me boy?
     F Dm B C F 
    Don't you wanna dance, with me baby?


Everybodys Got Somebody But Me chords – Hunter Hayes V3

 C D G     
I wish the couple on the corner would just get a room
            C D Em 
Seems like everyone around me's on their honey moon
     C D G 
I’d love to take a pin to a heart shaped balloon
      C D G 
Everybody’s got somebody but me

           C D G 
Well I don’t know how I landed on this movie set
            C D Em 
It’s like a casting call for Romeo and Juliet
   C D G 
I never would of noticed if we never met
          C D G 
But Everybody’s got somebody but me


Chorus
            Em 
And I miss You
     C G 
Without you I just don’t fit in
              Em 
I know we’re through
         G C 
But I'm wishing we could try it again


        C D G 
I hear love songs playin’ on the radio
     C D Em 
And people slow dancing everywhere I go
           C D G 
Well I’m a good slow dancer but you'd never know
     C D G 
Everybody’s got somebody but me


Chorus
            Em 
And I miss You
     C G 
Without you I just don’t fit in
              Em 
I know we’re through
         G C 
But I'm wishing we could try it again


    C D G 
Sitting here lonely at a table for two
          C D Em 
Watching lovers being lovers in the corner booth
   C D G 
Seems like even Cupid don’t know what to do
     C D G 
Everybody’s got somebody but me


       C D G Em 
Yeah I Don’t know if I'll ever find another you
          C D G 
But everybody’s got somebody but me

If You Got Somebody Waiting chords – Joel Alme

 Note: Chords joined with a "-" are suposed to be played quicker.


Capo #2
    
Intro  G Bm C  -  Bm  -  Am C  -  Bm  -  Am  -  D  -  G G Bm   
   I hate days when it was hard to live
 C G  -  D 
   But I've never been afraid to die
          G Bm 
   But I've met someone good
 C A   -   D         
   And now I'm scared like a little child

            G                        
   'Cos I got someone
            Bm 
   'Cos I got somebody waiting
          C    -   Bm      -    Am 
   They always put their heart in
              C    -   Bm    -    Am   -    D    -    G   
   But they really need me, need me, need me back

   If you find someone good
   That stays when others leave
   That cares for you, that fights for you
   You better stay with someone that straight with you

  'Cos if you've got someone
   If you got somebody waiting
   They always puts their heart in
             C  -  Bm    -   Am     -    D   -           C 
   You better give them one more day in your life

   C G C B  (x2)

             E Abm A     -    B 
    If you got someone, got someone waiting (x4)


When played acoustic, Joel adds an outro like this:

 B A Abm F#m E 

 @kint_sugi

Use Somebody Tab by Paramore

Title: Use Somebody (King of Leons Cover)
Artist: Paramore
Album: Radio 1's Live Lounge
Date: November 10, 2009
Transcribed by: Angelo de Guzman - Saint Louis University, Baguio City 
- email, friendster and my facebook :D) Corrections and suggestions are always appreciated :D

Tuning : Standard (e b g d a E) with a capo on the 2nd fret
Legend: x = dead string
        ^ = Bend to fret

Intro:

e|----------------------|----------------------|----------------------|
B|----------------------|----------------------|----------------------|
G|-9--9--9--9--9--9--9--|-9--9--9--9--9--9--9--|----------------------|
D|-10-10-10-10-10-10-10-|-10-10-10-10-10-10-10-|-3-3-3-3-3-3-3-2x-----| - 2x
A|-10-10-10-10-10-10-10-|-10-10-10-10-10-10-10-|-3-3-3-3-3-3-3--------|
E|-8--8--8--8--8--8--8--|-0--0--0--0--0--0--0--|-1-1-1-1-1-1-1--------|

Ohh whoa ah oohh...

e|----------------------|----------------------|----------------------|
B|----------------------|----------------------|----------------------|
G|----------------------|-9--9--9--9--9--9--9--|----------------------|
D|-7-7-7-7-7-7-7--------|-10-10-10-10-10-10-10-|-3-3-3-3-3-3-3-2x-----| - 2x
A|-7-7-7-7-7-7-7--------|-10-10-10-10-10-10-10-|-3-3-3-3-3-3-3--------|
E|-5-5-5-5-5-5-5--------|-8--8--8--8--8--8--8--|-1-1-1-1-1-1-1--------|

Ohh whoa ah oohh...

Verse:

e|----------------------|----------------------|----------------------|
B|----------------------|----------------------|----------------------|
G|-9--9--9--9--9--9--9--|-9--9--9--9--9--9--9--|----------------------|
D|-10-10-10-10-10-10-10-|-10-10-10-10-10-10-10-|-3-3-3-3-3-3-3-2x-----| - 2x
A|-10-10-10-10-10-10-10-|-10-10-10-10-10-10-10-|-3-3-3-3-3-3-3--------|
E|-8--8--8--8--8--8--8--|-0--0--0--0--0--0--0--|-1-1-1-1-1-1-1--------|

I've been roaming around
Always looking down at all I see
Painted faces fill the places I can't reach

e|----------------------|----------------------|----------------------|
B|----------------------|----------------------|----------------------|
G|----------------------|-9--9--9--9--9--9--9--|----------------------|
D|-7-7-7-7-7-7-7--------|-10-10-10-10-10-10-10-|-3-3-3-3-3-3-3-2x-----| - 2x
A|-7-7-7-7-7-7-7--------|-10-10-10-10-10-10-10-|-3-3-3-3-3-3-3--------|
E|-5-5-5-5-5-5-5--------|-8--8--8--8--8--8--8--|-1-1-1-1-1-1-1--------|

You know that I could use somebody
You know that I could use somebody

e|----------------------|----------------------|----------------------|
B|----------------------|----------------------|----------------------|
G|-9--9--9--9--9--9--9--|-9--9--9--9--9--9--9--|----------------------|
D|-10-10-10-10-10-10-10-|-10-10-10-10-10-10-10-|-3-3-3-3-3-3-3-2x-----| - 2x
A|-10-10-10-10-10-10-10-|-10-10-10-10-10-10-10-|-3-3-3-3-3-3-3--------|
E|-8--8--8--8--8--8--8--|-0--0--0--0--0--0--0--|-1-1-1-1-1-1-1--------|

Someone like you
And all you know
And how you speak
Countless lovers undercover of the street

e|----------------------|----------------------|----------------------|
B|----------------------|----------------------|----------------------|
G|----------------------|-9--9--9--9--9--9--9--|----------------------|
D|-7-7-7-7-7-7-7--------|-10-10-10-10-10-10-10-|-3-3-3-3-3-3-3-2x-----| - 2x
A|-7-7-7-7-7-7-7--------|-10-10-10-10-10-10-10-|-3-3-3-3-3-3-3--------|
E|-5-5-5-5-5-5-5--------|-8--8--8--8--8--8--8--|-1-1-1-1-1-1-1--------|

You know that I could use somebody
You know that I could use somebody

e|----------------------|----------------------|----------------------|
B|----------------------|----------------------|----------------------|
G|-9--9--9--9--9--9--9--|-9--9--9--9--9--9--9--|----------------------|
D|-10-10-10-10-10-10-10-|-10-10-10-10-10-10-10-|-3-3-3-3-3-3-3-2x-----| - 2x
A|-10-10-10-10-10-10-10-|-10-10-10-10-10-10-10-|-3-3-3-3-3-3-3--------|
E|-8--8--8--8--8--8--8--|-0--0--0--0--0--0--0--|-1-1-1-1-1-1-1--------|

Someone like you
Ohh whoa ah oohh...

e|----------------------|----------------------|----------------------|
B|----------------------|----------------------|----------------------|
G|-9--9--9--9--9--9--9--|-9--9--9--9--9--9--9--|----------------------|
D|-10-10-10-10-10-10-10-|-10-10-10-10-10-10-10-|-3-3-3-3-3-3-3-2x-----| - 2x
A|-10-10-10-10-10-10-10-|-10-10-10-10-10-10-10-|-3-3-3-3-3-3-3--------|
E|-8--8--8--8--8--8--8--|-0--0--0--0--0--0--0--|-1-1-1-1-1-1-1--------|

Ohh whoa ah oohh...

e|----------------------|----------------------|----------------------|
B|----------------------|----------------------|----------------------|
G|----------------------|-9--9--9--9--9--9--9--|----------------------|
D|-7-7-7-7-7-7-7--------|-10-10-10-10-10-10-10-|-3-3-3-3-3-3-3-2x-----| - 2x
A|-7-7-7-7-7-7-7--------|-10-10-10-10-10-10-10-|-3-3-3-3-3-3-3--------|
E|-5-5-5-5-5-5-5--------|-8--8--8--8--8--8--8--|-1-1-1-1-1-1-1--------|

Ohh whoa ah oohh...

e|----------------------|----------------------|----------------------|
B|----------------------|----------------------|----------------------|
G|-9--9--9--9--9--9--9--|-9--9--9--9--9--9--9--|----------------------|
D|-10-10-10-10-10-10-10-|-10-10-10-10-10-10-10-|-3-3-3-3-3-3-3-2x-----| - 2x
A|-10-10-10-10-10-10-10-|-10-10-10-10-10-10-10-|-3-3-3-3-3-3-3--------|
E|-8--8--8--8--8--8--8--|-0--0--0--0--0--0--0--|-1-1-1-1-1-1-1--------|

Off in the night
While you live it up I'm off to sleep
Waging wars to shape the poet and the beat

(PM)                   (PM)
e|----------------------|----------------------|----------------------|
B|----------------------|----------------------|----------------------|
G|----------------------|-9--9--9--9--9--9--9--|----------------------|
D|-7-7-7-7-7-7-7--------|-10-10-10-10-10-10-10-|-3-3-3-3-3-3-3-2x-----| - 2x
A|-7-7-7-7-7-7-7--------|-10-10-10-10-10-10-10-|-3-3-3-3-3-3-3--------|
E|-5-5-5-5-5-5-5--------|-8--8--8--8--8--8--8--|-1-1-1-1-1-1-1--------|

I hope it's gonna make you notice
I hope it's gonna make you notice

e|----------------------|----------------------|----------------------|
B|----------------------|----------------------|----------------------|
G|-9--9--9--9--9--9--9--|-9--9--9--9--9--9--9--|----------------------|
D|-10-10-10-10-10-10-10-|-10-10-10-10-10-10-10-|-3-3-3-3-3-3-3-2x-----| - 2x
A|-10-10-10-10-10-10-10-|-10-10-10-10-10-10-10-|-3-3-3-3-3-3-3--------|
E|-8--8--8--8--8--8--8--|-0--0--0--0--0--0--0--|-1-1-1-1-1-1-1--------|

Someone like me (Ohh whoa ah oohh...)
Someone like me (Ohh whoa ah oohh...)

e|----------------------|----------------------|----------------------|
B|----------------------|----------------------|----------------------|
G|----------------------|-9--9--9--9--9--9--9--|----------------------|
D|-7-7-7-7-7-7-7--------|-10-10-10-10-10-10-10-|-3-3-3-3-3-3-3-2x-----| - 2x
A|-7-7-7-7-7-7-7--------|-10-10-10-10-10-10-10-|-3-3-3-3-3-3-3--------|
E|-5-5-5-5-5-5-5--------|-8--8--8--8--8--8--8--|-1-1-1-1-1-1-1--------|

Someone like me (Ohh whoa ah oohh...)
Somebody (Ohh whoa ah oohh...)

Bridge:
(PM)                       (PM)
e|-------------------------|-------------------|
B|-------------------------|-------------------|
G|-------------------------|-------------------|
D|-11-11-11-11-11-11-11-2x-|-4-4-4-4-4-4-4-2x--|
A|-11-11-11-11-11-11-11----|-4-4-4-4-4-4-4-----|
E|-9--9--9--9--9--9--9-----|-2-2-2-2-2-2-2-----|

I'm ready
I'm ready

 (PM)                       (PM)
e|-------------------------|-------------------|
B|-------------------------|-------------------|
G|-------------------------|-------------------|
D|-11-11-11-11-11-11-11-2x-|-4-4-4-4-4-4-4-2x--|
A|-11-11-11-11-11-11-11----|-4-4-4-4-4-4-4-----|
E|-9--9--9--9--9--9--9-----|-2-2-2-2-2-2-2-----|

I'm ready
I'm ready now

Solo:

e|------------------------------------|
B|------------------------------------|
G|-9----11---5----10---9----9^-7----5-|
D|-x-3x-x-4x-x-3x-x-5x-x-4x-x--x-2x-x-| - 4x
A|-7----9----3----8----7----7--5----3-|
E|------------------------------------|

Ohh whoa ah oohh...
Someone like you
Somebody
Someone like you
Somebody

e|-----------------------|-----------|
B|-----------------------|-----------|
G|-9----11---5----10---9-|-5-5-5-5-5-|
D|-x-3x-x-4x-x-3x-x-5x-x-|-5-5-5-5-5-|
A|-7----9----3----8----7-|-3-3-3-3-3-|
E|-----------------------|-----------|

Someone like you
Somebody

e|----------------|----------------|---------------|
B|----------------|----------------|---------------|
G|-9--9--9--9--9--|-9--9--9--9--9--|---------------|
D|-10-10-10-10-10-|-10-10-10-10-10-|-3-Let it ring-|
A|-10-10-10-10-10-|-10-10-10-10-10-|-3-------------|
E|-8--8--8--8--8--|-0--0--0--0--0--|-1-------------|

I've been roamin' around
I was lookin' down at all I see

Enjoy! :D