Tag: sons

Empty Saddles chords – Sons Of Pioneers

 Em A7 Em 
There's a something strange in the old corral

         C Em B7 
There's a breeze though the wind has died

 Em A7 Em Cm 
Though I'm alone in the old corral

 G Gm 
Seems there is someone by my side


 G G7 C 
Empty saddles in the old corral

 G A7 Am D7 
Where do you ride tonight

         G G7 C Cm 
Are you roundin' up the doggies the strays of long ago

         G D7 G C G 
Are you on the trail of buffalo


       G7 C 
Empty saddles in the old corral

 G A7 Am D7 
Where do you ride tonight

           G G7 C Cm 
Are there rustlers on the border or a band of Navajo

         G D7 G C G 
Are you headin' for the Alamo


 Em Cm 
Empty guns covered with rust

                     Gm 
Where do you talk tonight

 D# 
Empty boots covered with dust

 Cm Am D7 
Where do you walk tonight


 G G7 C 
Empty saddles in the old corral

    G A7 Am D7 
My tears will be dried tonight

           G C Cm 
If you'll only say I'm lonely as you carry my old pal

       G D7 G 
Empty saddles in the old corral


 Em Cm 
Empty guns covered with rust

                     Gm 
Where do you talk tonight

 D# 
Empty boots covered with dust

 Cm Am D7 
Where do you walk tonight


 G G7 C 
Empty saddles in the old corral

    G A7 Am D7 
My tears will be dried tonight

           G C Cm 
If you'll only say I'm lonely as you carry my old pal

       G D7 G 
Empty saddles in the old corral

Untitled Tabs – Mumford And Sons V4

 -------------------------------------------------------------------------------
                             UNTITLED - Mumford & Sons
-------------------------------------------------------------------------------
: Aidan Staines
 ajs_chess97@hotmail.com

Tuning: DADF#AD

First tab but don't be discouraged. I have spent a lot of time watching Marcus play and have critiqued
on a lot of other tabs before. After playing Mumfords songs for almost a year now I am certain this tab 
is the most correct and accurate for Untitled. For those who know how to play songs such as I Gave You
All it follows the same finger picking pattern. I have put a lot of effort and time into this tab and I 
hope I can get helpful feedback as I do wish to continue with tablature.

This particular tab is transcribed from their live performance as seen in this video here:




Intro: w/ fingers

D |--------------------------------------------------------------------------------------|
A |--5-------5---5-------5---------------------------------------------------------------|
F#|------0-----------0-------3-------3---3-------3---0-------0---5-------5---3-------3---|
D |------------------------------2-----------2-----------0-----------0-----------0-------|
A |--2-2-------2-2-2-------2-4-4-------4-4-4-------4-------------------------------------|
D |--------------------------------------------------0-0-------0-5-5-------5-4-4-------4-|

D |--------------------------------------------------|
A |--------------------------------------------------|
F#|--7-------7---7-------7---7-------7---7-------7---|x2
D |------0-----------0-----------0-----------0-------|
A |--------------------------------------------------|
D |--7-7-------7-7-7-------7-7-7-------7-7-7-------7-|

Verse 1:

D |--------------------------------------------------------------------------------------------------|
A |--------------------------------------------------------------------------------------------------|
F#|--0-------0---0-------0---0-------0---0-------0---5-------5---5-------5---5-------5---5-------5---|
D |------0-----------0-----------0-----------0-----------0-----------0-----------0-----------0-------|
A |--------------------------------------------------------------------------------------------------|
D |--0-0-------0-0-0-------0-0-0-------0-0-0-------0-5-5-------5-5-5-------5-5-5-------5-5-5-------5-|

D |--------------------------------------------------------------------------------------------------|
A |--------------------------------------------------------------------------------------------------|
F#|--0-------0---0-------0---0-------0---0-------0---7-------7---7-------7---7-------7---7-------7---|x2
D |------0-----------0-----------0-----------0-----------0-----------0-----------0-----------0-------|
A |--------------------------------------------------------------------------------------------------|
D |--0-0-------0-0-0-------0-0-0-------0-0-0-------0-7-7-------7-7-7-------7-7-7-------7-7-7-------7-|

Chorus 1:

D |--------------------------------------------------------------------------------------|
A |--5-------5---5-------5---------------------------------------------------------------|
F#|------0-----------0-------3-------3---3-------3---0-------0---5-------5---3-------3---|
D |------------------------------2-----------2-----------0-----------0-----------0-------|
A |--2-2-------2-2-2-------2-4-4-------4-4-4-------4-------------------------------------|
D |--------------------------------------------------0-0-------0-5-5-------5-4-4-------4-|

D |--------------------------------------------------|
A |--------------------------------------------------|
F#|--7-------7---7-------7---7-------7---7-------7---|x2
D |------0-----------0-----------0-----------0-------|
A |--------------------------------------------------|
D |--7-7-------7-7-7-------7-7-7-------7-7-7-------7-|

Interlude 1:

D |---------------------------------

Lovers Eyes chords – Mumford And Sons V4

 Lover’s Eyes – Mumford & Sons
Standard Tuning (no capo)

Intro TAB:
E-----------------------------------------------------|
B-----------------------------------------------------|
G-----------------------------------------------------|
D--0h2-0-2/4---4h5-4-5/7---5-4-2-2-2h4-4-2-0----------|
A-----------------------------------------------------|
E-----------------------------------------------------|

Verse 1:
N/C       D G D 
Love was kind, for a time
 G A D 
Now just aches, and it makes me blind
      G D G D   
This mirror holds my eyes too bright
      G A D 
That I can't see the others in my life

Chords:  G D G D G A D 
Repeat  Intro TAB

     G D G D  
Are we too young and heads too strong
    G A D 
To bear the weight of these lover's eyes
        G D G D     
'cause I feel numb beneath your tongue
   G A D 
Beneath the curse of these lover's eyes.

Chorus 1:
            G D A D 
But do not ask the price I pay, I must live with my quiet rage
          G D A D 
Tame the ghosts in my head that run wild and wish me dead
                     G D 
Should you shake my ash to the wind
          A D 
Lord forget all of my sins
           G D A D 
Or let me die where I lie 'neath the curse of my lover's eyes

Break: D  G (3x)

Verse 2:
      G D G D 
Cuz there's no drink or drug I've tried 
    G A D 
To rid the curse of these lover's eyes
     G D G D  
And I feel numb beneath your tongue
      G A D 
Your strength just makes me feel less strong

Chorus 2:
          G D A D 
I do not ask the price I pay, I must live with my quiet rage
          G D A D 
Tame the ghosts in my head that run wild and wish me dead
                     G D 
Should you shake my ash to the wind
          A D 
Lord forget all of my sins
           G D A D 
Or let me die where I lie 'neath the curse of my lover's eyes

Break: D  G (4x)

Bridge: (2x)
        D A D 
I walk slow, I walk slow
         Bm G D 
Take my hand, help me on my way.

Instrumental:  D A D Bm G D  (3x)

Bridge: (2x)
            D A D 
and I walk slow, I walk slow
         Bm G D 
Take my hand, help me on my way.


Outro Instrumental:
 D A D G A Bm D  (3x)
Aaah  Aaahh  Aaahhaahhaaah

Believe Tabs by Mumford And Sons

 -------------------------------------------------------------------------------
                             Believe - Mumford And Sons
-------------------------------------------------------------------------------
As played by Derrick Holleman 


Tuning:Standard

Verse 1
   Bm   A  (3x) 
e|-7----5-|
B|-7----5-|
G|-7----6-|
D|-9----7-|
A|-9----7-|
E|-7----5-|

Chorus 1
   G    Bm   D    A
e|-3----2----2----0-|
B|-3----3----3----2-|
G|-0----4----2----2-|
D|-0----4----0----2-|
A|-2----2---------0-|
E|-3----------------|

Verse 2
   Bm   A  (4x)
e|-2----0-|
B|-3----2-|
G|-4----2-|
D|-4----2-|
A|-2----0-|
E|--------|

Chorus 2
   G    D    Bm   A  (2x) 
e|-3----2----2----0-|
B|-3----3----3----2-|
G|-0----2----4----2-|
D|-0----0----4----2-|
A|-2---------2----0-|
E|-3----------------|

Solo
e|----------------------------------------------14---14---14---14---14-----------|
B|-10----------------------------/15--/15--/15--17b--17b--17b--17b--17b------17--|
G|-7---------------9--7------11------------------------------------------16--16b-|
D|-------9~--7--9--------9\------------------------------------------------------|
A|-------------------------------------------------------------------------------|
E|----\--------------------------------------------------------------------------|

e|-------------------------------14---14---14---14--|
B|-19b--19b--19b--19b--19b--19b--17b--17b--17b--17b-|
G|--------------------------------------------------|
D|--------------------------------------------------|
A|--------------------------------------------------|
E|--------------------------------------------------|
   B  E  D  E  B          D  G   F#  D  G   F#  B  G  F#   E  A   G   F#  D
e|--------------------------------------------------------------------------|
B|----------------7---7-----------------------------------------------------|
G|-4--9--7--9--4--9b--9b--7--12--11--7--12--11--4--12--11--9--14--12--11--7-|
D|--------------------------------------------------------------------------|
A|-2--7--5--7--2----------5--10--9---5--10--9---2--10--9---7--12--10--9---5-|
E|--------------------------------------------------------------------------|
   G   F#  D  G   F#  B  G  F#   D  E  A   G   F#  D  G   F#  E  D  G   F#  E  B
e|-------------------------------------------------------------------------------|
B|-------------------------------------------------------------------------------|
G|-12--11--7--12--11--4--12--11--7--9--14--12--11--7--12--11--9--7--12--11--9--4-|
D|-------------------------------------------------------------------------------|
A|-10--9---5--10--9---2--10--9---5--7--12--10--9---5--10--9---7--5--10--9---7--2-|
E|-------------------------------------------------------------------------------|
   A   G   F#  E  G   F#  E  D
e|-----------------------------|
B|-----------------------------|
G|-14--12--11--9--12--11--9--7-|
D|-----------------------------|
A|-12--10--9---7--10--9---7--5-|
E|-----------------------------|

************************************

| /   slide up
| \   slide down
| h   hammer-on
| p   pull-off
| ~   vibrato
| +   harmonic
| x   Mute note
| b   Bend
| pb  Pre-bend
| br  Bend release
| pbr Pre-bend release
| brb Bend release bend

************************************

Where Ive Been Tabs – Rival Sons V2

 Rival Sons - Where I've been

This tab is for standard tuning but the original is in Open G.

Intro: At the G chord you can play around but this is somewhat right.

  Eb         E            G                         F            E              G
e-------------------------------------------------------------------------------3--
b---10-12-10----12----12----------3-----------------------13-----------13-------3--
G---------------12h14-12------4h5---5p4p0-2h4p2p0-----13----13-----13----13-----0--
D---------------------------5---------------------------------13-----------13---0--
A-------------------------------------------------------------------------------2--
E-11---------12-----------3-------------------------13--13-------12--12---------3--


Verse: 

C G F C x3

F C G x1

                            C G
She said since we've been together
                    F C
I tried not to keep secrets
         C    G
I was so lost then
                     F     C
I don't like to talk about it
              C  G
See, I needed money
                       F  C
Cause the habit wasn't cheap
               F C
I gave them my body
                    G
Now my memory won't let me sleep


( Play intro on this part :) )

Now I lay beside you
And when you touch me
I feel like I don't deserve you
That's when you remind me


Chorus: F C G

                       F    C
She says how could you love me
                         G
When you know where I've been
              F    C
How could you love me
                         G
When you know where I've been


Second Verse, same chords:

                     C G
You said when I came home
                             F C
I tried to put myself back together
                       C G
The war is still going on
                           F  C
Now my brother is still in danger
            C  G
Now I'm the soldier
                       F C
And the tradition runs deep
               F C
I gave them my body
                    G
Now my memory won't let me sleep


Have fun!

Come Together chords – Sons Of The Sea

 
Intro:  Em Em                            
You float into the room, a ruffled feather
 C 
 A hint of your perfume is a comely tether
 Am 
 Give back my heart you stole
 C 
 Chased down the rabbit hole
 D 
 It’s undebatable…

 Em 
we come together.

CHORUS:
 
 Gm                                           
Baby could we spend a month here tonight?
 Eb 
‘Til we both are painted by morning light
 Cm Eb 
 Whoever made you must’ve had a talent for high design!
 F 
 How in the world did you get to be so fine?


 Em Em 
I’d wait around with you for worse or better
 C 
 But our halcyon days are few, it’s now or never
 Am 
 The writing’s on the wall
 C 
 If I can’t walk I would crawl
 D 
 You rise above them all…
 Em 
we come together.

CHORUS
 
 Gm 
When I think that maybe I’ve seen too much
 Eb 
 You come around and dammit! I’m out of touch.
 Cm Eb 
 Now I see you, and I need you on repeat, all the time
 F 
 How in the world did you get to be so fine?
 Gm 
 Baby could we spend a month here tonight?
 Eb 
‘Til we both are painted by morning light
 Cm Eb 
 Whoever made you must’ve had a talent for high design!
 F 
 How in the world did you get to be so fine?

Bridge/Solo:

 A#m ,  F# ,  D#m ,  A#m ,  G#m 

LAST CHORUS

 C#m 
When I think that maybe I’ve seen too much
 A 
 You come around and dammit! I’m out of touch.

 Gbm A                   
 Now I see you, and I need you on repeat, all the time
 B 
 How in the world did you get to be so fine?


Repeat

End on Verse Chords.  
 

The Searchers chords – Sons Of The Pioneers

 Standard Tuning: (Capo choice is yours, but I play without)

         A 
Intro:|  ///////////  x4.    Strumming Patt:  DDUDUDDUDUD

Chords used:  A ,  D ,  E ,


 A 
What makes a man to wander?
 D 
What makes a man to roam?
 A 
What makes a man leave bed and board,
 A E A 
and turns his back on home...?
 E A 
Ride away...
 E A 
Ride away...
 E A E A 
Ride...away......


 A 
Some men they search for injuns,
 D 
or hump-back buffalo.
 A 
And even when they found them,
 A E A 
they move on lonesome slow....
 E A 
Ride away...
 E A 
Ride away...
 E A E A 
Ride...away......


 A 
The snow is deep and oh so white,
 D 
the winds they howl and moan.
 A 
Fire cooks a man his buffalo meat,
 A E A 
but his lonely heart won't warm.....
 E A 
Ride away...
 E A 
Ride away...
 E A E A 
Ride...away......


 A 
A man will search his heart and soul,
 D 
go searching way out there.
 A 
His peace of mind he knows he'll find,
 A E A 
but where? oh Lord but where....?
 E A 
Ride away...
 E A 
Ride away...
 E A E A 
Ride... away.......


END:


: Ian-k.
{Easy to play and sing, You just have to get the strumming right. It's the same 
pattern throughout}

Great Are You Lord chords – All Sons And Daughters V2

  but I have watched the video of the live performance and looked  at 
all the Youtube videos and this matches perfectly with the actual song. I add an
extra hammer on then off of the Dsus7 following the D to add to the sound.

Capo 2


Intro:
 Cadd9 G D   (2x)

Verse:
          Cadd9 G 
You give life, You are love
           D 
You bring light to the darkness
          Cadd9 G 
You give hope, You restore
       D 
Every heart that is broken
 Cadd9 G D 
      Great are You, Lord

Chorus:
           Cadd9 G 
It's Your breath in our lungs
       D 
So we pour out our praise, we pour out our praise
           Cadd9 G 
It's Your breath in our lungs
       D 
So we pour out our praise to You only

Verse:
          Cadd9 G 
You give life, You are love
           D 
You bring light to the darkness
          Cadd9 G 
You give hope, You restore
       D 
Every heart that is broken
 Cadd9 G D 
      Great are You, Lord

Chorus 2x

Instrumental:
 G Gsus Cadd9 G 

Bridge:
 G 
All the earth will shout Your praise
 Gsus 
Our hearts will cry, these bones will sing
 Cadd9 G 
Great are You, Lord (Repeat 3x)

Chorus 2x

Ending:
 Cadd9 G D

Farewell chords – Mumford And Sons

 This is the cover performed by Marcus Mumford and The Punch Brothers at the 
concert inspired by the "Inside Llewyn Davis" film:


Chords:
 G   [320003]
 C   [x32001]
 D   [xx0323]
 G * [302010] 


Verse:
 G C G 
So, it's fare thee well, my darling true
                                           D   
I'm leaving in the first hour of the morn
 G C G  
I'm bound off for the bay of Mexico
               D G *  
Or maybe the coast of Californ


Chorus:
         D C G       
So it's fare thee well my own true love
                                     D  
We'll meet another day, another time
              G *                C G      
It ain't the leaving, that's a-grieving me
                         D G *   
But my true love who's bound to stay behind


Verse:
 G C G   
Oh, the weather is against me and the wind blows hard
                                       D 
And the rain she's a-turning into hail
            G C G 
And I still might strike it lucky on a highway going west
                       D G *  
But I'm traveling on a path beaten trail


Chorus:
         D C G       
So it's fare thee well my own true love
                                     D  
We'll meet another day, another time
              G *                C G      
It ain't the leaving, that's a-grieving me
                         D G *   
But my true love who's bound to stay behind


Verse:
 G C G    
I will write you a letter from time to time
                                          D       
As I'm rambling you can travel with me too
        G C G      
With my head, my heart and my hands, my love
                     D G *  
I will send what I learn back home to you


Chorus:
         D C G       
So it's fare thee well my own true love
                                     D  
We'll meet another day, another time
              G *                C G      
It ain't the leaving, that's a-grieving me
                         D G *   
But my true love who's bound to stay behind


Verse:
 G C G 
I will tell you of the laughter and the troubles
                                  D 
Be them somebody else's or my own
        G C G   
With my hands in my pockets and my coat collar high
                  D G *
I will travel or unnoticed and unknown


Chorus:
         D C G       
So it's fare thee well my own true love
                                     D  
We'll meet another day, another time
              G *                C G      
It ain't the leaving, that's a-grieving me
                         D G *   
But my true love who's bound to stay behind

              G *                C G      
It ain't the leaving, that's a-grieving me
                         D G *   
But my true love who's bound to stay behind

I Gave You All Tabs by Mumford And Sons V6

 : yulizavala22
Mumford and Sons
I Gave You All

I tried to find the banjo part for guitar on this song
on Ultimate-Guitar but nothing was there, so I
decided to post this. Enjoy!

Tuning:Open G: DGDGBD

The Verse Chords are strummed at (:54)
D|--3----3--4----5----3----3--4----5--|
B|--3----3--3----3----3----3--3----3--|
G|--3----2--2----3----3----2--2----3--|
D|------------------------------------|
G|------------------------------------|
D|------------------------------------|

And the Verse Picking is played at (2:23)
D|----------3--------------------3-----------|
B|--3------------3-------3-------------3-----|
G|-------3----------3---------3-----------3--|
D|-------------------------------------------|
G|-------------------------------------------|
D|-------------------------------------------|

D|----------3--------------------4-----------|
B|--3------------3---------------------3-----|
G|-------2----------2---------2-----------2--|
D|-------------------------------------------|
G|-------------------------------------------|
D|-------------------------------------------|

D|----------5--------------------5-----------|
B|--3------------3--------3------------3-----|
G|-------3----------3---------3-----------3--|
D|-------------------------------------------|
G|-------------------------------------------|
D|-------------------------------------------|

D|----------5--------------------5-----------|
B|--3------------3--------3------------3-----|
G|-------3----------3---------3-----------3--| x4
D|-------------------------------------------|
G|-------------------------------------------|
D|-------------------------------------------|

The Chorus starts at (2:55)
D|----------3--------------------3-----------|
B|--3------------3--------3------------3-----|
G|-------3----------3---------3-----------3--|
D|-------------------------------------------|
G|-------------------------------------------|
D|-------------------------------------------|

D|----------3--------------------2-----------|
B|--3------------3--------3------------3-----|
G|-------2----------2---------2-----------2--|
D|-------------------------------------------|
G|-------------------------------------------|
D|-------------------------------------------|

D|---------2------------- \
B|--3------------3------- \ Play the chorus three times and on
G|------2-----------2---- \ the 3rd part, play this part 3 times
D|----------------------- \ /
G|----------------------- \
D|----------------------- \

The outro comes in at (3:13)
And this is played when says “And you rip it from my
Hands and you swear it’s all gone”
D|--5----3----2--2----3--|
B|--3----3----1--3----3--|
G|--3----2----2--2----2--| x2
D|-----------------------|
G|-----------------------|
D|-----------------------|

D|--5----3----2--2--|
B|--3----3----1--3--|
G|--3----2----2--2--|
D|------------------|
G|------------------|
D|------------------|

D|----------3--------------------2-----------|
B|--3------------3--------3------------3-----|
G|-------2-----------2--------2-----------2--|
D|-------------------------------------------|
G|-------------------------------------------|
D|-------------------------------------------|

D|----------5--------------------5-----------|
B|--3------------3--------3------------3-----|
G|-------3-----------3--------3-----------3--|
D|-------------------------------------------|
G|-------------------------------------------|
D|-------------------------------------------|

D|----------3--------------------2-----------|
B|--3------------3--------3------------3-----|
G|-------2-----------2--------2-----------2--|
D|-------------------------------------------|
G|-------------------------------------------|
D|-------------------------------------------|

D|----------5--------------------5-----------|
B|--3------------3--------3------------3-----|
G|-------3--------

White Blank Page chords – Mumford And Sons V6

 I prefer to play it in CAPO 4

Intro:  Em  -  C  -  G Em 
Can you lie next to her 
                    C G 
and give her your heart
      C G Em 
your heart   as well as your body?

And can you lie next to her 
                   C G 
and confess your love, 
       C G Em 
your love,    as well as your folly

And can you kneel before the king 
               C G C G 
and say "Im clean,   Im clean"?

      D Em C D 
But tell me now where was my fault,
      D Em C D 
in loving you with my whole heart?
    D Em C D 
Oh tell me now where was my fault,
    D Em C D           
in loving you with my whole heart?

 Em  -  C  -  G Em C G C G 
 Her white blank page and a swelling rage,     rage
 Em C G C G 
 You did not think when you sent me to the brink,    to the brink
 Em C G C G 
 You desired my attention but denied my affections, my affections

      D Em C D 
But tell me now where was my fault,
      D Em C D 
in loving you with my whole heart?
    D Em C D 
Oh tell me now where was my fault,
    D Em C D           
in loving you with my whole heart?

 Em  -  C  -  G 
 Ahhhahh

 C G Em D           
 Lead me to the truth and I 
        C G Em D 
 will follow you with my whole life
       C G Em D 
 Oh lead me to the truth and I 
        C G Em D 
 will follow you with my whole life

 Em  -  C  -  G 
 Ahhhahh

Come For You Tabs by Maylene And The Sons Of Disaster V2

 |---------|---------|---------|---------|
|---------|---------|---------|---------|
|---------|---0-----|---------|---------|
|-----3---|-----3-2-|-----3---|-----3---|
|---5---5-|-3-------|---3---3-|-------3-|
|-0-------|---------|-3-------|---------|


|---------|---------|---------|---------|
|---------|---------|---------|---------|
|---------|---0-----|---------|---------|
|-----3---|-----3-2-|-----3---|-----5---|
|---5---5-|-3-------|---3---3-|---5---5-|
|-0-------|---------|-3-------|-5-------|


|---------|---------|---------|---------|
|---------|---------|---------|---------|
|---------|---0-----|---------|-----3---|
|-----3---|-----3-2-|-----3---|---3---3-|
|---5---5-|-3-------|---3---3-|-1-------|
|-0-------|---------|-3-------|---------|


|---------|---------|---------|---------|
|---------|---------|---------|---------|
|---------|---0-----|---------|---------|
|-----3---|-----3-2-|-----3---|-----3---|
|---5---5-|-3-------|---3---3-|-------3-|
|-0-------|---------|-3-------|---------|


|---------|---------|---------|---------|
|---------|---------|---------|---------|
|---------|---------|-3-3-3-3-|-3-3-3-3-|
|-0-0-0-0-|-0-0-0-0-|-3-3-3-3-|-3-3-3-3-|
|-0-0-0-0-|-0-0-0-0-|-1-1-1-1-|-1-1-1-1-|
|-0-0-0-0-|-0-0-0-0-|---------|---------|


|---------|---------|---------|---------|
|---------|---------|---------|---------|
|---------|---------|-5-5-5-5-|-5-5-5-5-|
|-3-3-3-3-|-3-3-3-3-|-5-5-5-5-|-5-5-5-5-|
|-3-3-3-3-|-3-3-3-3-|-5-5-5-5-|-5-5-5-5-|
|-3-3-3-3-|-3-3-3-3-|---------|---------|


-Variation
|---------|---------|---------|---------|
|---------|---------|---------|---------|
|---------|---------|-3-3-3-3-|-3-3-3-3-|
|-0-0-0-0-|-0-0-0-0-|-3-3-3-3-|-3-3-3-3-|
|-0-0-0-0-|-0-0-0-0-|-1-1-1-1-|-1-1-1-1-|
|-0-0-0-0-|-0-0-0-0-|---------|---------|


|---------|---------|---------|---------|
|---------|---------|---------|---------|
|---------|---------|---------|---------|
|-3-3-3-3-|-3-3-3-3-|-2-------|---------|
|-3-3-3-3-|-3-3-3-3-|-2-------|---------|
|-3-3-3-3-|-3-3-3-3-|-2-------|---------|

Reason To Sing chords – All Sons And Daughters V2

 D , G D , G 

V1:
 D G   
When the pieces seem to shattered
      Bm A G 
To gather off the floor
      D G 
And all that seems to matter
                  Bm A G   
Is that I don’t feel you anymore
             Bm A G A 
No I don’t feel you anymore

Chorus:
            D G 
I need a reason to sing
            D G 
I need a reason to sing
            Bm A G 
I need to know that You’re still holding
     Bm A G A 
The whole world in Your hands
                         D G ,  D G 
I need a reason to sing

V2:
             D G 
When I’m overcome by fear
               Bm A G 
And I hate everything I know
           D G 
If this waiting lasts forever
      Bm A G 
I’m afraid I might let go
      Bm A G A 
I’m afraid I might let go

Oh Oh Oh

Chorus:
             D G 
I need a reason to sing
             D G 
I need a reason to sing
            Bm A G 
I need to know that You’re still holding
       Bm A G A 
The whole world in Your hands

I need a reason to sing

 B :

 Bm A G 
Oh Yeah Yeah
 Bm 
Will there be a victory
 D G 
Will You sing it over me now

Oh

 Bm 
Your peace is the melody
 D G 
You sing it over me now

Oh Lord

 Bm 
Will there be a victory
 D G 
Will You sing it over me now

Oh Lord

 Bm 
Your peace is the melody
 D G A 
You sing it over me now

Chorus:
           D G 
I need a reason to sing
           D G 
I need a reason to sing
             Bm A G 
I need to know that You’re still holding
      Bm A G A 
The whole world in Your hands
                         D 
That is a reason to sing

Hold On chords – Sons Of The East

  Kwint & Troy (from Sir Jupiter).

Hope you enjoy this song, and don't forget to check out our band Sir Jupiter here : 
https://www.facebook.com/sirjupiter  

Artist : Sons Of The East
Song : Hold On
Album : Sons Of The East - EP [2013]


CAPO II

It's the same chords during the whole song :  Am F C Em 


INTRO:  Am F C Em 


VERSE:

 Am F C Em 
Boy walks south down on the broken track,
 Am F C Em 
Father said my son come on back


PRECHORUS

 Am F C Em 
So much trouble I must leave behind,
 Am F C Em 
You can still do well, let me remind


CHORUS:

 Am F C Em 
Ho-old, hold on
 Am F C Em 
Ho-old, hold on


 Am F C Em   x2


VERSE:


I've seen my eyes when they're clouded in dark,
You call to your god like an old skylark


PRECHORUS:


This will show us that the devil preys,
I am counting down all of my days


CHORUS:


Hold, hold on
I hold on yeah, I hold on
Hold, hold on
I hold on yeah, I hold on


BREAK:


I'll hold on now, I'll hold on I
I'll hold on now, I'll hold on I


CHORUS:


Hold, hold on
Hold, hold on


[INSTRUMENTAL]


CHORUS:


Hold, hold on
Come on back, my son, come on back my son

Hold, hold on
Before skies are red, and my day is done



If you have any suggestions/corrections, please let us know in the comments!

Little Lion Man Tabs by Mumford And Sons V4

 MUMFORD & SONS - LITTLE LION MAN
Tuning (low to high): CACGCE

E--> stays as      E
B--> goes up to    C
G--> stays as      G
D--> goes down to  C
A--> stays as      A
E--> goes down to  C

Capo: 5th fret

Intro (x4):

    d d u d  d d u d  d d u d  d d u d  d d u d u d d d d  d d u d  d d u d
E|--0-0-0-0--0-0-0-0--0-0-0-0--0-0-0-0--0-0-0-0-0-0-0-0-0--0-0-0-0--0-0-0-0-|
C|--0-0-0-0--0-0-0-0--0-0-0-0--0-0-0-0--0-0-0-0-0-0-0-0-0--0-0-0-0--0-0-0-0-|
G|--2-2-2-2--2-2-2-2--2-2-2-2--2-2-2-2--0-0-0-0-0-2-0-0-0--0-0-0-0--0-0-0-0-|
C|--0-0-0-0--0-0-0-0--0-0-0-0--0-0-0-0--0-0-0-0-0-0-0-2-0--0-0-0-0--0-0-0-0-|
A|--0-0-0-0--0-0-0-0--0-0-0-0--0-0-0-0--3-3-3-3-3-3-3-3-3--3-3-3-3--3-3-3-3-|
C|--x-x-x-x--x-x-x-x--x-x-x-x--x-x-x-x--0-0-0-0-0-0-0-0-0--0-0-0-0--0-0-0-0-|

Verse (x2):

    d d u d  d d u d  d d u d  d d u d  d d u d  d d u d  d d u d  d d u d
E|--0-0-0-0--0-0-0-0--0-0-0-0--0-0-0-0--0-0-0-0--0-0-0-0--0-0-0-0--0-0-0-0-|
C|--0-0-0-0--0-0-0-0--0-0-0-0--0-0-0-0--0-0-0-0--0-0-0-0--0-0-0-0--0-0-0-0-|
G|--2-2-2-2--2-2-2-2--2-2-2-2--2-2-2-2--0-0-0-0--0-0-0-0--0-0-0-0--0-0-0-0-|
C|--0-0-0-0--0-0-0-0--0-0-0-0--0-0-0-0--0-0-0-0--0-0-0-0--0-0-0-0--0-0-0-0-|
A|--0-0-0-0--0-0-0-0--0-0-0-0--0-0-0-0--3-3-3-3--3-3-3-3--3-3-3-3--3-3-3-3-|
C|--x-x-x-x--x-x-x-x--x-x-x-x--x-x-x-x--0-0-0-0--0-0-0-0--0-0-0-0--0-0-0-0-|

Pre-Chorus (x2):

    d d u d  d d u d  d d u d  d  d  d d u d  d d u d  d d u d  d d u d
E|--0-0-0-0--0-0-0-0--0-0-0-0--0--0--0-0-0-0--0-0-0-0--0-0-0-0--0-0-0-0-|
C|--0-0-0-0--0-0-0-0--0-0-0-0--0--0--0-0-0-0--0-0-0-0--0-0-0-0--0-0-0-0-|
G|--4-4-4-4--4-4-4-4--2-2-2-2--0--0--0-0-0-0--0-0-0-0--0-0-0-0--0-0-0-0-|
C|--2-2-2-2--2-2-2-2--0-0-0-0--0--0--0-0-0-0--0-0-0-0--0-0-0-0--0-0-0-0-|
A|--3-3-3-3--3-3-3-3--0-0-0-0--x--x--3-3-3-3--3-3-3-3--3-3-3-3--3-3-3-3-|
C|--x-x-x-x--x-x-x-x--x-x-x-x--4--2--0-0-0-0--0-0-0-0--0-0-0-0--0-0-0-0-|

Chorus:

"But it was not your fault but mine / And it was your heart on the line"
E|-----------0---------0--------0-----------------0---------0-------0----|
C|-----------0---------0--------0-----------------0---------0-------0----|
G|-----------2---------0--------0-----------------2---------0-------0----|
C|-----------0---------0--------0-----------------0---------0-------0----|
A|-----------0---------8--------3-----------------0---------8-------3----|
C|-----------x---------5--------0-----------------x---------5-------0----|

"I really fucked it up this time / Didn't I my dear?
E|---------0---------0-------0------------------0--0--0--0--0--0--0--0--0--|
C|---------0---------0-------0------------------0--0--0--0--0--0--0--0--0--|
G|---------2---------0-------0------------------0--0--0--0--0--0--0--0--0--|
C|---------0---------0-------0------------------0--0--0--0--0--0--0--0--0--|
A|---------0---------8-------3------------------10-10-10-10-10-10-10-10-10-|
C|---------x---------5-------0------------------7--7--7--7--7--7--7--7--7--|

Before the second verse, play the intro riff twice, with a hard strumming.

Verse 2 and Pre-Chorus 2 are the same, Chorus 2 is played like the first, you have only 
to strum the chords instead of play them once.

Before the bridge, play softly the same chords of the verse riff, twice.

Bridge (x8):

E|---0--0--0--0---0--0--0--0---0--0--0--0---0--0--0--0---|
C|---0--0--0--0---0--0--0--0---0--0--0--0---0--0--0--0---|
G|---4--4--4--4---0--0--0--0---0--0--0--0---0--0--0--0---|
C|---2--2--2--2---4--4--4--4---9--9--9--9---9--9--9--9---|
A|---3--3--3--3---3--3--3--3---8--8--8--8---8--8--8--8---|
C|---x--x--x--x---0--0--0--0---0--0--0--0---0--0--0--0---|

Last Chorus(x2, the second time without instruments):
                                *Strum hard*
 "...not your fault but mine"    "And it was your heart on the line
E|----0------------------0-0-0-0--0-0-0-0----0-0-0-0----0-0-0-0-0-0-0-0--|
C|----0------------------0-0-0-0--0-0-0-0----0-0-0-0----0-0-0-0-0-0-0-0--|
G|----2------------------0-0-0-0--0-0-0

Little Lion Man Clean chords – Mumford And Sons

 [Capo at 5]
**This tab has been corrected, and censored for a more suitable audience.**

Intro:     Am C        x4

Verse 1:
 Am C 
Weep for yourself, my man, youll never be what is in your heart.
 Am C 
Weep little lion man, youre not as brave as you were at the start.
 G F          ( Fmaj7 )           C 
Rate yourself and rake yourself, take all the courage you have left.
 G F         ( Fmaj7 )          C 
Waste it on fixing all the problems that you made in your own head.

Chorus:
 Am F C 
But it was not your fault but mine,
 Am F C 
and it was your heart on the line.
 Am F C 
I really screwed it up this time,
 G 
didnt I, my dear?
 Am 
Didnt I, my dear?

[ Am C      x2]

Verse 2:
 Am C 
Tremble for yourself my man, you know that you have seen this all before.
 Am C 
Tremble little lion man, youll never settle any of your scores.
 G F           ( Fmaj7 )              C 
Your grace is wasted in your face, your boldness stands alone among the wreck.
 G F             ( Fmaj7 )            C 
Learn from your mother or else spend your days biting your own neck.

[Repeat Chorus]

Bridge:
[ G C F        x8]
(**Sing Aaaah**)

[Repeat Chorus]

Chorus/Ending: (cut off chords after strumming)
 Am 
But it was not your fault but mine,
 Am 
and it was your heart on the line.
 Am 
I really screwed it up this time,
 G 
didnt I, my dear?
 Am/C 
Didnt I, my dear?

Broken Crown Tabs by Mumford And Sons V4

 Broken Crown - Mumford and Sons
: James Walters
Email: Jojomcfee1

I tabbed this song using parts of other tabs and by ear to make it playable on an 
acoustic guitar and also standard tuning, I'm pretty sure everything is Correct. Please leave 
comments and suggestions.

Tuning: Standard


Intro:

   Dm                              C
|--1----1--3----3--5----5--5----5--0----0--1----1--3----3--3----3----------|
|-----3-------3-------3-------3-------1-------1-------1-------1------------|
|--------------------------------------------------------------------------|
|--0-0-0---0-0-0---0-0-0---0-0-0-------------------------------------------|
|----------------------------------3-3-3---3-3-3---3-3-3---3-3-3-----------|
|--------------------------------------------------------------------------|


   Bb             Am                          Dm
|---------------------------------------------1----1--1----1---------------|
|--3----3-6-5-3-1-1h3---3--1----1-0--2--3—0-----3-------3------------------|
|-----3---------------2-------2--------------------------------------------|
|---------------------------------------------0-0-0---0-0-0----------------|
|--1-1-1----------0--0-0---0-0-0-------------------------------------------|
|---------------------------------0--1--3-0--------------------------------|

Verse 1

   Dm       C                Dm
|--1-----1--0-----0-----------1-----1------------------------------------------|
|------3--------1--------—-------3---------------------------------------------|
|---------------------2----0---------------------------------------------------|
|--0—-0--0--------------------0—-0--0------------------------------------------|x2
|-----------3—-3--3------------------------------------------------------------|
|---------------------0----0---------------------------------------------------|
   Touch my mouth and hold my tongue
   I will not be Your chosen one

   Bb                            Dm
|----------------------------------1----1--1----1--1----1--1----1----------|
|--3----3--3----3--3----3--3---—3-----3-------3-------3-------3------------|
|-----3-------3-------3-------3--------------------------------------------|
|----—------------------------—----0-0-0---0-0-0---0-0-0---0-0-0-----------|x2
|--1-1-1—--1-1-1---1-1-1---1-1-1-------------------------------------------|
|--------------------------------------------------------------------------|
   I'll be home safely tucked away
   You can't tempt me if...the day

   Dm       C
|--1-----1--0-----0-----------1-----1------------------------------------------|
|------3--------1--------—--------3--------------------------------------------|
|---------------------2----0---------------------------------------------------|
|--0—-0--0--------------------0—-0--0------------------------------------------|x2
|-----------3—-3--3------------------------------------------------------------|
|---------------------0----0---------------------------------------------------|
   The pull on my flesh was just too strong
   It stifled the choice and the air in my lungs

Bb                               Dm
|----------------------------------1----1--1----1--1----1--1----1----------|
|--3----3--3----3--3----3--3---—3-----3-------3-------3-------3------------|
|-----3-------3-------3-------3--------------------------------------------|
|----—------------------------—----0-0-0---0-0-0---0-0-0---0-0-0-----------|x2
|--1-1-1—--1-1-1---1-1-1---1-1-1-------------------------------------------|
|--------------------------------------------------------------------------|
   Better not to breathe than to breathe a lie
   Cause when I open my body I breathe alive

Repeat Intro

Verse
               Bb    Dm C Dm  C    Dm
    I will not speak ooooooof your sin
               Bb  Dm C Dm  C   Dm
    There was a way oooooout for him
               Bb Dm C Dm C  Dm
    The mirror shooo

Baby Tabs by The Glorious Sons

  The Glorious Sons
Song: Baby
Tab: D. Huson

G1
E----------------------------------------------------------------I
A----------------------------------------------------------------I
D----------------------------------------------------------------I
G----------------------------------------------------------------I
B---8h10--10--10--10--8h10--10--10--8h10--10--10--10--10--10-----I
E-----------------------------------------------8----------------I

                                                        X 2
E----------------------------------------------------------------I
A----------------------------------------------------------------I
D----------------------------------------------------------------I
G----------------------------------------------------------------I
B---8h10--10--10--10--8h10--10--10--8h10--10--10---10--10--10----I
E-----------------------------------------------10---------------I

G2   G     A              G     A   C     D             C      D
E----3--/--5--5--5--5--\--3--/--5--------------------------------I
A----5--/--7--7--7--7--\--5--/--7--------------------------------I
D-----------------------------------3--/--5--5--5--5--\--3--/--5-I
G-----------------------------------5--/--7--7--7--7--\--5--/--7-I
B----------------------------------------------------------------I
E----------------------------------------------------------------I
   
G2 Verse
    G     A              G       A             X 4      C   D
E---3--/--5--5--5--5--\--3--/--5----------------------------------I
A---5--/--7--7--7--7--\--5--/--7-------------------------3--5-----I
D--------------------------------------------------------5--7-----I
G-----------------------------------------------------------------I
B-----------------------------------------------------------------I
E-----------------------------------------------------------------I

http://theglorioussons.com/

Kung Pwede Lang chords – Father And Sons

 INTRO:  Dm F C Em - A Dm F C Am - A Dm Fm 
Sana'y wala ng wakas
        C/B Em - A 
Itong ating pagmamahalan... 
    Dm Fm 
O Hindi ko kaya,
        C/B Am - A 
ang mawalay ka O aking sinta... 
       F Fm C 
Kapag ika'y kasama, langit ang nadarama
                      Am - A 
Pagibig ko sa'yo ay tunay
 Dm F 
Kung pwede lang, 'wag na tayong
        C Am - A 
Magkahiwalay  Hmm


 Dm Fm C/B Em - A 
Mangungulila ako sa'yo, o aking mahal... 

 Dm Fm C/B Am - A 
Tamis ng mga halik mo, ay lagi kong pananabikan... 

         F Fm 
Ang mga yakap mo, at paglalambing mo
     C Am - A 
Ay hahanaphanapin ko... 
    Dm F 
Kung pwede lang, 'wag na tayong
            C Am - A 
Magkahiwalay


   Dm Fm 
Sana'y wala ng wakas
        C/B Em - A 
Itong ating pagtitinginan... 
 Dm Fm C/B Am - A 
Oh sana'y lagi kang katabi ko, sa lahat ng oras... 
        F Fm 
Ang mga yakap mo, at paglalambing mo
     C Am - A 
Ay hahanaphanapin ko... 
           Dm F 
Kung pwede lang, 'wag na tayong
            C Am - A 
Magkahiwalay

INSTRUMENTAL:
 Dm Fm C/B Em - A Dm Fm C/B Am - A F Fm 
Ang mga yakap mo, at paglalambing mo
     C Am - A 
Ay hahanaphanapin ko... 
           Dm F 
Kung pwede lang, huwag na tayong
            C Am - A 
Magkahiwalay


   Dm Fm 
Sana'y wala ng wakas
        C/B Em - A 
Itong ating pagmamahalan... 
 Dm Fm C/B Am - A 
Oh hindi ko kaya ang mawalay ka, O aking sinta... 
         F Fm 
Ang mga yakap mo, at paglalambing mo
     C Am - A 
Ay hahanaphanapin ko... 
           Dm F 
Kung pwede lang, 'wag na tayong
            C Am - A 
Magkahiwalay  (Oh no, no...)
           Dm F 
Kung pwede lang, 'wag na tayong
            C Am - A 
Magkahiwalay (O kung pwede nga lang)
           Dm F 
Kung pwede lang, 'wag na tayong
         C 
Magkahiwalay

Burn Down Los Angeles Tabs by Rival Sons

 -------------------------------------------------------------------------------
                             Burn Down Los Angeles - Rival Sons
-------------------------------------------------------------------------------
: Ross
Tuning: Eb Standard (down 1/2 step)
Tone: Cranked british style amp.  Dirty fuzz with lots of overtones for leads.

Note: I play this with a slide on my pinky to get the lead riff, chords and slides 
licks if you don't have a second guitar (and a person to play it).


Intro/Post Chorus 
e|---------------------------------------------------------------------------|
B|--s12~-----------10\-------------------------------------------------------|
G|--s12~-----------10\-------------------------------------------------------|
D|--s12~-----------10\-------------------------------------------------------|
A|--------------------------------------------------8----------------------8-|
E|----------------------------------8h10--10--8h10--------8h10--10--8h10-----|

Verse
e|---------------------------------------------------------------------------|
B|-------[this phrase 3x, then slide part]-------------------12/------10\----|
G|-----------------------------------------------------------12/------10\----|
D|-----------------------------------------------------------12/------10\----|
A|--------------------8---------------------8--------------------------------|
E|---8h10--10--8h10--------8h10--10--8h10------------------------------------|

Chorus 
e|---------------------------------------------------------------------------|
B|------------------------------------------------------------/10------------|
G|------------------------------------------------------------/10------------|
D|---12-------12-------12-------12-------12-------12----------/10------------|
A|---12-------12-------12-------12-------12-------12-------------------------|
E|---10-------10-------10-------10-------10-------10-------------------------|

Riffage 1:06
e|---------------------------------------------------------------------------|
B|---8b11-8-6----------10----------------------------------------[slow bend]-|
G|------------7~~--/12----12~~-----------------7------7---7------7s10-b-12---|
D|------------------------------------------10----10---------10--------------|
A|---------------------------------------------------------------------------|
E|---------------------------------------------------------------------------|

Riffage 1:16
e|---------------------------------------------------------------------------|
B|-------------------------------------------------------------------10\-----|
G|---/12--10---12---10-10\-------------------------------------------10\-----|
D|---/12--10---12---10-10\-------------------------------------------10\-----|
A|---------------------------------------------------------------------------|
E|---------------------------------------------------------------------------|

Riffage 1:30
e|--15\------s10--s10--------------------------------------------------------|
B|--15\------s10--s10--------13tr15------------------12s----------------22\--|
G|------------------------/14------------------------12s-[slide up to]--22\--|
D|---------------------------------------------------12s----------------22\--|
A|---------------------------------------------------------------------------|
E|---------------------------------------------------------------------------|