Tag: Sorrow

Land Of Snow And Sorrow intro Tabs – Wintersun Vsion 1

 -------------------------------------------------------------------------------
                             Land of Snow and Sorrow - Wintersun
-------------------------------------------------------------------------------
: Kakku
Tuning: EADGBE (Normal)

All the way till first verse.

h   = Hammer on
p   = Pull off
/   = slide
(x) = To play or not to play..
~   = Awesome


e|---------------------------------------------------------------------------|
B|---------------------------------------------------------------------------|
G|---------------------------------------------------------------------------|
D|---------------------------------------------------------------------------|
A|-1--1-3-3-----1-1-3-4-4----1--4-6-6----1-1-6-8-8---------------------------|
E|---------------------------------------------------------------------------|

e|---------------------------------------------------------------------------|
B|---------------------------------------------------------------------------|
G|---------------------------------------------------------------------------|
D|---------------------------------------------------------------------------|
A|-1--1-3-3-----1-1-3-4-4----1--4-6-6----1-1-8-9-9---------------------------|
E|---------------------------------------------------------------------------|

e|---------------------------------------------------------------------------|
B|---------------------------------------------------------------------------|
G|---------------------------------------------------------------------------|
D|---------------------------------------------------------------------------|
A|-1--1-3-3-----1-1-3-4-4----1--4-6-6----1-1-6-8-8---------------------------|
E|---------------------------------------------------------------------------|

e|---------------------------------------------------------------------------|
B|---------------------------------------------------------------------------|
G|---------------------------------------------------------------------------|
D|---------------------------------------------------------------------------|
A|-1--1-3-3-----1-1-3-4-4----1--4-6-6----1-1-8-9-9---(1)---------------------|
E|---------------------------------------------------------------------------|


e|---------------------------------------------------------------------------|
B|---------------------------------------------------------------------------|
G|---------------------------------------------------------------------------|
D|-3h6-6----6p3-6----6-8-10----10s11-11-11----3h6-6----6-5-3----6-8-10-------|
A|---------------------------------------------------------------------------|
E|---------------------------------------------------------------------------|

e|---------------------------------------------------------------------------|
B|---------------------------------------------------------------------------|
G|-------------------------10-13-13---13-10-13---13-15-17---17-18-18b20------|
D|--11/13-13-13h16-16-15-----------------------------------------------------|
A|---------------------------------------------------------------------------|
E|---------------------------------------------------------------------------|

e|---------------------------------------------------------------------------|
B|----------------------------------------14-16-16~--------------------------|
G|-10-13-13---13-12h13p12-10---13-15-17--------------------------------------|
D|---------------------------------------------------------------------------|
A|---------------------------------------------------------------------------|
E|---------------------------------------------------------------------------|

\,,/ 

Repeat 3x:
_________________________________________________________________________________

e|---------------------------------------------------------------------------|
B|---------------------------------------------------------------------------|
G|-----------------

My Names Sorrow chords – Good Old War

 e|-----|--------------------------|
B|-1p0-|-3------------------1-0---|
G|-----|------0---0-----0--2----2-|
D|-----|--------------4-----------|
A|-----|--------------------------|
E|-----|--------------------------|

 G Em 
Follow me back like a ride on a train 
 Am D 
Make it hard to remember the cold 
 G Em 
Take care of your money and stay out of the rain
 Am D 
Your bones could give out when you're old 
 G Em 
I get more of a feeling from words that have truth 
   Am D 
A feeling like something is wrong 

e|------------------|-2--------------------|
B|-0---3---1---0----|-3------3------5------|
G|-0---4---2---0----|--------4------5------|
D|------------------|---------------5------|
A|------------------|----------------------|
E|------------------|----------------------|

Let the door slide open, let the sunlight in

 G Am D G 
Call my name girl, Sorrow


 G Em 
All of the times that I heard you sing 
 Am D 
I hoped there parts there for me
 G Em 
I'd sing all the notes that stay out of your way
 Am D 
We can let all those melodies free 
 G Em 
I think I was meant for an uglier time 
    Am D 
My harmony's all out of tune 

e|------------------|-2--------------------|
B|-0---3---1---0----|-3------3------5------|
G|-0---4---2---0----|--------4------5------|
D|------------------|---------------5------|
A|------------------|----------------------|
E|------------------|----------------------|
Let the verse slide over let the chorus in

 G Am D G 
Call my name girl, Sorrow


 G Am Em C 
We'll be out of the dark when the seasons pass
 G Am D 
But you have to live now or you won't
 G Am Em C  
Put your gloves on your hands, wear your winter skin
 G Am D 
Cause it's over before you say August
 G Am D 
All your friends will await your return

e|------------------|-2--------------------|
B|-0---3---1---0----|-3------3------5------|
G|-0---4---2---0----|--------4------5------|
D|------------------|---------------5------|
A|------------------|----------------------|
E|------------------|----------------------|

With the car doors open and the radio on 
 G Am D G 
Call my name girl, Sorrow

Sorrow oooo

Across The Universe chords – Beatles V11

 Across The Universe
The Beatles
Key: C

Original key is D but I play it in this key because it fits my range slightly better. 
Each line is 2 bars, so the lines that stop halfway or a quarter represent when there are extra bars


Intro:
 C Em                                                   
. . . . . . . . . . . . . .  . . . . . . . . . . . . . . . . . . . . . . . . . . . . . . 
 G                                                    
. . . . . . . . . . . . . . . . . . . . . . . . . . 

Verse 1:
 C Am Em                                 
Words are flowing out like endless rain  into  a  paper  cup,   they 
 Dm7 G7                             
slither  while  they  pass  they  slip away,    across  the   universe
 G7               
. . . . . . . . 
 C Am Em                                    
pools  of  sorrow waves of joy  are drifting through my open mind,  po - 
 Dm7 Fm                                            
ssessing  and  caressing me. . . . . . . . . . . . . . . . .  

Chorus:
 C C                                     
Jai            Guru. . . . . . . . . . . . . .  De- - - - - - - - - - - - - - - - va 
 G7                                                   
Om. . . . . . . . . . . . . . . . . . . . . . . . . 
 G7 G7                                              
Nothing's   gonna   change my world. . . . . . . . . . . . . . . . . . . . . . . 
 F C                                               
Nothing's   gonna   change my world. . . . . . . . . . . . . . . . . . . . . . . 
 G7 G7                                              
Nothing's   gonna   change my world. . . . . . . . . . . . . . . . . . . . . . . 
 F C                                               
Nothing's   gonna   change my world. . . . . . . . . . . . . . . . . . . . . . . 

Verse 2:
 C Am Em                                
Images      of     broken light which dance before me like  a  million 
 Dm7 G7                          
eyes,   they  call  me  on  and  on  across   the   uni  -  verse

 C Am Em                                 
Thoughts meander like a  restless wind inside a letter  box,   they 
 Dm7 G7                            
tumb - le blindly as they make their way across  the  uni - verse
 G7                  
. . . . . . . . . .

Chorus:
 C C                                     
Jai            Guru. . . . . . . . . . . . . .  De- - - - - - - - - - - - - - - - va 
 G7                                                   
Om. . . . . . . . . . . . . . . . . . . . . . . . . 
 G7 G7                                              
Nothing's   gonna   change my world. . . . . . . . . . . . . . . . . . . . . . . 
 F C                                               
Nothing's   gonna   change my world. . . . . . . . . . . . . . . . . . . . . . . 
 G7 G7                                              
Nothing's   gonna   change my world. . . . . . . . . . . . . . . . . . . . . . . 
 F C                                               
Nothing's   gonna   change my world. . . . . . . . . . . . . . . . . . . . . . . 

Verse 3:
 C Am Em                                  
Sounds of laughter shades of light are ringing through my open ears, in - 
 Dm7 Fm                                                  
citing   and     in   -  viting me . . . . . . . . . . . . . . . . . . . . .

 C

Divine Sorrow chords – Avicii

 Wyclef Jean and Avicii - Divine Sorrow
           (RED)

Standard Tuning -  E A D G B E 
No Capo

 C G Am F C G    
  Dearie blossom,
 Am F 
I've gone down to old rock bottom
 C G Am F C 
Now I know the love in my heart was true!
    G 
Divine sorrow,
 Am F 
I thank you for the joy that follow
 C                  
Back then my friend
 G Am F 
If only you knew.........
              C Am G F 
It is harder when you love beyond belief
 F C 
But I'm a fool to let you go
 G F 
So this is for you MY LOVE!

 F C Am 
We will never, we will never have a change of mind
 Am G 
We belong together!
 F C                        
We will never, we will never be the weary kind
 Am G F C Am       
We sing our SORROWS AWAY!
 Am G F C Am  
We sing our SORROWS AWAY!
 Am G F C Am 
We sing our SORROWS AWAY!

 G F C F C Am G F C Am  &  G 
[electronic break]

 C C G 
Divine blessing,
 Am F 
I wish I would've heard your lesson
 C G                                  ( Am , F , C )
Now I know your words were my only truth!
 C G 
I'm just venting,
 Am F 
Or maybe I'm done confessing
 C G 
Back then my friend
             Am F 
If only you knew.....
              C Am G F 
It is harder when you love beyond belief
 F C 
But I'm a fool to let you go
 G F 
So this is for you MY LOVE!

 F C Am 
We will never, we will never have a change of mind
 Am G 
We belong together!
 F C                        
We will never, we will never be the weary kind
 Am G F C Am       
We sing our SORROWS AWAY!
 Am G F C Am  
We sing our SORROWS AWAY!
 Am G F C Am 
We sing our SORROWS AWAY!

 Am G F  
We can make it through Judgement Day,
  C Am 
We won't go fading away
 G F C G        
All I ever know must be Heaven where you come from
 Am G F 
We can make it through cloudy skies,
 C Am 
By your side I feel ALIVE
 G F C F             
All I ever know must be Heaven where you come from, yeah!

 F C Am G F C Am  to a palm mute  G  *

Lucca chords – Jaymay

 C D 
You should know I could never hold your photo
                    G C 
it trembled in my hand and I had to let it go
           Am D 
And the people came and the people went
        G C 
And the cards and the flowers and the food was sent


             Am 
I saw your mom
            D 
I saw your dad
             G 
I saw your sisters
                      C 
Your brothers and the house you had
          Am D 
And it's strange to be with a family

Who keeps saying:
 G C 
"Say something 'fore the food goes bad,"



What are we to make
                        G 
What are we to make of this?
 C 
We are just adults
                      G C 
And you were just a little crazy kid


 Am D 
The living room lights were dim
         G C 
I saw you in your brother when I looked at him
         Am D 
And it brought back painful memories
        G C 
Of the pool and the fool on piano keys


          Am D 
And I had no idea how to be myself
       G C 
I've forgotten what it's like to think of someone else
          Am D 
And it's strange to be a with a family who keeps saying:
         G C 
"Only I see how you look in at me,"



What are we to make
                        G 
What are we to make of this?
 C 
We are just adults
                      G C 
And you were just a little crazy kid


          Am D 
We drove home long after the sky grew dark
         G C 
We sat alone a little while after the car was parked
              Am D 
We felt the luckiest of our entire lives, husbands said
    G C 
"I love you" that night when they kissed their wives


                 Am D 
'Cause it's the greatest relief when it isn't your own kid
               G C 
But it's the greatest grief when it is
                Am D 
And it's the greatest sorrow losing what you love
             G C 
But what's worst is wondering why you did



What are we to make
                        G 
What are we to make of this?
 C 
We are just adults
                      G C 
And you were just a little crazy kid



What are we to make
                        G             
What are we to make of this?
 C 
We are just adults
                        G C Am 
And you are just water under the bridge

Jonatha Eng – Myling Lullaby chords

 From the OST to the PC version of the Simogo game Year Walk.
http://www.loudr.fm/release/myling-lullaby/tUB5x
Should be finger picked.

--- Chorus 1
 Dm Am 
Sleep now, my child
     Dm Am 
The day is almost done

 Dm ,  Am ,  Dm ,  Am Dm Am 
Sleep now, my child
       Dm Am 
There goes the sinking sun


--- Chorus 2
       C Dm 
We're placed into this world
      C Dm 
left to survive somehow
 F 
But no ghastly sight
 C 
out in the night
 Am Dm 
can hurt you now


--- Chorus 1
Sleep now, my child
The stars above us glow
Sleep now, my child
They glitter like the snow

--- Chorus 2
This winter is going to last
a lifetime, I am told
But you will see
you'll always be
safe from the cold

--- Bridge
                 F 
I have heard of those
           G 
who would walk the woods
 B F 
hoping one day they could
 Dm C 
see if the future held
 Am Dm 
sorrow or bliss

--- Bridge
What I wouldn't give
for a chance to see
what you'll grow up to be
I hope you find a life
better than this

--- Chorus 1
Sleep now, my child
The raven sings its song
Sleep now, my child
The forest sings along

--- Chorus 2
When morning comes you'll be
in someplace far away
And just by a wink
you'll never think
back on this day

--- Chorus 2
This life is oh so grim
It's tearing us apart
But I'll always keep
my baby deep
within my heart

Miss Canonball – The Almighty Dollar chords

 Repeat:  Em | D . 
Throughout the hiphop part he plays the inversion of Em with the root on the 
fourth fret of the G-string; the inversion is played as an open Dm chord without 
the fourth string, that's the shape of the inversion of Em which he plays. 

Lyrics 
                 Em D 
I'm never gonna sell my soul for no fool's gold
                Em D 
I rather die innocent young than old
                Em D 
Who says life celebration brings live creation
                Em D 
Despise fake nation at the same time take a motion
I wish all single person understand on which ground we stand
If you do come as you are and raise your hand
But as my thoughts gets deeper
I see the world in different figures
You 're all relying around me I am the gardener
Recycling old modes tones and tonalities 
Wondering about codes of moralities
Yo ! innocence is a constancy in a sense
So what we've witness yesterday will still shine tomorrow
Awake the next day we still feel the sorrow
The al mighty dollar is the one we gots to run

It's the all mighty dolla

                Em D 
I'm never gonna forget my soul 
                Em D 
Never forget why my friends here for
                Em D 
I am not of iron I am not of gold
That why sometimes I'm afraid of the cold
Somedays I feel lost even if I'm free
That why sometimes I'm afraid of the cold
Somedays I feel lost even if I'm free
If you see me falling please rescue me
Why sometimes I just can't understand
Trap in this life like a innoncent lamb
Why sometimes I just can't understand
Trap in this life like a innoncent lamb

Oh lord!
Your rhythm is my song

Let say that you gotta work now
Cause Monday means money
And that how appears the fool's gold in our life
It's a path that you can see through
A spiritual path that you must go through in life
But don't forget that your just like a clown
Cause no king ever finds truth in life
Oh no! the clown put on a costume
And you put on some rings
Feel like I presume you'll pull on some strings
Oh Lord!
Please forgive all the kings and all of the sins that I sings


Cause man, man are only man
Even when they pray
They'll go to you and say
Give me more money
Give me more power
But don't give me no soul
Cause I'm just another monkey
Trap in reality

One day we will rise over this

Good For You chords – Hothouse Flowers

 GOOD FOR YOU - HOTHOUSE FLOWERS

(Intro:   F , G , Am ,  G ,  F ,  C ,  F ,  C ,  F ,  C )

      C Em F 
I've spent my life watching sky and sea change colour
      C Em F 
hypnotised by the beauty of it all
 G Am G F 
And you ask me why I'm singing
      C F C F C 
Well it is good for me, it can be good for you

     
      C Em F 
I've hoarded all experiences I've had
         C Em F 
Written down all memories on a train
 G Am G F 
And you ask me where I'm headed
 C F C F C 
It can be good for you And it's been good for me

 C Em F 
I've seen a face in a thousand nights of dreaming
          C Em F 
It's been calling me to take up on the road
 G Am G F 
And I'll go I will I'll keep on believing
 C F C F C 
'Cos it is good for me, It can be good for you

 C Em F 
I've begged my family to take me
 C Em F 
Asked them to see my point of view
 G Am G F 
And I will, I will stand my ground and face you
 C F C F C 
'Cos you are good for me, I can be good for you

(Solo:  Em ,  F ,  C ,  Em ,  F ,  G ,  Am ,  G ,  F ,  C )

 C Em F 
I've seen a thousand nights of ardour
     C Em F 
Got frozen by the winter of my soul
 G Am G F 
But I'm not afraid of sorrow
 C F C F C 
'Cos it's been good for me, It can be good for you

 C Em F 
And I've woken to the sound of sweet dawn music
        C Em F 
Where a hundred thousand songs are sung
 G Am G F 
While the earth and ocean changes
 C F C F C 
Four thousand million into one

Knock Knock Whos There chords – Mary Hopkin

 Knock, Knock, Whos there. (By Mary Hopkin and Liv Maessen)

Intro.  F#m/A / D/A F#m A 
Tears of rain run down my window pane
          D 
I'm on my own again, believe me, sorrow
 F# Bm 
Sit and dream of how things might have been
           Em A 
And as I close my eyes, I get the strangest feeling

 D G 
Knock knock, who's there
 A D 
Could this be love that's calling
 Bm F#m Em A 
The door is always open wid--e
 D G 
Knock knock - who's there
 A D 
Now as the night is falling
 F#m Em D 
Take off your coat and come inside

 F#m A 
Climb the stair and then I say a prayer
              D 
For someone who could share my situation
 F# Bm 
But instead as I lay down my head
            Em A 
I have to leave it all to my imagination

 D G 
Knock knock, who's there
 A D 
Could this be love that's calling
 Bm F#m Em A 
The door is always open wid--e
 D G 
Knock knock - who's there
 A D 
Now as the night is falling
 F#m Em D 
Take off your coat and come inside

 F#m A 
Lah-la-lah, la-la-la, lah-la-lah
              D 
La-la-la, lah-la-lah, la-la-la-la-lah
 F# Bm 
Lah-la-lah, la-la-la, lah-la-lah
              Em A ////////
La-la-la, lah-la-lah, la-la-la-la-lah----h

 F# Bm 
Sit and dream of how things might have been
           Em A 
And as I close my eyes I get the strangest feeling
 D G 
Knock knock, who's there
 A D 
Could this be love that's calling
 Bm F#m Em A 
The door is always open wid--e
 D G 
Knock knock - who's there
 A D 
Now as the night is falling
 F#m Em D 
Take off your coat and come inside

Captain Im Fine And I Thank You For Everything Tabs by Right Away Great Captain V3

 -------------------------------------------------------------------------------
           CAPTAIN, I'M FINE AND THANK YOU FOR EVERYTHING - Right Away, Great Captain!
-------------------------------------------------------------------------------

| /  Slide up

Verse
e|---------------------------------------------------------|
B|---------------------------------------------------------|
G|---------------------------------------------------------|
D|-------------0-----0-----0--------------0-----0-----0----|  x4 (extra open one
A|--------------0-----0-----0--------------0-----0-----0---|         on end)
D|-/12-11-7-5----55-----5-------/9-7-5-0----00-----0-------|

Chorus
|-----------------------------------------------------|
|-----------------------------------------------------|
|-----------------------------------------------------|
|------0-----0-------0-----0-----0-----0-----0-----0--|  x2
|-------0-----0-------0-----0-----0-----0-----0-----0-|
|-0h2-----2-----2/5-----5-----0-----0-----0-----0-----|

Verse 2 – Same as Verse – x4
Chorus – x1

Outro.
|-----------------------|--------------|
|-----------------------|--------------|
|-----------------------|--------------|
|------0-----0-------0--|----------0---|
|-------0-----0-------0-|--------------|
|-0h2-----2-----2/5-----|-/12-11-7-0---|

Captain's glory.
The trumpets’ll sound.
I'm unfamiliar.
You're under the ground.
And I tried crying,
but strength was unveiled.
You left us, you bastard.
You left us to sail.

And I won't, won’t, won’t let you down.
No, I won't, won’t, won’t let you down.

And in the winters,
I need you around.
I still feel sorrow,
and I still write it down.
And my children they're just fine,
they'd have loved you, you know.
Their father's a captain,
with a beard just like you.

And I won't, won’t, won’t let you down.
No, I won't, won’t, won’t let you down.

Sorry chords – Jonas Brothers V8

 Dm A# C Am A# Gm C Dm A# 
Broken hearts and last goodbyes
 C Am 
Restless nights but lullabies
 A# Gm C 
Help to make this pain go away
   Dm A# 
I realize I let you down
 C Am 
Told you that I'd be around
     A# Gm C 
I'm bulding up the strength just to say


     A# Dm 
I'm sorry
     C Am A# Dm Gm    ( C )
For breaking all the promises that I wasn't around to keep
      A# Dm 
It's on me
      C Am A# Dm Gm   ( C )
This time is the last time I will ever beg you to stay
            A# C 
But you're already on your way


 Dm A# C Am A# Gm C Dm A# 
Filled with sorrow filled with pain
 C Am 
Knowing that I am to blame
     A# Gm C 
For leaving your heart out in the rain
   Dm A# 
I know you're gonna walk away
 C Am 
Leave me with the price to pay
   A# Gm C 
Before you go I wanted to say


     A# Dm 
I'm sorry
     C Am A# Dm Gm    ( C )
For breaking all the promises that I wasn't around to keep
      A# Dm 
It's on me
      C Am A# Dm Gm   ( C )
This time is the last time I will ever beg you to stay
            A# C 
But you're already on your way


   A# Dm C 
I can't make it alive on my own
            A# 
But if you have to go then please girl
      Dm [         C 
Just leave me alone
                Gm Dm 
'Cause I don't want to see you and me
 C F 
Goin' our separate ways
     A# A# (m)
I'm begging you to stay if it isn't too late

     A# Dm 
I'm sorry
     C Am A# Dm Gm    ( C )
For breaking all the promises that I wasn't around to keep
      A# Dm 
It's on me
      C Am A# Dm Gm   ( C )
This time is the last time I will ever beg you to stay
            A# C Dm 
But you're already on your way
            A# C F 
But you're already on your way

The Old Sorrow Tabs by Dsis

 Intro part 1:
D|------------------------------|
A|------------------------------|
F|------------------------------|
C|0-----------------------------| (Let it slowly build up)
G|0--------(Let it ring)--------|
C|0-----------------------------|

Intro part 2:
D|----------------------|
A|----------------------|
F|----------------------|
C|1-3-3--1-3--1-3-3-6-3-| X8
G|1-3-3--1-3--1-3-3-6-3-|
C|1-3-3--1-3--1-3-3-6-3-|
                
Verse riff 1: (Play this twice)
D|----------------------|    D|----------------------|
A|----------------------|    A|----------------------|
F|----------------------|    F|----------------------|
C|----------------------| X3 C|----------------------|
G|----------------------|    G|--------------------5b|
C|0-0--0-0-0-0--0-0-----|    C|0-0--0-0-0-0--0-0-----|
PM. .  . . . .  . .          PM. .  . . . .  . .

Interlude:
D|----------------------|
A|----------------------|
F|----------------------|
C|1-3-3--1-3--1-3-3-6-3-| X8
G|1-3-3--1-3--1-3-3-6-3-|
C|1-3-3--1-3--1-3-3-6-3-|

Verse riff 2: (Play this once)
D|----------------------|    D|----------------------|
A|----------------------|    A|----------------------|
F|----------------------|    F|----------------------|
C|----------------------| X3 C|----------------------|
G|----------------------|    G|--------------------5b|
C|0-0--0-0-0-0--0-0-----|    C|0-0--0-0-0-0--0-0-----|
PM. .  . . . .  . .          PM. .  . . . .  . .

Then play this:
D|----------------------|    D|---------------------------------|
A|----------------------|    A|---------------------------------|
F|----------------------|    F|---------------------------------|
C|----------------------| X3 C|----------------0----------------|
G|----------------------|    G|----------------0-(Let it ring)--|
C|0-0--0-0-0-0--0-0-----|    C|0-0--0-0-0-0--0-0----------------|
PM. .  . . . .  . .          PM. .  . . . .  .

Pre-chorus:
D|----------------------|
A|----------------------|
F|----------------------|
C|24-------------------0|
G|24---(Pick scrape)---0| (last 2 beats)
C|24-------------------0|

Chorus:
D|----------------------|
A|----------------------|
F|----------------------|
C|1-3-3--1-3--1-3-3-6-3-| X7
G|1-3-3--1-3--1-3-3-6-3-|
C|1-3-3--1-3--1-3-3-6-3-|

Then play this:
D|-------------------|
A|-------------------|
F|-------------------|
C|1-3-3--1-3--1-3-3-6|
G|1-3-3--1-3--1-3-3-6|
C|1-3-3--1-3--1-3-3-6|

Pre-bridge riff:
D|-------------------------------------------|
A|-------------------------------------------|
F|-------------------------------------------|
C|----------------------1-3-3--1-3--1-3-3-6-6|
G|----------------------1-3-3--1-3--1-3-3-6-6|
C|1-3-3--1-3--1-3-3-6-3-1-3-3--1-3--1-3-3-6-6|

Bridge part 1:
D|----------------------|
A|----------------------|
F|----------------------|
C|1-3-3--1-3--1-3-3-6-3-| X8
G|1-3-3--1-3--1-3-3-6-3-|
C|1-3-3--1-3--1-3-3-6-3-|

Bridge part 2 riff 1:
D|---------------------------|
A|---------------------------|
F|---------------------------|
C|------------------------1--| X2
G|------------------------1--|
C|0-0---0-0----0000-0-0---1--|
PM. .   . .    .... . .   

Bridge part 2 riff 2:
D|-------------------|
A|-------------------|
F|-------------------|
C|-------------------| X4
G|-------------------|
C|0-0--0-0-0-0--0-0--|
PM. .  . . . .  . .

Final chorus riff (Rhythm guitar X16):
D|----------------------|
A|----------------------|
F|----------------------|
C|1-3-3--1-3--1-3-3-6-3-| X16
G|1-3-3--1-3--1-3-3-6-3-|
C|1-3-3--1-3--1-3-3-6-3-|

Solo part 1: (Play with wha-wha)
D|--------------------------------------------------|
A|--------------------------------------------------|
F|--------------------------------------------------|
C|h12p0h12p0h12p0h12p0h12p0h12p0h12p0h12p0h12p0h12p0|
G|--------------------------------------------------|
C|--------------------------------------------------|

Solo part 2: (Pl

A Reason Tabs by The Sorrow

 -------------------------------------------------------------------------------
                              A Reason - The Sorrow
-------------------------------------------------------------------------------

Tuning: Dropped C / C G C F A D
: Maxi Niessl
 themaexmon@gmx.de (ask me something if you have questions about my tabs)

Intro:

Matze:

D|-------------|------------|------------|------------|
A|-------------|------------|------------|------------|                    
F|-------------|------------|------------|------------|---------------------\
C|-3-----------|7-----------|2-----------|5-----------|                      \ 
G|-3-----------|7-----------|2-----------|5-----------|                       \
C|-3-----------|7-----------|2-----------|5-----------|                        \
                                                                                \  x2
Andi:                                                                           /
     PM    PM        PM         PM    PM        PM                             /
D|------------------------------------------------------------------------|   /
A|------------------------------------------------------------------------|  /
F|-9----10----9h10p9----- x4 ----------------------- x3 ------------------| /
C|---10----10--------10-------9----10----9h10p9----------9h10p9p7h9h10p9p7|/
G|------------------------------10----10--------12------------------------|
C|------------------------------------------------------------------------|


Pre-Verse:

Matze:
  PM - - -    PM - - -    PM -
D|---------------------------------------------------------|
A|---------------------------------------------------------|
F|---------------------------------------------------------|
C|---------------------------------------5-----------------|
G|---------3h5-----------------5-------------------7-----8-|
C|-0-0-0-0-----0-0-0-0-3h5-0-0----3--0-------3--0-----5----|
  PM - - -    PM - - -    PM -
D|---------------------------------------------------------|
A|---------------------------------------------------------|
F|---------------------------------------------------------|
C|-------------------------------------------------3--3----|
G|---------3h5-----------------5---------7---------1--1--3-|
C|-0-0-0-0-----0-0-0-0-3h5-0-0----3--0-------3--0--------3-|


Matze & Andi:
  PM - - -    PM - - -    PM -
D|---------------------------------------------------------|
A|---------------------------------------------------------|
F|---------------------------------------------------------|
C|---------------------------------------5-----------------|
G|---------3h5-----------------5-------------------7-----8-|
C|-0-0-0-0-----0-0-0-0-3h5-0-0----3--0-------3--0-----5----|
  PM - - -    PM - - -    PM -
D|---------------------------------------------------------|
A|---------------------------------------------------------|
F|---------------------------------------------------------|
C|-------------------------------------------------3--3----|
G|---------3h5-----------------5---------7---------1--1--3-|
C|-0-0-0-0-----0-0-0-0-3h5-0-0----3--0-------3--0--------3-|

Verse:

Matze:
  PM - - -    PM - - -    PM -
D|--------------------------------------------------------|
A|--------------------------------------------------------|
F|--------------------------------------------------------|
C|---------------------------------------5----------------|
G|---------3h5------------------5-----------------7-----8-|
C|-0-0-0-0-----0-0-0-0-3h5-0-0-----3--0-----3--0-----5----|
  PM - - -    PM - - -    PM                      A.H.
D|--------------------------------------------------------|
A|--------------------------------------------------------|
F|--------------------------------------------------------|
C|--------------------------------------------------------|
G|---------3h5------------------5--------7------------

Lost Chapters Tabs by The Sorrow

 -------------------------------------------------------------------------------
                              Lost Chapters - The Sorrow
-------------------------------------------------------------------------------

Tuning: Dropped Bb/A# Bb F Bb Eb G C
: Maxi Niessl
 themaexmon@gmx.de (ask me something if you have questions about my tabs)


Intro:

Matze (add slightly grunge):

    LET RING  - - - - - - - - - - - - - - - - - - - - - - - - - - - - - 
C ||---------------------------------|---------------------------------|
G ||---------------------------------|---------------------------------|
Eb||---------------------------------|---------------------------------|
Bb||---------3-----------------------|---------2-----------------------|\
F ||--/5---5---5---------------------|--/3---3---3---------------------| \
Bb||-0---0-------0-0-0-0-0-0-0-0-0-0-|-0---0-------0-0-0-0-0-0-0-0-0-0-|  \
    - - - - - - - - - - - - - - - - - - - - - - - - - - - - - - - - - -    \ 3x
C ||---------------------------------|---------------------------------|   /
G ||---------------------------------|---------------------------------|  /
Eb||---------------------------------|---------------------------------| /
Bb||---------3-----------------------|---------------------------------|/
F ||--/5---5---5---------------------|-------------------5-------------|
Bb||-0---0-------0-0-0-0-0-0-0-0-0-0-|/5-5-5/8-8-8/3-3-3---3p0-2br-----|

Andi (one tact after Matze begins playin')

    LET RING  - - - - - - - - - - - - - - - - - - - - - - - - - - - - -
C ||---------------------------------|---------------------------------|
G ||---------6-------------6---------|---------5---------------5-----8-|
Eb||-------7---7---------------7-----|-------7---7-----------7---7-----|
Bb||-----7-------7-------7-------7---|-----7-------7-------7-------7---|\
F ||--/5-----------5---5-----------5-|---5-----------5---5-------------| \
Bb||-0---------------0---------------|-0---------------0---------------|  \
    LET RING  - - - - - - - - - - - - - - - - - - - - - - - - - - - - -    \ 2x
C ||---------------------------------|---------------------------------|   /
G ||---------6-------------6---------|---------5---------------5-------|  /
Eb||-------7---7---------------7-----|-------7---7-----------7---7-----| /
Bb||-----7-------7-------7-------7---|-----7-------7-------7-------7---|/
F ||--/5-----------5---5-----------5-|---5-----------5---5-----------5-|
Bb||-0---------------0---------------|-0---------------0---------------|

Verse:

Matze & Andi:

    PM   PM|     PM - - - - |  PM- -| PM   PM-|    PM - - - - -| PM- -|
C ||---------------------------------|---------------------------------|
G ||---------------------------------|---------------------------------|
Eb||---------------------------------|---------------------------------|
Bb||---------3-----------------------|---------2-----------------------|\
F ||---5-------5---------------------|---3-------3---------------------| \
Bb||-0---0-0-----0-0-0-0-0-0-0-0-0-0-|-0---0-0-----0-0-0-0-0-0-0-0-0-0-|  \
    PM   PM-     PM - - - - -  PM- -                                       \ 2x
C ||---------------------------------|---------------------------------|   /
G ||---------------------------------|---------------------------------|  /
Eb||---------------------------------|---------------------------------| /
Bb||---------3-----------------------|---------------------------------|/
F ||---5-------5---------------------|-------------------5-------------|
Bb||-0---0-0-----0-0-0-0-0-0-0-0-0-0-|/5-5-5/8-8-8/3-3-3---3p0-2br-----|


Pre-Chorus:

Matze & Andi:
            PM|        PM-----|        PM        PM-----|                                     
C ||--------------------------|-------------------------|
G ||--------------------------|-------------------------|
Eb||--------------------------|-------------------------| x2
Bb||--------------

Retracing Memories Tabs by The Sorrow

 -------------------------------------------------------------------------------
                          Retracing Memories - The Sorrow
-------------------------------------------------------------------------------

Tuning: Dropped Db/C#   Db Ab Db Gb Bb Eb / C# G# C# F# A# D#
Tempo: ca. 70 BPM
: Maxi Niessl
 themaexmon@gmx.de (ask me if you have questions :P)

Enjoy :)

Intro:

Matze:

   4/4
Eb|-----------------      -----------------      |
Bb|-----------------      -----------------      |
Gb|-----------------  x2  -----------------  x2  |
Db|-----------------      -----------------      |
Ab|-----------------      -----------------      |
Db|-3000000000000000      -000000000000000-      |


Andi:

Eb|-----------------      --------------------      |
Bb|-----------------      --------------------      |
Gb|-----------------  x2  --------------------  x2  |
Db|-----------------      -3333333333333333---      |
Ab|-----------------      -5555555555555555---      |
Db|-3000000000000000      --------------------      |


Matze & Andi:


   4/4                      5/4
Eb|-----------------------| -----------------------------|
Bb|-----------------------| -----------------------------|
Gb|-----------------------| -----------------------------|
Db|-3--3--3------------3--| -2--2--2---------------2--2--|
Ab|-1--1--1------------1--| -3--3--3---------------3--3--|
Db|-----------------------| -----------------------------|

repeat 2x, but in the second tact of the second part is the 5/4 tact an 4/4 tact and the 
same as the first part.


Verse:

Matze & Andi:

   PM------------------------------------------|
Eb|--------------| -------------------|--------|
Bb|--------------| -------------------|--------|
Gb|--------------| -------------------|--------|
Db|--------------| -------------------|--------|
Ab|-0000000000---| -----0-00-00-0-00-0|0-------|
Db|-0000000000---| -----0-00-00-0-00-0|0-------|

   PM------------------------------------------|
Eb|--------------| -------------------|--------|
Bb|--------------| -------------------|--------|
Gb|--------------| -------------------|--------|
Db|--------------| -------------------|--------|
Ab|-0000000000---| -----0-00-00-0-00-0|3-------|
Db|-0000000000---| -----0-00-00-0-00-0|5-------|


Matze:


   PM------------------------------------------|
Eb|--------------| -------------------|--------|
Bb|--------------| -------------------|--------|
Gb|--------------| -------------------|--------|
Db|--------------| -------------------|--------|
Ab|-0000000000---| -----0-00-00-0-00-0|0-------|
Db|-0000000000---| -----0-00-00-0-00-0|0-------|

   PM------------------------------------------|
Eb|--------------| -------------------|--------|
Bb|--------------| -------------------|--------|
Gb|--------------| -------------------|--------|
Db|--------------| -------------------|--------|
Ab|-0000000000---| -----0-00-00-0-00-0|3-------|
Db|-0000000000---| -----0-00-00-0-00-0|5-------|


Andi:
   4/4
     PM----   PM   PM   PM   PM    PM--   PM   PM------------------------------|
Eb|-------------------------------|------------------|-------------------------|
Bb|-------------------------------|------------------|-------------------------|
Gb|-------------------------------|------------------|-------------------------|
Db|--0000003p0008p0005p0007p0007p0|00005p0003p0000000|003p02p0---3p02p0---2h3--|
Ab|-------------------------------|------------------|--------3p0------3p0-----|
Db|-------------------------------|------------------|-------------------------|

repeat Andi's part 2x

Main-Riff:

Matze:


Eb|-----------------      -----------------      |
Bb|-----------------      -----------------      |
Gb|-----------------  x2  -----------------  x2  |
Db|-----------------      -----------------      |
Ab|-----------------      -----------------      |
Db|-3000000000

Sorrow chords – Flyleaf V4

 (I tried putting the chord above the lyrics to where I transition. I feel a little 
iffy about using F (bare this chord I think it sounds better) in the chorus so if 
you think it needs to be out that is your preference)

Lead in- ( Dm / C/Bb / C )
 Bb 
Sometimes life seems too quiet
      C 
Into paralyzing silence
 Dm 
Like the moonless dark
 C 
Meant to make me strong

 Bb C 
Familiar breath of my old lies
 Dm C 
Changed the color in my eyes
 Bb C Dm 
Soon he will perforate the fabric of the peaceful by and by
       
Chorus:
        Bb F C 
Sorrow lasts through this night
 Dm F 
I'll take this piece of you
 C 
And hope for all eternity
 Bb F C 
For just one second I felt whole
        Dm C 
As you flew right through me

 Bb C 
Left alone with only reflections of the memory
 Dm C 
To face the ugly girl that's smothering me
 Bb C 
Sitting closer than my pain
 Dm C 
He knew each tear before it came
 Bb C Dm 
Soon He will perforate the fabric of the peaceful by and by

Chorus:
        Bb F C 
Sorrow last through this night
 Dm F 
I'll take this piece of You
 C 
And hope for all eternity
 Bb F C 
For just one second I felt whole
 Dm C 
As You flew right through me

        Bb C 
And we kiss each other one more time
     Dm C 
And sing this lie that's halfway mine
 Bb C 
The sword is slicing through the question
                      Dm C 
So I won't be fooled by his angel light


Chorus:
        Bb F C 
Sorrow last through this night
 Dm F 
I'll take this piece of You
 C 
And hope for all eternity
 Bb F C 
For just one second I felt whole
 Dm                            
As You flew right through me
     C                   Leading out - ( Dm / C/Bb / C )
And up into the stars

Define Love Chords – Christine Natalia

 Bb C 
Grace has come upon me
 Bb C 
you save us from misery
 Dm C 
though the world is full of sins
 Bb C 
regret is the last thing you see

 Bb C 
your mercy lord has given me
 Bb C 
a freedom for eternity

 Bb C 
this is my thanks for you lord
 Bb C 
a sign of gratitude
 Bb C 
though its nothing much 
 Bb C 
let your will be done

 Bb C 
forever I worship you lord
 Bb C 
i live to bring you praise
 Bb  
i live because your grace
 C F 
its defining love

 Bb C 
the sorrow that you  carry
 Bb C 
the burden that had been prayed 
 Dm C 
your willing soul and humble heart
 Bb C 
has given me a brand new start

 Bb C 
your mercy lord has given me
 Bb C 
a freedom for eternity

 Bb C 
this is my thanks for you lord
 Bb C 
a sign of gratitude
 Bb C 
though its nothing much 
 Bb C 
let your will be done

 Bb C 
forever I worship you lord
 Bb C 
i live to bring you praise
 Bb 
i live because your grace
 C F 
its defining love

 Bb C 
love you lord love you for everything
 Bb C 
thank you lord thank you for everything

 Bb C 
this is my thanks for you lord
 Bb C 
a sign of gratitude
 Bb C 
though its nothing much 
 Bb C 
let your will be done

 Bb C 
forever I worship you lord
 Bb C 
i live to bring you praise
 Bb 
i live because your grace
 C F 
its defining love

Losing You Chords – Dream Evil

 Didn't find any chords to this song so I decided to tab it myself, hope you like it!

Intro:  Am G Am G Am G F Am G 
In the dead of the night
 Am G 
As the candles die out
 Am G F 
I'm watching her going to sleep
 Am G 
She has to be strong
 Am G 
She's left all alone
 Am G F 
I have to go out in the fields

 Dm G 
You're all I ever wanted
              Am G Am G 
There's just pain without you
 Dm G 
But something came between us,
    F E 
My love

 
 Am G 
Words cannot express
 Am G 
The sorrow I feel
 Am G F 
I wish I could turn back time
 Am G 
To where we began
 Am G 
Where love has no end
 Am G F 
And you and me were as one

 Dm G 
You're all I ever wanted
              Am G Am G 
There's just pain without you
 Dm G F E 
Hear the angels cry in heaven, my love


     Am G C 
I'm scared I might be losing you
       Dm E Am G 
and I don't know which way to turn
   C Dm Am             
I feel I might be losing you
   G F E Am 
I can't live my life without your love

 Am G 
The sound of your breath
 Am G 
The smell of your hair
 Am G F 
The touch of your golden skin
 Am G 
They keep me awake
 Am G 
Through out every night
 Am G F 
To think of what might have been

 Dm G 
You're all I ever wanted
           Am G Am G 
You're my life and my lust
 Dm G F E 
I could never mean to hurt you, my love


     Am G C 
I'm scared I might be losing you
       Dm E Am G 
and I don't know which way to turn
   C Dm Am             
I feel I might be losing you
   G F E Am 
I can't live my life without your love

 E C Am Dm Am 
I have fought so many battles
 Dm C E 
I have suffered so much pain
 Dm Am                        
Without you to love and hold me
 Dm C E   
All of this would be in vain


I'm scared I might be losing, 
I feel I might be losing you
I can't live my life without your love

I'm scared I might be losing you
and I don't know which way to turn
I feel I might be losing you
I can't live my life without your love

Leviathan Chords – Mark Lanegan

 Mark Lanegan
"Leviathan"
Blues Funeral
tabbed by: smcclure09@yahoo.com

standard tuning

Intro:

e----------------|
B----------------|
G----------------|
D-\7---5---3---2-|
A----------------|
E----------------|

 D C G Bb 
After the deadlock and dazzle
 D C G Bb 
As good as, or better than gold
   D C G Bb 
I lay down my guns on the table
      D C G Bb 
First scarlet then blue growing cold
      D C 
Black light and smoke
 G Bb 
Making a joke
        D C G Bb 
In the haze of a setting sun
 D C G Bb 
Leviathan waits in the water
 D C G Bb 
Skeletons hide in the trees
 D C G Bb 
The hours crawl by like a spider
 D C G Bb 
Hangman is following me
 D C 
At sorrow's door
 G Bb 
A century more
       D C G Bb 
In the rays of a setting sun
 D C G Bb 
After the deadlock and dazzle
 D C G Bb 
Glitters at night like it's gold
     D C G Bb 
You lay down your heart if you're able
      D C G Bb 
First scarlet then blue growing cold
 D 
Everyday a prayer
      C 
For what I never knew
 G Bb 
But this is one I said for you


Chords used:
    D C G Bb 
e-------------|
B-------------|
G--7--5-----3-|
D--7--5--5--3-|
A--5--3--5--1-|
E--------3----|

Walk Along Cattle Drives Chords – Jesse Woods

 Jesse Woods ~ Walk Along Cattle Drives 
(Get Your Burden's Lifted)
(2013)

*Just listen for the Rhythm.



Intro:   C ,  Dm ,  G ,  C ,  Dm ,  G ,



 C A 
Loose ends all around, Never Gonna get me down
 Dm G 
 Always got tomorrow, finish what we started
 C 
 You can getta PomPom, Bye Bye,
 A 
 You can getta hitch on my hide,
 Dm G 
 Always got tomorrow, always shake the sorrow
---------------------------------------------

 C F 
 The energy hits the hardest...
 C F 
 In the morning Darkness
 C F 
 Right before the Sunrise
                          C 
Right before the moon dies
                         F 
Dreams are turnin inside out
 E C 
Dreams are turnin inside out...

 Dm ,  G ,  C Dm ,  G , 


 C 
 Walk along cattle drives,
 A 
 Wishin they live in my eyes,
 Dm 
 I have to be that close to see,
 G                                 
Everything you try to show to me like,
 C 
How to slow down and take it all in,
 A 
Find your love and fall into to be,
 Dm 
Don't look back at everything twice,
 G 
Keep ya blood stream cold as ice,
--------------------------------


The energy hits the hardest...
In the morning Darkness
Right before the Sunrise
Right before the moon dies
dreams are turnin inside out
dreams are turnin inside out...


_______________________________
-------------------------------
-------------------------------
-Hope you enjoy my first tab...