Tag: soul

Soul Deep chords – Eddy Arnold

 C F C F 
Darling I don't know much I know I love you so much

 C F 
My life depends on your touch

        C F C 
And my love is a river running soul deep

                         F C 
Way down inside me it's soul deep

                 F G7 C 
It's too big to hide and it can't be denied

    F C G7 C 
My love is a river running soul deep soul deep


                  F C F 
I work myself to death for ya just to show I adore ya

 C F 
Nothing I wouldn't do for ya

          C F C 
Cause my love is a river running soul deep

                         F C 
Way down inside me it's soul deep

                 F G7 C 
It's too big to hide and it can't be denied

    F C G7 C 
My love is a river running soul deep soul deep


                  Am F G7 
All I am or ever hoped to be depends on your love for me

 C Am 
Baby believe me if you'd do leave me

 F A# C 
I'd be nothing but an empty shell I know darn well


 C F C F 
Darling I don't know much I know I love you so much

 C F 
My life depends on your touch

        C F C 
And my love is a river running soul deep

                         F C 
Way down inside me it's soul deep

                 F G7 C 
It's too big to hide and it can't be denied

    F C G7 C 
My love is a river running soul deep soul deep

Soul chords – The Eden Project

 D 
And it breaks my heart
                                 Em 
To be so left behind at the start
                                 F#m G 
When I always thought id be so much farther
                    A 
So far away from here
 D G 
Souls on fire

 Em F#m G 
But it feels so heavy
 A D   
But it feels so heavy
 D 
So I'm hk bound
 D 
But it means nothing to me
 Em   
Cos I feel at home

 Em F#m G 
When theres no one left to scream at all ive done
           A Bm 
But ive learned to let fear go
 G 
Cos all ive done
 A 
Cos all ive done
 G 
Cos all ive done is give the world my

Summerland chords – Lunatic Soul

 into:
--
e|-------------------------------------------------------------------------------------|
B|------------------------------------------------------------------7------------------|
G|-------------------6---6---------------6---6-----------4---4---4---------4-----------|
D|------------6--------6----------6--------6-----(x2)---6-6-6-6-6-----------6----(x4)--|
A|-----4-------------------4-------------------------------4---4-------------4---------|
E|-------------------------------------------------------------------------------------|


 C#sus2  
Black procession in the rain
BSus2           C#sus2
Lovely brand new hearse
 C#sus2 
Everyone cries, Everyone cares
BSus2           C#sus2
Or maybe just pretends

 G#m F#           C#sus2...
Oh, it's your big moment, by the way

 C#sus2 
Cold at heart, Indifference
BSus2           C#sus2
Thought they were your best friends
 C#sus2 
Tears & flowers From the one
BSus2           C#sus2
You never would expect

 G#m F# C#sus2 
Oh, it's your big moment, by the way
 G#m F# A 
Would you like to tell them something?

 A C C#m 
Do you remember what you said
 G#m F# A 
  When I looked into your eyes For the first time
 A C C#m 
I know you're not quite ready yet
 G#m A 
But there's nothing to be afraid of
                  C#sus2  
In your Summerland.

e|-------------------------------------------------------------------------------------|
B|------------------------------------------------------------------7------------------|
G|-------------------6---6---------------6---6-----------4---4---4---------4-----------|
D|------------6--------6----------6--------6-----(x2)---6-6-6-6-6-----------6----(x4)--|
A|-----4-------------------4-------------------------------4---4-------------4---------|
E|-------------------------------------------------------------------------------------|

 C#sus2 
On the wall, In the waiting room
BSus2           C#sus2
Still life in a frame
 C#sus2 
At the end of the corridor
BSus2           C#sus2
Someone screams your name

 G#m F# C#sus2 
Oh, it's your big moment by the way
 G#m F# A 
Would you like to tell him something?

 A C C#m 
Do you remember what you said
 G#m F# A 
  When I looked into your eyes For the first time

 A C C#m 
I know you're not quite ready yet
 G#m A 
But there's nothing to be afraid of
                  C#sus2 
In your Summerland.

e|---------------------------------------------------------------------------|
B|---------------------------------------------------------------------------|
G|---------------------------------------------------------------------------|
D|---------------------------------------------------------------2/4-4-4-----|
A|-----2/4-4-4---4-4--2/4-4-4-4-------2/4-4-4--4-4----2/4-4-4----------------|
E|---------------------------------------------------------------------------|

e|-------------------------------------------------------------------------------------|
B|------------------------------------------------------------------7------------------|
G|-------------------6---6---------------6---6-----------4---4---4---------4-----------|
D|------------6--------6----------6--------6-----(x2)---6-6-6-6-6-----------6----(x2)--|
A|-----4-------------------4-------------------------------4---4-------------4---------|
E|-------------------------------------------------------------------------------------| 

At the end : C#sus2

Gravestone Hill chords – Lunatic Soul

 Chords:
 E        022100
 Am       x02210
 Asus4    x02240
G#/Am   4xx210
G/Am    3xx210
F#/Am   2xx210

intro:

e|----7---7---7---7-8---5---5---5---5-----------------------0------0-------------|
B|-----0---0---0---0-----0---0---0---0---0---0---0---0---0---0--0---0------------|
G|------5---5---5---------5---5---5-------5---5---5---5---5---5--5---5-----------|
D|-----------------------------------------6---6---6---6---6------6--------------|
A|----0--------------------------------------------------------------------------|
E|---------------------------------------0---------------0------0----------------|

[push it slow]:
 Am 
When they met after years
                      E 
One day, They went to the hill
 Am 
Where the old gravestone stood
                E 
in the shade Lonely

 Am                    G#/Am
Admiring the city lights
               G/Am
They started a new life
               F#/Am
Their love was reborn

 Asus4 
The old gravestone
 Am 
Forgotten by time
 Asus4 Am 
Remained in the shade

Guitar 1: intro part.
Guitar 2:

e|---12------10----12--------------------------------------------------------|
B|---13--10--12----13-13------12/13--12--10--9-10-12-------------------------|
G|-------------------------------------------------------9/10/9----9---------|
D|------------------------------------------------------------------12-10-9--|
A|---------------------------------------------------------------------------|
E|---------------------------------------------------------------------------|

 Am 
Winter came earlier
                      E 
Than last year when they moved on
 Am 
They returned The whole family
                      E 
Happy with memories and snow
 Am                    G#/Am
Children were sledding So joyful
               G/Am
They looked at them Smiling
               F#/Am
Embraced with love


 Asus4 
The old gravestone
 Am 
Forgotten by time
 Asus4 Am 
Remained in the shade
 Asus4 Am Asus4  
Alone


 Asus4 Am 
Remained in the shade
 Asus4 Am Asus4  
Alone

Wonderings chords – Lunatic Soul

 intro: [its with the delay, you can remove the (x) ones and put on some delay.)

e|----5-(5)-------------------5-(5)------------------|
B|---------(5)---5---5------------(6)---6---6--------|
G|-------------5---5------------------7---7----------|
D|---------------------------------------------------|
A|--5-----------------------5------------------------|
E|---------------------------------------------------|


 Dm  <->  Dsus2 
I am walking Through the valley, of the shadow of your name

 Dm  <->  Dsus2 
It's been another after-life-time, Since you left me here this way

 Dm  <->  Dsus2 
How about a little game of chess, How about we roll the dice

 Dm  <->  Dsus2 
What can I do, Where should I go now,
 Dm  <->  Dsus2 
I want to look into your eyes

 Dm  <->  Dsus2 
Drifting In the state of limbo
 Dm  <->  Dsus2 
Condemned to idleness

 Dm  <->  Dsus2 
Listen to the sound of distant memories
                                    Bb 
Passing through the white hourglass

Chords:  Bb  - G/Csus2 (x3)  Dm  <->  Dsus2 
solo:

e|---------------------------------------------------------------------------|
B|--------6/5-----5-----------6----------------------------------------------|
G|-------------------7-----5/7-----------------------------------------------|
D|-------------------------------------(x3)----------------------------------|
A|---------------------------------------------------------------------------|
E|---------------------------------------------------------------------------|

 Dm  <->  Dsus2 
Just wandering around...

 Dm  <->  Dsus2 
Looking for the way to my home
 Dm  <->  Dsus2 
I've lived someone else's life...(synth)

 Dm  <->  Dsus2 
Waiting for the perfect moment
 Dm  <->  Dsus2 
I've lost all track of time...(synth)

 Dm  <->  Dsus2 
What can I do, Where should I go now
 Dm  <->  Dsus2 
I want to look into your eyes

 Dm  <->  Dsus2 
Drifting In the state of limbo
 Dm  <->  Dsus2 
Condemned to idleness

 Dm  <->  Dsus2 
Listen to the sound of distant memories
                                    Bb 
Passing through the white hourglass

**Chords:  Bb  - G/Csus2 (x3)  Dm  <->  Dsus2  [ G  (x2)  Dm Dsus2 ] x2

 G 
in the middle of light and darkness in the middle of right and shade
 Dm 
I was trying to fort your kiss, I was trying to skip..
 G Dm  <->  Dsus2 
Now I'm the soul, Banished to... everlasting wanderings

 Dm  <->  Dsus2 
everlasting wanderings...

Suspended In Whiteness chords – Lunatic Soul

 intro: [Capo 7]

e|----------0---0---0---0----------------------------------------------------|
B|----------------------------------3---3---3----3---------------------------|
G|------2-----2---2----2-2------2-----2---2-----2-2--------------------------|
D|----0--0-------------------------------------------------------------------|
A|---------------------------0---0-------------------------------------------|
E|---------------------------------------------------------------------------|

[part a) This Heaven]
 Dsus2 Asus2 
Soon after the awakening, I flew up in the air
 Dsus2 Asus2 
I was a snowflake floating, Through my heavenland
 Dsus2 Asus2 
As light as a feather..An ash, Like a grain of sand
 Dsus2 Asus2 
From the white desert... And the misplaced time
 Dsus2 Asus2 
I really need to find

 Dsus2 Asus2 
I was a drop of water, From the pool of life
 Dsus2 Asus2 
Since my burden's gone, I am the calm inside
 Asus2 Asus2  ...keep on it*
This heaven makes me light...

[part b) Don't Feel Alive] (((Open the capo)))
 Em 
The sudden flashback stirs in my head
 Em 
I see the boat, I see the ferryman
 Em 
Recall my choice, Recall the words he said
 Em 
So where the heaven am I now?
 Em 
Where the heaven am I?

*Poweer Chords + XXX000

 A 
I don't feel alive
 A                  ->  Em  power chord
I don't feel alive
 Em 
I feel nothing

 Em 
My lips are tightly sealed
 Em 
My mind is blank
 Em 
And every part of me is paralyzed
 Em 
The scattered bits of my consciousness
 Em 
Are suspended in the whiteness
 Em 
Another stage of my path

*Poweer Chords + XXX000

 A 
I don't feel alive
 A                  -> Em  power chord
I don't feel alive
 Em 
I feel nothing
***
Power chords :  Em  022000 <-> 000000 [*change at the end of the rhythm]
Xylophone solo + distortion: d - e - B - B...


Let The Magic Fill Your Soul chords by Woodlore

 F#m A F#m A F#m A 
I know you're busy here
 A F#m A 
But would it hurt to take a break, my dear?
       F#m A 
You're working yourself mindless
       D E 
You'll drive yourself insane

       F#m A 
You're pent up all alone
       F#m A     
You're going down a lonely road
 F#m A 
There's no shame in leaning
    D E 
On somepony else

    A D A 
So follow your story, follow your song
     F#m E               
But follow your friends when the days get long
 A D A  
Lay down your soul at the fireside
 F#m A E F#m  
Lay down your burden and sing away your strife
          A E F#m 
All this time you've been alone
           A E F#m 
You don't have to be alone 
          D A E F#m       
Just let go your inhibitions now, enjoy yourself
         A E F#m 
Let the magic fill your soul

 F#m A F#m A F#m A 
I don't want you change
     F#m A 
But maybe you could rearrange
        F#m A 
'Cause what fun's living life if you don't
 D E 
live it with some friends?

    F#m A 
So you go your own way
     F#m A 
But you'll look back on life one day
     F#m A 
And you'll see the wonders of being with others
     D E 
And wish you went out to play 

 A D A 
Follow your story, follow your song
     F#m E 
But follow your friends when the days get long
 F#m D A 
Lay down your soul at the fireside
 F#m A E F#m 
Lay down your burden and sing away your strife
          A E F#m 
All this time you've been alone
           A E F#m 
You don't have to be alone, no
          D A E F#m 
Just let go your inhibitions now, enjoy yourself
         A E F#m 
Let the magic fill your soul

 A D A 
Follow your story, follow your song
 F#m E 
Follow your friends when your days get long
 F#m D A 
Lay down your soul at the fireside
 F#m A E F#m 
Lay down your burden and sing away your strife
          A E F#m 
All this time you've been alone
           A E F#m 
You don't have to be alone 
          D A E F#m 
Just let go your inhibitions now, enjoy yourself
         A E F#m 
Let the magic fill your soul

 A D A 
Follow your story, follow your song
 F#m E 
Follow your friends when your days get long
 F#m D A 
Lay down your soul at the fireside
 F#m A E F#m 
Lay down your burden and sing away your strife
          A E F#m 
All this time you've been alone
           A E</

Headrest For My Soul chords by Awolnation

 B  
There's a leak in this boat.
 G#m 
Someone toss me a rope. And a
 E 
headrest for my,
 F# B 
headrest for my soul.

 B 
There's a leak in this boat.
 G#m 
How the hell will I float? With this
 E 
headrest for my,
 F# B 
headrest for my soul. With a
 E 
headrest for my,
 F# B 
headrest for my soul.

 B 
Let the whispers unfold.
 G#m 
And darling do what you're told.
 E 
Headrest for my,
 F# B 
headrest for my soul.

 B 
If the hospital burn.
 G#m 
If it's really my turn, yeah.
 C#m 
How the hell will I,
 C#m F# E 
How the hell should I learn?

 B 
There's a leak in this boat.
 G#m 
Someone toss me a rope. And a
 E 
headrest for my,
 F# B 
headrest for my soul. Give me that
 E 
headrest for my, 
 F# B 
headrest for my soul. You know I gotta,
 E 
headrest for my,
 F# B  (hold)
headrest for my soul.

Petite Soeur chords – Ben Loncle Soul

 capo 1

                                        
Petite sœur
Ben l'oncle soul



 G B7 Em C 
Comment te le dire, ça fait d'la peine
 G E7 A D 
Je n'vais pas te mentir, malgré l'ampleur du phénomène
 G B7 Em C 
J'ai pas le souvenir, de t'avoir vu zen, non
 G E7 A D 
Tu les fais s'enfuir sans deviner ce qui les gênent



 C G C G 
Ça reste entre nous, vivre avec toi est un cauchemar
 B7 Em C A7 
Ils t'ont laissée, ouais c'est tous des connards, ouais
 D 
J'aimerais t'aider, j'aimerais te croire



 G Bm Em C 
J'te connais par cœur, en long, en large, en travers, petite sœur
                    G Bm Em C 
J'te connais par cœur, J'te connais par cœur
           G    F/F#/G
Petite sœur



 G B7 Em C 
Même Cupidon a lâché l'affaire
 G E7 A D 
Tu as comme un don pour les pousser à l'adultère
 G Bm Em C 
Non non ça n'tourne pas rond, tes amour ont un air
 G E7 A D 
D'incarcération, quand tu t'y mets pour être clair



 C G C G 
Ça reste entre nous, te supporter est une victoire
 B7 Em C A7 
Ils t'ont laissée, tiens prends donc un mouchoir
 D 
J'aimerais t'aider, j'aimerais te croire



 G Bm Em C 
J'te connais par cœur, en long, en large, en travers, petite sœur
                    G Bm Em C 
J'te connais par cœur, J'te connais par cœur
Petite sœur

 G Bm Em C 
J'te connais par cœur x5.       

My Soul Sings intro Tabs – Delirious

 -------------------------------------------------------------------------------
                             MY SOUL SINGS - Delirious
-------------------------------------------------------------------------------

Tuning: Standard

This is how I play the My Soul Sings intro in standard tuning.  It sounds nearly identical to the
album version, and no retuning of your guitar is necessary.

e|---------------------------------------------------------------------------|
B|---------------------------------------------------------------------------|
G|-5-5-5-5-5-5-5-0-0-0-0-0---------------------------------------------------|
D|-------------------------3p2-----------------------------------------------|
A|---------------------------------------------------------------------------|
E|---------------------------------------------------------------------------|

You'll need to repeat that several times.




************************************

| /   slide up
| \   slide down
| h   hammer-on
| p   pull-off
| ~   vibrato
| +   harmonic
| x   Mute note
| b   Bend
| pb  Pre-bend
| br  Bend release
| pbr Pre-bend release
| brb Bend release bend

************************************

My Soul Magnifies The Lord chords – Chris Tomlin V2

 My Soul Magnifies the Lord (E)
Chris Tomlin

Intro:     E A2  

Verse 1:
 E A2  
Good news of great joy…   for every woman, every man 
 E A2  
This will be a sign to you…   a baby born in Bethlehem 
 B A  
Come and worship…   Do not be afraid. 

Verse 2:
      E A2  
A company of angels…   Glory in the highest. 
     E A2  
And on the Earth, a peace…   among those of whom His favor rests. 
 B A  
Come and worship…   Do not be afraid.
 
Chorus:
     E B  
My soul, my soul…  magnifies__ the Lord. 
                         C#m7 
My soul, magnifies_ the Lord! 
                     A2       
He has done great things for me.   Great things for me.
               
Interlude: (same as Intro)    E A2 

Verse 2:
 E A2  
Unto you a child is born…   Unto us a Son is given. 
       E A2  
Let every heart prepare His throne…   Let every nation under Heaven… 
 B A  
Come and worship…   Do not be afraid. 

Bridge:
            E F#m  
Of His government there will be no end.   He'll establish it with His righteousness. 
    E/G# A  
And He shall reign on David's throne.   And His name shall be from this day on: 
 B A E/G# A               
Wonderful, Counselor.      Everlasting Father!    
 B F#m E/G# A 
Wonderful, Counselor.       And His name shall be: Ever - lasting_ Father__…   Oh yeah!

Chorus 2:
     E A2/E E A2/E 
My soul, my soul…   magnifies__ the Lord.    My soul, my soul…   magnifies_ the Lord.
 E A2/E 
    He has done great things for us.
                     E E A2 
He has done great things for us.    He has done great things for us.
     E A2 E A2 
My soul, my soul...  magnifies__ the Lord.    My soul, my soul magnifies_ the Lord.

Ending Chorus
     E F#m E/G# 
My soul, my soul magnifies__ the Lord.    My soul, my soul magnifies_ the Lord.
                     A 
He has done great things for me.

Soul Man chords – Blues Brothers V2

 Great song and couldn't find a good version so I tabbed it out. I'm going to put out a tab
for the lead part soon, too!

Intro:
 E  /  D  /  G  /  A  -  B7  (horn lead)

E or E7 vamp through verse

Comin' to ya on a dusty road
Good lovin' I got a truck load
And when you get it you got something
So don't worry cause I'm coming

Chorus:
 E D 
I'm a soul man
       E  
I'm a soul man
 E D 
I'm a soul man
       E A  -  B7 
I'm a soul man

E7 vamp
Got what I got the hard way
And I'll make it better each and every day
So honey don't you fret
Cause you ain't seen nothing yet

 E D 
I'm a soul man
       E 
I'm a soul man (Play it Steve!)
 E D 
I'm a soul man
       E A  -  B7 
I'm a soul man

E7 vamp
Listen
I was brought up on a side street
I learned how to love before I could eat
I was educated from good stock
When I start lovin' I just can't stop

 E D 
I'm a soul man
       E  
I'm a soul man
 E D 
I'm a soul man
       E A  -  B7 
I'm a soul man
     
      C G 
Well grab the rope and I'll pull you in
          A B 
Give you hope and be your only boyfriend
 C 
Yeah, yeah, yeah, yeah

GUITAR/HARMONICA SOLO CHORDS (and key change to F):
 F  /  Eb  /  Ab  /  Bb  -  C7 F  /  Eb  /  Ab  /  Bb  -  C7 

F7 vamp 
I'm a soul man
I'm a soul man
You're a soul man
I'm a soul man
I'm a soul man
I'm a soul man

Hope it helps! Please rate!

Ole Welsh Soul chords – Rev Hammer

 Ole Welsh Soul by Rev Hammer

 B5 B5 B5 B5 D 
We crossed the border ‘tween England and Wales,

With a modern load on ancient trails,
 Bm 
Stopping where the circus used to go,
         D 
Well we followed a map past Owen’s place,

And feasted on Vyrnwy’s misty grace,
         Bm 
Saying ‘oh god, bless the valley below’,
         D A 
We were shattered by the rivers edge,
         Bm A G 
In the cleavage of the dirt,
                   A 
Counting piles of golden leaves
         Bm A G 
For whatever it was, 
     Bm A G 
Whatever it was worth,
    Bm A G 
Ah that’ a place to go,
 G Bm A G 
Down on the old Dolgellau Road,
 G Bm A G 
Let it roll and a let it roll,
 G Bm 
Well I wanna feel, feel some o’ that ole,
              A G 
Some o’ that ole Welsh soul,
        G Bm 
Let it roll an’ a-let it roll.
       D 
Where water paints the mountain sides,

Gliding down in silver tides,
         Bm 
And reflecting many things we need to know,
    D 
We drank our drinks when Harlech drank,

We sang it’s song and left our thanks,
         Bm 
Saying ‘Oh god, bless the valley below’,
          D A 
Well I remember you as we drove into,
   Bm A G 
A town you knew as home,
           G A 
Where the land ate the machinery,
           Bm A G 
You could hear the engine,
           Bm A G 
You could hear the engine groan,  
    Bm A G 
Ah that’ a place to go,
 G Bm A G 
Down on the old Dolgellau Road,
 G Bm A G 
Let it roll and a let it roll,
 G Bm 
Well I wanna feel, feel some o’ that ole,
              A G 
Some o’ that ole Welsh soul,
        G Bm 
Let it roll an’ a-let it roll.
   Bm 
A breakfast at Dill’s Diner,
      Bm 
An a camera at Swallow Falls,
        Bm 
In the slate caverns of Blaenau Ffestiniog,
 Bm 
Climbing up Garth Bach, 
             D 
And looking back, looking back to Y Bryn,
     D 
The old farmhouse,
                    Bm 
Well I’m a-looking back,
            A G 
Toward the future, don’t you know?
        G Bm 
Let it roll and a let it roll.
      D               
Well out there in that mornin’ chill,
     D 
We flew our flag upon that hill,
         Bm 
Oh an’ somethin’ in the distance started to glow,
  D 
Above our heads three fighters flew,
         D 
And you looked at me and I looked at you,
         Bm 
Saying “Oh god, bless the valley below”,
        D A Bm A G 
Now if I may take you back upon the music of the road,
          G A 
You must close your eyes and ears my dear,
     Bm A G 
And move it in your,
    Bm A G 
Ah move it in your soul,
    Bm A G 
Ah that’ a place to go,
 G Bm A G 
Down on the old Dolgellau Road,
 <spa

Adrift chords – Lunatic Soul

 Lunatic Soul - Adrift
=====================

[Chords]

    Em Dsus2 Bm (add4)   Asus2 Dadd9 
e|-0-----0------0---------0-----0--------------------------------|
B|-0-----3------3---------0-----7--------------------------------|
G|-0-----2------4---------2-----7--------------------------------|
D|-2-----0------4---------2-----7--------------------------------|
A|-2------------2---------0-----5--------------------------------|
E|-0-------------------------------------------------------------|

Note: from time to time Dsus2 is played as normal D and Bmadd4 as Bm.


[Intro]

 Em Dsus2 Bm Asus2 Em          (2x)
          ^^^ 
(Note: there is a really quick slide 
from 2 to 3 before returning to 0 on the A-string)

[Verse]

   Dsus2 
I know we're passing by
 Bm Asus2 Em 
See the shadows of our own
   Dsus2 
Apart from where we are
 Bm Asus2 Em 
We still believe and raise our hopes
        Dsus2 
We're locked up alone
 Bm Asus2 Em 
Going nowhere, waiting for the dawn
     Dsus2 
And just like shooting stars
 Bm Asus2 Em 
We sleep in flames, until we burn up
               Dadd9 
Until we burn up


 Asus2 Dadd9 Asus2 Em 
(Note: slide from 7 to 8 and back on B-string after playing Dadd9)


     Dsus2 
How many lives we live
 Bm Asus2 Em 
Poised between all heaven and earth
     Dsus2 
How many times we die
 Bm Asus2 Em 
Trying for rebirth with a different mask
    Dsus2 
No matter where we go
 Bm Asus2 D 
Souls adrift never say goodbye


[Solo]


[Outro] (same as intro)

Near Life Experience Tabs by Lunatic Soul

 Lunatic Soul - Near Life Experience
===================================

(feel free to jam any other riffs over A minor during the piano parts)

[Riff 1]
e|-----------------------------------------------------------------------|
B|-----------------------------------------------------------------------|
G|-----------------------------------------------------------------------|
D|----7-7---7h9-9------------------7-------------------------------------|
A|--7-----7----7--10--7-10-10-7-10---7-----------------------------------|
E|-----------------------------------------------------------------------|

e|-----------------------------------------------------------------------|
B|-----------------------------------------------------------------------|
G|-----------------------------------------------------------------------|
D|----7-7---7h9-9------------------7-------------------------------------|
A|--7-----7----7--10--7-10-10-7-10---10-7--------------------------------|
E|-----------------------------------------------------------------------|

e|-----------------------------------------------------------------------|
B|-----------------------------------------------------------------------|
G|-----------------------------------------------------------------------|
D|----7-7---7h9-9------------------7-7-----------------------------------|
A|--7-----7----7--10--7-10-10-7-10---------------------------------------|
E|-----------------------------------------------------------------------|

e|-----------------------------------------------------------------------|
B|-----------------------------------------------------------------------|
G|-----------------------------------------------------------------------|
D|----7-7---7h9-9------------------7-------------------------------------|
A|--7-----7----7--10--7-10-10-7-10---10-7--------------------------------|
E|-----------------------------------------------------------------------|


[Riff 2]
e|-----------------------------------------------------------------------|
B|-----------------------------------------------------------------------|
G|--------------------------------(4x)-----------------------------------|
D|-----------------------------------------------------------------------|
A|--7--------------------------------------------------------------------|
E|----8s10-10s12--------5---5--------------------------------------------|


[Riff 3]
e|-----------------------------------------------------------------------|
B|-----------------------------------------------------------------------|
G|-----------------------------------------------------------------------|
D|-----10-10----10h12--12-9-----9-9----9h10--10--------------------------|
A|--10-------10------10------10-----10-----10----------------------------|
E|-----------------------------------------------------------------------|

e|-----------------------------------------------------------------------|
B|-----------------------------------------------------------------------|
G|-----------------------------------------------------------------------|
D|-----10-10----10h12--12-9-----9-9----9h10-9----------------------------|
A|--10-------10------10------10-----10--------10-------------------------|
E|-----------------------------------------------------------------------|

[Riff 2]
e|-----------------------------------------------------------------------|
B|-----------------------------------------------------------------------|
G|--------------------------------(4x)-----------------------------------|
D|-----------------------------------------------------------------------|
A|--7--------------------------------------------------------------------|
E|----8s10-10s12--------5---5--------------------------------------------|


[Piano solo]
(play here anything from the Am pentatonic on first 4 strings)
e|--x-----x-------------------------------------------

Lunatic Soul chords – Lunatic Soul

 Lunatic Soul - Lunatic Soul

[Intro]
 Am F Am F 


[Verse]
 Am F 
I can't describe what's going on with me
 Am F 
A different nature moving rapidly
 Am 
Being halfway here
                       F 
And halfway somewhere else


[Bridge]
 Am F 


[Verse]
 Am F 
My whole life starts to flash in front of me
 Am F 
I'm overwhelmed in joy, quiet and peace
 Am F 
All words I know are three-dimensional
 D C 
I feel all troubles are gone


[Brdige]
 Am F Am F Am F Am F D C 
I feel all troubles are gone


[Verse]
 Am F 
Timelessness, Ineffability 
 Am F 
I glimpse the spirits of my relatives
 Am F 
I see the others, The being of light 
 Am F 
Shifting through a tunnel, long and dark


 Am 
I regret all those things that I had left undone
        F 
And I wish I could fix everything that was wrong 
 Am 
I wish I could tell you how sorry I am 
          F 
This is not the end
                                               Am 
It's the start of something that I'm really scared of
                  F 
That I'm scared to life 
                Am 
I'm scared to life
                F 
I'm scared to life
                Am 
I'm scared to life


[Outro]
 F Am F Am

Out On A Limb Tabs by Lunatic Soul

 [Riff 1]
e|----------------------------------------------------------------------|
B|--------5-----------5-------------------------------------------------|
G|----8-----8-----8-----8-----------------------------------------------|
D|--6---6-----5-6---6-----5---------------------------------------------|
A|----------------------------------------------------------------------|
E|----------------------------------------------------------------------|


I don't know what I become
Floating softly
Flying up
Like there's no more gravity
Body and mind
Different things

I don't know what I become
But I feel so good this time
From far-off I hear your cry
Floating softly
Split in two
I'm flying high

[Riff 2]
e|-----------------------------------------------------------------------|
B|-----------------------------------------------------------------------|
G|-----------------------------------------------------------------------|
D|-----------------------------------------------------------------------|
A|-----------------------------------------------------------------------|
E|--2-4-4-2-4--2-4-4-2-5--2-4-4-2-4--2-4--2-5----------------------------|
            *          *          *    *    *
        slightly bend these notes half tone up (or a bit less)


[Crying riff]
e|----------------------------------------------------------------------|
B|----------------------------------------------------------------------|
G|--------13----11----------------13----11------------------------------|
D|-----13----13----13----13----13----13----13-----13--------------------|
A|--11----------------11----11----------------11------------------------|
E|----------------------------------------------------------------------|

e|----------------------------------------------------------------------|
B|--------12----12----------------12----12------------------------------|
G|-----------13----13----13----------13----13----13---------------------|
D|-----13-------------13-------13-------------13------------------------|
A|--11----------------------11------------------------------------------|
E|----------------------------------------------------------------------|


[Solo]
e|----------------------------------------------------------------------|
B|----------------------------------------------------------------------|
G|-----------------------11-11-11-11s8-8-8-8s5-5-5-5s-------------------|
D|--6--6-6-6-7--6--6-6--------------------------------6-6-6-------------|
A|----------------------------------------------------------------------|
E|----------------------------------------------------------------------|

The New Beginning Tabs by Lunatic Soul

 Lunatic Soul - The New Beginning

https://en.wikipedia.org/wiki/Lunatic_Soul_(album)

The whole song is accompanied by strumming Dm on the A-string alongside with the following riff:

e|---------------------------------------------------------------------------|
B|---------------------------------------------------------------------------|
G|---------------------------------------------------------------------------|
D|----3---5-----5---5---3-5-------------3-5b6r5------------------------------|
A|--5---5-----5---5---5-----5-5----------------------------------------------|
E|---------------------------------------------------------------------------|


[Lyrics]
I thought you wouldn't come
I have been waiting for you
In the back of beyond

False Alarm chords – Smile Empty Soul

 This is a very simple song to play, it uses the same four bar chords throughout 
the whole song(F - Ab - Eb - Bb). If you're playing acoustic (or if you just want 
to use open chords) you can tune your guitar down a half step and play Em - G - D - A.

Intro, 2 bars

 F Ab 
Glass shard sticking out of my heart
          Eb Bb 
Now the summer has subsided for the rain
 F Ab 
Last time take a look in these eyes
         Eb Bb 
Spend eternity escaping from the pain

 F Ab 
Last chance when the hummingbirds dance
          Eb Bb 
And the river's overflowing on its banks
 F Ab 
Hold tight when the weather is right
           Eb Bb 
There's another that awaits to take your place

Break for 2 bars
          
 F Ab 
  False alarm I could have sworn
       Eb Bb 
That something else was going on
 F Ab 
 False alarm I could have sworn
       Eb     
That something else 



Just follow this pattern and listen for the changes and you'll do just fine. 

The Dark Night Of The Soul chords – Get Up Kids

 The Get Up Kids
The Dark Night Of The Soul
Guilt Show
2004 Vagrant Records
Submitted by: jeremyunderground41

Key:  E 

Tuning: Standard EADGBe

Chords used:
 E  -   022100
 C  -   x32010
 C#m  - x46654
 F#m  - 244222
 A  -   x02220


Intro: E--C-C#m-F#m--A- x3


Verse 1:
 E 
  Never thought
 C C#m 
anything less
     F#m A 
forever Hanging
          E 
on every word
          C C#m 
Hold the cards
    F#m A E 
in tight   But you're
 C C#m F#m 
killing me     with
    A E 
sincerity And I'd
      C C#m F#m A 
make any move tonight


Refrain:
 F#m 
   Redemption is a
      A 
bitch Too end on


Chorus 1:
 E C C#m F#m 
       The dark
night of the soul
 E C C#m F#m 
       The dark
                 E C C#m F#m-- A--
night of the soul


Verse 2:
 E C 
  All my training
             F#m 
beget a traitor
   A A  monster with  A E 
mind of it's own
     C 
The beast is
          F#m A 
poised to   strike
 E 
  The bastard
 C C#m 
plays on these
 F#m A 
   insecurities
 E C 
   It's all my
 C#m F#m A 
will to   fight


(Repeat Refrain)


Chorus 2:
 E C C#m F#m 
       The dark
night of the soul
 E C C#m F#m 
       The dark
night of the soul


Bridge:
 C#m C A 
   Oh well You know
what they say
Suddenly
 F#m 
everything's
Suddenly
 A 
everytihng's real


Chorus 3:
 E C C#m F#m 
       The dark
night of the soul
 E C C#m F#m 
       The dark
night of the soul
 E C C#m F#m 
       The dark
night of the soul
 E C C#m F#m 
       The dark
night of the soul
 E C C#m F#m 
       The dark
night of the soul
 E C C#m F#m 
       The dark
night of the soul
 E C C#m F#m 
       The dark
night of the soul
 E C C#m F#m 
       The dark
                 E C C#m F#m A E 
night of the soul