Tag: soundtrack

Mamma Mia Here We Go Again – My Love My Life chords by Misc Soundtrack

ouldn't find the version from Mamma Mia 2: Here We Go Again with the changed words so thought I'd add it :)



[Intro]

Cb5 - C

[Verse 1: Lily James]

C                     G    G7
I’ve never felt this strong
C         F           C        D7   G
I’m invincible, how could this go wrong?
E7  Am  D7                 G    Em
No, here, here’s where we belong
 Am      D7     G    Em
I see a road ahead
 Am     Am7          Dsus4  D     G   G7   G6
I never thought I would dare to tread


[Chorus: Meryl Streep]

                      G       G7       C
Like an image passing by, my love, my life
        F      D7       G         G7       C
In the mirror  of  your eyes, my love, my life
       C              D7
I can see it all so clearly
              G      Em
All I love so dearly
Am     Am7   D7      G
Images passing by

        G7                G         G7      C
Like reflections of your mind, my love, my life
         F        D7       G        G7       C
Are the words I try to find, my love, my life
        C              F
But I know I don't possess you
   G              C
With all my heart, God bless you
                  F       E     Am
You will be my love and my life
  F              C
You’re my one and only


[Verse 2: Meryl Streep]

C                     G    G7
I held you close to me
C         F            C     D7           G
Felt your heart beat and I thought: I am free
E7  Am  D7                 G    Em
Oh yes, and as one are we
 Am      D7     G    Em
In the now and beyond
Am     Am7          Dsus4  D       G   G7   G6
Nothing and no one can break this bond


[Chorus: Meryl Streep & Amanda Seyfried]

                      G       G7       C
Like an image passing by, my love, my life
        F      D7       G         G7       C
In the mirror  of  your eyes, my love, my life
       C              D7
I can see it all so clearly
              G      Em
All I love so dearly
Am     Am7   D7      G
Images passing by

        G7                G         G7      C
Like reflections of your mind, my love, my life
         F        D7       G        G7       C
Are the words I try to find, my love, my life
        C              F
But I know I don't possess you
   G              C
With all my heart, God bless you
                  F       E     Am
You are still my love and my life

        C              F
Yes I know I don't possess you
   G              C
With all my heart, God bless you
                  F       E     Am
You are still my love and my life
  F              C
You’re my one and only

Anastasia – Music From The Motion Picture – Once Upon A December chords by Misc Soundtrack V2

[Intro]

Am E Am E


[Verse 1]

Am      E      A7      Dm
Dancing bears, painted wings
Dm       Am      Dm   E
Things I almost remember
Am    E    A7      Dm
And a song someone sings
Dm     Am     E   Am
Once upon a December


[Chorus 1]

Dm               Am
Someone holds me safe and warm
E                       Am     A7
Horses prance through a silver storm
Dm              Am
Figures dancing gracefully
 B7           E
Across my memory


[Instrumental]

Bbm  F  Bb7  Ebm
Ebm  Bbm  Ebm  F
Bbm  F  Bb7  Ebm
Ebm  Bbm  C7  F
Bbm  F  Bb7  Ebm
Ebm  Bbm  F  Bbm


[Chorus 2]

Ebm              Bbm
Someone holds me safe and warm
F                       Bbm    Bb7
Horses prance through a silver storm
Ebm             Bbm
Figures dancing gracefully
 C7           F
Across my memory


[Verse 2]

Bm   F#   B7    Em
Far away, long ago
Em      Bm        Em  F#
Glowing dim as an ember
Bm        F#    B7      Em
Things my heart used to know
Em        Bm          F#  B7
Things it yearns to remember


[Outro]

Em         Bm      B7
And a song someone sings
Em    Bm      F#  Bm
Once upon a December

Coffee Shop Soundtrack Acoustic Tabs – All Time Low Vsion 3

 Coffee Shop Soundtrack (acoustic version)
Artist: All Time Low
 Put Up or Shut Up (2006)

Tuning: D#A#F#C#G#D#

Given that this song is played a little different in every acoustic performance done by the band, 
I put this tab together using bits and pieces of several of their performances, including some addition
of my own, to achieve the best possible sound. For reference, it's closest this version of the song:



Intro:
Eb|-0-0-0-0--0~0-0-0-0-0-0-0--0-0-0-0--0~0-0-0-0-0-0-0--|
Bb|-0-0-0-0--0~0-0-0-0-0-0-0--0-0-0-0--0~0-0-0-0-0-0-0--|
Gb|-6-6-6-6--2~2-2-4-4-4-4-4--6-6-6-6--2~9-9-8-8-8-8-8--|
Db|-6-6-6-6--2~4-4-6-6-6-6-6--6-6-6-6--2~7-7-6-6-6-6-6--| 
Ab|-4-4-4-4--0~x-x-x-x-x-x-x--4-4-4-4--0~x-x-x-x-x-x-x--| 
Eb|-x-x-x-x--0~x-x-x-x-x-x-x--x-x-x-x--0~x-x-x-x-x-x-x--|

Eb|-0-0-0-0-0-0--0-0-0-0-0-0-0-0--0-0~|
Bb|-0-0-0-0-0-0--0-0-0-0-0-0-0-0--0-0~|
Gb|-1-1-1-1-1-1--1-1-4-4-4-4-4-4--4-4~|
Db|-2-2-2-2-2-2--2-2-1-1-1-1-1-1--1-1~|
Ab|-2-2-2-2-2-2--2-2-2-2-2-2-2-2--2-2~| 
Eb|-0-0-0-0-0-0--0-0-x-x-x-x-x-x--x-x~|


Eb|-0-0-0-0--0~~~-0--0--0--0--0--0--0---0-0-0-0--0~0-0-0-0-0-0-0--|
Bb|-0-0-0-0--0~~~-0--0--0--0--0--0--0---0-0-0-0--0~0-0-0-0-0-0-0--|
Gb|-6-6-6-6--13~~-13-13-13-13-13-13-13--6-6-6-6--2~9-9-8-8-8-8-8--|
Db|-6-6-6-6--11~~-11-11-11-11-11-11-11--6-6-6-6--2~7-7-6-6-6-6-6--| 
Ab|-4-4-4-4--x~~~-x--x--x--x--x--x--x---4-4-4-4--0~0-0-0-0-0-0-0--| 
Eb|-x-x-x-x--x~~-~x--x--x--x--x--x--x---x-x-x-x--0~x-x-x-x-x-x-x--|
 

Eb|-0-0-0-0-0-0--0-0-0-0-0-0-0--0-0~|
Bb|-0-0-0-0-0-0--0-0-0-0-0-0-0--0-0~|
Gb|-1-1-1-1-1-1--1-1-4-4-4-4-4--4-4~|
Db|-2-2-2-2-2-2--2-2-4-4-4-4-4--4-4~|
Ab|-2-2-2-2-2-2--2-2-2-2-2-2-2--2-2~| 
Eb|-0-0-0-0-0-0--0-0-x-x-x-x-x--x-x~|


Verse 1:
Should I write myself out of the history books...for every chance you took?

Eb|-0-0-0-0--0~0-0-0-0-0-0-0--0-0-0-0--0~0-0-0-0-0-0-0--0-0-0-0--0~0-0-0-0-0-0-0--0-0-0-0--|
Bb|-0-0-0-0--0~0-0-0-0-0-0-0--0-0-0-0--0~0-0-0-0-0-0-0--0-0-0-0--0~0-0-0-0-0-0-0--0-0-0-0--|
Gb|-6-6-6-6--2~2-2-4-4-4-4-4--6-6-6-6--2~9-9-8-8-8-8-8--6-6-6-6--2~2-2-2-2-2-2-2--4-4-4-4--|
Db|-6-6-6-6--2~4-4-6-6-6-6-6--6-6-6-6--2~7-7-6-6-6-6-6--6-6-6-6--2~2-2-2-2-2-2-2--4-4-4-4--| 
Ab|-4-4-4-4--0~x-x-x-x-x-x-x--4-4-4-4--0~x-x-x-x-x-x-x--4-4-4-4--0~0-0-0-0-0-0-0--2-2-2-2--| 
Eb|-x-x-x-x--0~x-x-x-x-x-x-x--x-x-x-x--0~x-x-x-x-x-x-x--x-x-x-x--0~0-0-0-0-0-0-0--x-x-x-x--|

Eb|-0~0-0-0-0-0-0-0--|
Bb|-0~0-0-0-0-0-0-0--|
Gb|-2~2-2-2-2-2-2-2--|
Db|-2~2-2-2-2-2-2-2--|
Ab|-0~0-0-0-0-0-0-0--| 
Eb|-0~0-0-0-0-0-0-0--|


Don't get me wrong...take the hint, someday

Eb|-0-0-0-0--0~~0--0--0--0--0--0--0---0-0-0-0--0~0-0-0-0-0-0-0--|
Bb|-0-0-0-0--0~~0--0--0--0--0--0--0---0-0-0-0--0~0-0-0-0-0-0-0--|
Gb|-6-6-6-6--13~13-13-13-13-13-13-13--6-6-6-6--2~2-2-4-4-4-4-4--|
Db|-6-6-6-6--11~11-11-11-11-11-11-11--6-6-6-6--2~4-4-6-6-6-6-6--| 
Ab|-4-4-4-4--x~~x--x--x--x--x--x--x---4-4-4-4--0~0-0-0-0-0-0-0--| 
Eb|-x-x-x-x--x~~x--x--x--x--x--x--x---x-x-x-x--0~x-x-x-x-x-x-x--|

I'm sure I'll get the picture, and stop waiting up

Eb|-0-0-0-0--0~0-0-0-0-0-0-0--0-0-0--x-x-x-x--|
Bb|-0-0-0-0--0~0-0-0-0-0-0-0--0-0-0--x-x-x-x--|
Gb|-6-6-6-6--2~2-2-2-2-2-2-2--4-4-4--x-x-x-x--|
Db|-6-6-6-6--2~2-2-2-2-2-2-2--1-1-1--x-x-x-x--| 
Ab|-4-4-4-4--0~0-0-0-0-0-0-0--2-2-2--x-x-x-x--| 
Eb|-x-x-x-x--0~0-0-0-0-0-0-0--x-x-x--x-x-x-x--|

NOTE: Palm muted strokes at the end are optional- you can just continue by playing the final chord for 
an extra beat into the chorus. I just think it sounds good with it!

Chorus:

When it all comes down....carry home?

Eb|-0-0-0-0--0-0-0-0--0-0-0-0--0-0-0-0--0-0-0-0--|
Bb|-0-0-0-0--0-0-0-0--0-0-0-0--0-0-0-0--0-0-0-0--|
Gb|-1-1-1-1--2-2-2-2--6-6-6-6--4-4-4-4--2-2-9-8--|
Db|-2-2-2-2--2-2-2-2--6-6-6-6--4-4-4-4--2-2-7-6--|
Ab|-2-2-2-2--0-0-0-0--4-4-4-4--2-2-2-2--0-0-x-x--|
Eb|-0-0-0-0--0-0-0-0--x-x-x-x--x-x-x-x--0-0-x-x--|

The remains of my wasted youth....shaking in waiting for something more

Eb|-0-0-0-0--0-0-0-0--0-0-0-0--0-0-0-0--0-0-0~--|
Bb|-0-0-0-0--0-0-0-0--0-0-0-0--0-0-0-0--0-0-0~--|
Gb|

Outer Senshi Theme Tabs – Misc Soundtrack

 This is my first ever tab so don't be a Sailor Uranus about it. Anyways, I'm pretty
sure the guitar tab to this song doesn't exist anywhere else yet as of 1/6/2016.
So you have no choice but to give this 5 stars by default AHAHAHAHAHA!!!!
-------------------------------------------------------------------------------------------------------------
                             Outer Senshi Theme - Sailor Moon - Takanori Arisawa (R.I.P.)
-------------------------------------------------------------------------------------------------------------

: Ludnorc


Tuning:E Standard

Violin part transposed to guitar
E|-------------------------------------|---------------------------------------------|
B|--------------10---------------------|-----------------10--------------------10----|
G|-9---9--11-12----12-11-9-------------|---9---9--11--12----12--11--9-11-12----------|
D|---9----------------------12-10---12-|-----9---------------------------------------|
A|-------------------------------------|---------------------------------------------|
E|-------------------------------------|---------------------------------------------|
                                                                                           - - - - - - - [[[}
|-------------8-----------------10-8--|------------8---11-8-------------------8--10--|
|12-9-10-12----10-------------------12|-10------10---12-----10--------10--12---------|
|------------------9-12-11--11--------|----11-12---------------11-12-----------------|
|-------------------------------------|----------------------------------------------|
|-------------------------------------|----------------------------------------------|
|-------------------------------------|----------------------------------------------|

the above repeats then the song ends with;

|-12-------|
|----------|
|----9-----|
|----------|
|----------|
|----------|



Huh this guitar tab kinda looks like a pistol..weird...

Le Fantome De Barbe Noir – Comme Chaque Marin Tabs – Misc Soundtrack

 -------------------------------------------------------------------------------
            Le Fantome De Barbe Noir - Comme Chaque Marin
-------------------------------------------------------------------------------

e|---------------------------------------------------------------------------|
B|--------------------3---1--------------------------------------------------|
G|-------3--3---3------------- 3--2-0----------------------------------------|
D|-3-----------------------------------3-------------------------------------|
A|---------------------------------------------------------------------------|
E|---------------------------------------------------------------------------|
   Comme chaque marin aux mots de liberté, 

e|---------------------------------------------------------------------------|
B|---------------------1----3-----4------3-1-3-------------------------------|
G|---0----0----2- 3----------------------------------------------------------|
D|-3-------------------------------------------------------------------------|
A|---------------------------------------------------------------------------|
E|---------------------------------------------------------------------------|
   Levons bien la tête quoi qu'il puisse arriver,

e|---------------------------------------------------------------------------|
B|-3--1----------------------3----1------------------------------------------|
G|------3----------------------------3---------------------------------------|
D|-------------0----1-3-------------------0---1----3-------------------------|
A|---------------------------------------------------------------------------|
E|---------------------------------------------------------------------------|
   La-- gloire nous attends, nous n'avons pas d'entrave, 

e|----------------1----------------------------------------------------------|
B|---3-----1------------------1----1--1--------------------------------------|
G|-3----------3---------2--3----------------3--------------------------------|
D|---------------------------------------------------------------------------|
A|---------------------------------------------------------------------------|
E|---------------------------------------------------------------------------|
   Voguons le cœur fier et restons de vrais braves.

e|---------------------------------------------------------------------------|
B|-1---1-1------------1-----------------------------------------------------|
G|-------------2--3---------------------------------------------------------|
D|---------------------------------------------------------------------------|
A|---------------------------------------------------------------------------|
E|---------------------------------------------------------------------------|
   Des bateaux et des hommes, 

e|---------------------------------------------------------------------------|
B|-3--3-3---------3----------------------------------------------------------|
G|----------3--1-------------------------------------------------------------|
D|---------------------------------------------------------------------------|
A|---------------------------------------------------------------------------|
E|---------------------------------------------------------------------------|
   Le désir de se battre,

e|---------------------------------------------------------------------------|
B|-3-----------3-------------------------------------------------------------|
G|----3---2----------3-------------------------------------------------------|
D|-----------------------0-----3-3-------------------------------------------|
A|------------------------------------3-----0--------------------------------|
E|----------------------------------------------1----------------------------|
   Soyons bien prêts les gars, hissez-haut, les gars.

e|-----------------------------1---------------------------------------------|
B|-------------------------------------------------

Frozen – Vejo Uma Porta Abrir chords – Misc Soundtrack

 Capo - 2nd fret

 C Em F G C Em F G C Em F G 
Muitas portas se fecharam pra mim sem razão
       C Em F G 
De repente eu encontrei você
(Eu tava pensando a mesma coisa porque)

 C Em F G 
Eu passei a vida procurando emoção
           C Em F G 
Talvez esteja nas conversas ao se lambuzar de glacê
       Am C 
Com você (com você tenho emoção) vejo a razão

         D F7 
Não há nada igual a esse amor sentir 
                   C Em D F7 
Vejo uma porta abrir
                   C Em D F7 
Vejo uma porta abrir
                   C    
Vejo uma porta abrir
       Em D 
Com você, (você) você!
 F7 C Em F G 
Vejo uma porta abrir

 C Em F G D 
É meio doido (o que?)
   F#m G A 
Você finaliza meus (sanduíches)
Era o que eu ia dizer!
                 D 
Não conheci ninguém com meu
     F#m G A 
Jeito de pensar
Juntos, outra vez!
    D F#m 
Parece sincronizado
     G A 
Mas pode ser explicado
 D 
Você e eu
 F#m G A 
Nós somos um par
        Bm D 
Diga adeus para a dor que passou
 E G7 
O amor não vai deixar ela vir
                   D F#m E G7 
Vejo uma porta abrir
                   D F#m E G7 
Vejo uma porta abrir
                    D 
E tudo vai se expandir
        F#m E 
Com você, (você) você (você)!
 G7 D      
Vejo uma porta abrir

---
 F#m G A D F#m G A 
---
Posso dizer uma coisa louca?
Quer casar comigo?
Posso dizer uma coisa mais louca ainda? Sim!

The Hunger Games – The Hanging Tree chords – Misc Soundtrack

 From The Hunger Games movie Mockingjay: Part 1, I think this is more or less accurate. Sounds good either 
fingerpicking or just plucking each chord once.

No capo

     Am G 
Are you, Are you
 F Am 
Coming to the tree
            Am G F Am 
Where they strung up a man they say murdered three
 C Am 
Strange things did happen here
    F Am 
No stranger would it be
       Am G F Am 
If we met up at midnight in the hanging tree

     Am G 
Are you, Are you
 F Am 
Coming to the tree
            Am G F Am 
Where the dead man called out for his love to flee
 C Am 
Strange things did happen here
    F Am 
No stranger would it be
       Am G F Am 
If we met up at midnight in the hanging tree

     Am G 
Are you, Are you
 F Am 
Coming to the tree
         Am G F Am 
Where I told you to run, so we'd both be free
 C Am 
Strange things did happen here
    F Am 
No stranger would it be
       Am G F Am 
If we met up at midnight in the hanging tree

     Am G 
Are you, Are you
 F Am 
Coming to the tree
        Am G F Am 
Wear a necklace of hope, side by side with me.
 C Am 
Strange things did happen here
    F Am 
No stranger would it be
       Am G Am Am 
If we met up at midnight in the hanging tree

The Hunger Games Mockingjay Pt 1 – The Hanging Tree chords – Misc Soundtrack

 
Hi, this was requested :)  I loved this part in the
movie!  I think Jennifer Lawrence did a great job!
As far as strumming goes, I single strum the entire 
song. Here's the link I tabbed it to- 


https://www.youtube.com/watch?v=lTiQRPQJR9E




Standard tuning
No capo

 


     Am F 
Are you, are you
 Am Em 
Coming to the tree
            Am F 
Where they strung up a man
      Em Am 
They say who murdered three.


 Am F 
Strange things did happen here
    Am Em  
No stranger would it be
       Am F        
If we met up at mid-night 
 Em Am 
In the hanging tree 





     Am F 
Are you, are you
 Em Am 
Coming to the tree
         Am F   
Where a dead man called out 
 Em Am 
For his love to flee 


 Am F 
Strange things did happen here
    Am Em 
No stranger would it be
       Am F        
If we met up at mid-night 
 Em Am 
In the hanging tree 




     Am F 
Are you, are you
 Am Em 
Coming to the tree
         Am F Am Em 
Where I told you to run, so we'd both be free 


 Am F 
Strange things did happen here
    Am Em 
No stranger would it be
       Am F       
If we met up at mid-night 
 Am Em 
In the hanging tree 




     Am F 
Are you, are you
 Em Am 
Coming to the tree
        Am F Em Am 
Wear a necklace of hope, side by side with me 


 Am F 
Strange things did happen here
    Am Em 
No stranger would it be
       Am F        
If we met up at mid-night 
 Em Am 
In the hanging tree




     Am F 
Are you, are you
 Am Em 
Coming to the tree
         Am F Em Am 
Where I told you to run, so we'd both be free 


 Am F 
Strange things did happen here
    Am Em 
No stranger would it be
       Am F        
If we met up at mid-night 
 Em Am 
In the hanging tree 




     Am F 
Are you, are you
 Am Em 
Coming to the tree
            Am F 
Where they strung up a man
      Em Am 
They say who murdered three.


 Am F 
Strange things did happen here
    Am Em 
No stranger would it be
       Am F        
If we met up at mid-night 
 Em Am 
In the hanging tree 




     Am F 
Are you, are you
 Em Am 
Coming to the tree
         Am F   
Where a dead man called out 
 Em Am 
For his love to flee 


 Am F 
Strange things did happen here
    Am D  
No stranger would it be
       Am F        
If we met up at mid-night 
 E Am 
In the hanging tree 



Outro- 1 beat/strum each chord

 Am F Am E Am F G Am Am F Am D Am F E

Musical Ulalena – Laka The Forest Dweller chords – Misc Soundtrack

 INTRO
 C D G C D 
O laka kaulana puoholani

 C D 
Eo mai oe e laka i ka nahele

 C D  
‘O wao ka muo e kali nei

 Em C 
E hanai ai a hewa ka waha

 C D 
Ua hele au me ‘oe e laka e

 C D  
O Le’a a Loa ke kama nahele

 C G D 
I ke kuahiwi ka hoa o ka wao

 C D G 
I ke kani o loko nei au e

 C D 
E laka e, e laka e

 G C 
Eo mai ‘oe i a’u e

 C D 
E laka e, elaka e

   G C 
E li e li ka u mai e


FLUTE SOLO
 C D C Em C D C G D G C G D C C D 
E hou’lu mai ka honua mai

 C D 
Ulu ka ohi’a lau noka ‘ie ‘ie

 C D 
O Laka kuahu wahine a Lono

 Em C 
O lono e hui kalani hui honua

 C D 
E laka e, e laka e

 G C 
Eo mai ‘oe i a’u e

 C D 
E laka e, e laka e

 G C 
E li e li ka u mai e

 C D 
E laka e, e laka e

 G C 
Eo mai ‘o i a’u e

 C D G 
E laka e, e laka e, laka e
 

Soundtrack Song chords – Lumineers

 Artist: The Lumineers 
Song: Soundtrack Song
Video: 
Link: http://picosong.com/f6uB
Transcription: SCA, kostya.levin.sca 

Tuning: standard
Capo: NO capo

Chords used:
C:   x.3.2.0.3.x
G:   3.2.0.0.3.x

Note I:
Lyrics are wrong (software made)

Verse:
 G C G 
Loneliness, why won't you let me be
                      C G 
Let me be and I will set you free
                           C G 
Don't you think if it was up to me
                C G 
I would choose to be happy
             C G 
Let me go
                  C G 
King's on high
                      C G C G 
Picks her out of cloud by his side
               C G 
She wants up
                  C G 
Staircase's wide
                       C G  
She holds her grounds
                         C G 
And tangls this is right
                    C G 
All of this don't come free
              C G 
And all come casulty
              C G C G   
Live with me you are meant to me
               C G 
This thousand heroes feel
                 C G 
Same as you and me, this real
                   C G C G     
Some will run and others parse view
                C G 
There's a reason to find
                  C G 
Memory heart and heat tonight
               C G C G C  G....
And only rust, rust is worse right


Note II:
If you have any corrections or improvements to the tab write
them on the comments section, or send me a message,
or e-mail, so we can together make this tab even better.  

SCA, kostya.levin.sca

A Goofy Movie – Nobody Else But You Danish chords – Misc Soundtrack

 F G C 
Indimellem kan du gøre mig splittertosset
        F G C 
Og din hjerne mangler undskyld far en skrue [Det' i orden]

         Em Am 
Men når alt det kikser for mig
       Em Am  
Er du den der bedst forstår mig 
 Dm C G 
Du er min bedste ven

        F G C 
Du kan blive så vred at jeg bliver helt forvirret 
       F G C 
Og så kokser det og jeg slår alt itu [Prosit! tak!]

         Em Am 
Men når alt er ved at skride 
         Em Am 
Står du altid ved min side 
 Dm C G 
Du er min bedste ven 

 F Em Am 
Du er min bedste ven
        Em Am Bb C 
Det er heldigt nok at vi er sammen
 F Em Am 
Du er min bedste ven 
 Dm Em F G 
Vi to kan få alt til at køre igen 

      F G C 
Dine vitser er så vandede og så gamle 
       F G C 
Den musik du hører er ikke for voksne mænd

         Em Am 
Men når livet går på krykker
        Em Am 
Og det hele går i stykker 
           Dm E 
Så er der en der duer kan du mon gætte hvem 

        F G 
Selvom han kan virke klodset 
        C Am 
Er han egentlig ikke så tosset 
        Dm Em 
Det er sikkert og vist 

 F Em Am 
At du er min bedste ven 
     Em Am Bb C 
Min følgesvend i tykt og tyndt og
 F Em Am  
Alt kan gå grueligt galt 
       Dm Em 
Dreje baglæns og rundt 
         F G 
Det kan bare blive ved 
          Em F 
Men hvis jeg når til bunds 
           G A 
Så er det dig der tager med 
     Dm F G C 
For du er min allerbedste ven

The Last Of Us Main Theme intro Tabs – Misc Soundtrack

 -------------------------------------------------------------------------------
                           The Last Of Us Main Theme - Naughty Dog Company
-------------------------------------------------------------------------------
:Andrei 
al.trandafir

Tuning: E A D G B e


e|-----0-----0------0------0------0------0-------0-------0-|
B|---0-----0------0------0------0------0-------0-------0---|
G|12-----9-----14-----11-----12-----12------12------12-----|
D|---------------------------------------------------------|
A|---------------------------------------------------------|
E|---------------------------------------------------------|


e|-----0-----0-----0-----0------0------0-------0------0----|
B|---0-----0-----0-----0------0------0-------0------0------|
G|12-----9----14----11-----16-----16------16-----16--------|
D|---------------------------------------------------------|
A|---------------------------------------------------------|
E|---------------------------------------------------------|



e|-----0------0------0------0------0------0------0-------0-|
B|---0------0------0------0------0------0------0-------0---|
G|12-----9-----14-----11-----12-----12------12-----12------|
D|---------------------------------------------------------|
A|---------------------------------------------------------|
E|---------------------------------------------------------|


e|-------0------0------0----0------0-------0----0~---------|
B|-----0------0------0----0------0------0-----0~-----------|
G|--15-----14-----12----9------9-----9------9~-------------|
D|---------------------------------------------------------|
A|---------------------------------------------------------|
E|---------------------------------------------------------|



************************************

| /   slide up
| \   slide down
| h   hammer-on
| p   pull-off
| ~   vibrato
| +   harmonic
| x   Mute note
| b   Bend
| pb  Pre-bend
| br  Bend release
| pbr Pre-bend release
| brb Bend release bend

************************************

Nashville – Black Roses chords – Misc Soundtrack

 "Black Roses" is a single from The Hit ABC TV Show "Nashville" Preformed by: Clare 
Bowen (Scarlett O'Connor) released in 2014.

Tuning: Standard EADGBe

NO CAPO

Chords used:
 Dbm  - x13421 Fret : 4
 A    - x01230
 E    - 023100
 B    - x12341 Fret : 2
 Abm  - 134111 fret : 4


[Verse 1:]
                Dbm A 
I can see your eyes staring into mine. 
                  E B 
But it's a battlefield and you're on the other side.
                    Dbm A 
You can throw your words sharper than a knife.
              E B 
And leave me cold in another house on fire.
 Dbm A E Abm 
I lay low, lay low, and watch the bridges burn.
 Dbm A E Abm 
I lay low, lay low, what more could I have done?

[Chorus:]
 Dbm A 
Now you only bring me black roses.
          E Abm 
And they crumble in the dust when they're held.
 Dbm A 
Now you only bring me black roses
            E 
under your spell.

[Verse 2:]
             Dbm A 
She told me twice, all her good advice.
                E B 
But I couldn't see I was clouded by your lies.
         Dbm A 
You can smoke, a vision she foretold.
                E B 
She said stay away 'cause that boys a warning sign.
 Dbm A E Abm 
I lay low, lay low, and watch the bridges burn.

[Chorus:]
 Dbm A 
Now you only bring me black roses.
          E Abm 
And they crumble in the dust when they're held.
 Dbm A 
Now you only bring me black roses
            E 
under your spell.

[Bridge:]
 Abm Dbm 
And I'm done try'na be the one,
 A E 
picking up the broken pieces.
 Abm Dbm               
And I'm done try'na be the one,
            A 
who says I love you dear.
            E Abm 
But I'm leaving.

[Chorus:]
 Dbm A 
Now you only bring me black roses.
          E Abm 
And they crumble in the dust when they're held.
 Dbm A 
Now you only bring me black roses
                        E 
but I'm not under your spell,
                    Abm 
I'm not under your spell,
                    Dbm 
I'm not under your spell,
                    A 
I'm not under your spell,
                    E Abm 
I'm not under your spell.

 Dbm A E 
Oooooooh, oooh, 

 Abm  -  Dbm  - 
 A  -  E 
oooooooh


http://en.wikipedia.org/wiki/Clare_Bowen

Reindeers Are Better Than People Theme Tabs by Misc Soundtrack

 This is finger picked, so I'm not sure how to bring it across 100% in tab form - but if
you listen to the song you'll get what I mean. The lyrics match up to the notes he's
playing as he sings. Also, you're welcome to play the full chords (as listed). The 
soundtrack version uses mostly bar chords with the second note omitted - I find this easier to
play, but it's up to you!

, any comments/corrections are appreciated!

Reindeers Are Better Than People (from the Disney Animation Studios production, Frozen),
sung by Jonathan Groff.

-------------------------------------------------------------------------------
                             Reindeers Are Better Than People - Misc Soundtrack
-------------------------------------------------------------------------------
: cuddlycombine
 systematicapostasy

Tuning: standard
Intro guitar: (0:00 - 0:03)

e|---------------------------------------------------------------------------|
B|---------------------------------------------------------------------------|
G|---------------------------------------------------------------------------|
D|---------------------------------------------------------------------------|
A|---------------------------------------------------------------------------|
E|---------------------------------------------------------------------------|

e|--------------------------------------5----------------------------------------------------|
B|-------------------------------------------------------------------------------------------|
G|------4--5-4------------------6------------------------------------------------------------|
D|-------------------------------------------------------------------------------------------|
A|-----5---7-5----------7--------------------------------------------------------------------|
E|----3--------------------------------------------------------------------------------------|

Kristoff (0:04 - 0:11)

    "Reindeers are better than people,    Sven don't you think that's true?
e|---5-----------------------------------------------------------------5---------------------|
B|---7-------------------------------------------------------------------------7-------------|
G|---7-------------6-----------7------5---4--------------6-----------------6---5-------------|
D|-----------------7-----------7----------5--------------7-------------4-------0-------------|
A|---5-------------------------5-------------------------------------------------------------|
E|-----------------5----------------------3--------------5-----------------------------------|
     D             A           D          G              A             D       D7

Sven: (0:12 - 0:17)

"Yeah people will beat you and curse you and cheat you, every one of them's bad - except you!
e|-------------------------------------------------------------------------------------------|
B|----8-------------------------------------------------------8------------------------------|
G|----9-----------6------------7-------------8----------------9-------------6------------7---|
D|----------------7------------7-------------7------------------------------7------------7---|
A|----7------------------------5-------------9----------------7--------------------------5---|
E|----------------5---------------------------------------------------------5----------------|
      Em          A            D             B7               Em            A            D

Kristoff: (0:17-0:19)

"Oh, thanks buddy."
e|----------------------5--------------------------------------------------------------------|
B|-------------------------------------------------------------------------------------------|
G|-------------------6-----------------------------------------------------------------------|
D|------------------7------------------------------------------------------------------------|
A|-----------------0---

Dr Horribles Sing-along Blog – Brand New Day chords – Misc Soundtrack V2

 Most of the chords were already done in the other version,
But here are a few changes I would make:

 Fm 
This appeared as a moral dilemma, 'cause at first

it was weird how I swore to eliminate the worst

of the plague that devoured humanity. It's true
                                               Db 
I was vague on the how, so how can it be that you
                     Bbm C 
have shown me the light?
 
 
        Fm C/E 
It's a brand new day, and the sun is high.
         Db Bbm Eb 
All the birds are singing that you're gonna die.
       Fm Bbm 
How I hesitated, now I wonder why.
        Gb 
It's a brand new day.
 
 
 Fm 
All the times that you beat me unconscious, I forgive.
                                                        Bbm 
All the crimes, incomplete, listen, and honestly, I'll live. 
                                                     
Mister Cool, Mister Right, Mister Know-It-All, is through,
                      Eb Db 
now the future's so bright and I owe it all to you,
                    Bbm C 
who showed me the light.
 
 Fm C/E 
It's a brand new me, I've got no remorse.
         Db Bbm Eb 
Now the water's rising, but I know the course.
           Fm Bbm 
I'm gonna shock the world, gonna show bad horse
        Gb 
it's a brand new day.
 
 
     Db Ab/C 
And Penny will see the evil me.
       Bbm Fsus F 
Not a joke, not a dork, not a fail-ure.
     Db Ab/C 
And she may cry, but her tears will dry
        Bbm C                  
when I hand her the keys to a shiny new Australia.
 
        Fm C/E 
It's a brand new day. Yeah, the sun is high.
         Db Bbm Eb 
All the angels sing, because you're gonna die!
     Fm Bbm 
Go ahead and laugh! Yeah, I'm a funny guy.
            Bbm 
Tell every one goodbye!
        Gb Fm 
It's a brand new day.

Sherlock Bbc Theme – The Game Is On Tabs by Misc Soundtrack

 Just correcting Sherlock Bbc Theme (The game is on) from http://tabs.ultimate-
guitar.com/m/misc_soundtrack/sherlock_bbc_theme_ver2_tab.htm 
in my way (i'd like this way of playing ^^")
Please enjoy :)

e|------------------------------------------------------------------------|
B|------------------------------------------------4-----------------------|
G|-------------------------5-------5--5-4h5h7--5--------------------------|
D|-----5--5--4h5h6--5--3------3-------------------------------------------|
A|--3---------------------------------------------------------------------|
E|------------------------------------------------------------------------|

e|--3----------------1-------------------1--------------------------------|
B|----1---1-3h4h3--1---1-----1--3--4---4---3---3--4--1---1--3-----------1-|
G|-------------------------------------------------------------4--1--0----|
D|------------------------------------------------------------------------|
A|------------------------------------------------------------------------|
E|------------------------------------------------------------------------|

Together Well Ring In The New Year chords – Motion City Soundtrack V4

 First chord chart I've put out in a while.
Capo on 1 to match the key of the song (you can move the capo anywhere else to 
work with your voice)

This song sounds real good fingerpicked to these chords in my opinion.
Here's a transcription of the pattern I usually use for the verse (and fingerings for chords). 
This pattern just repeats until you get to the Emin before the chorus.

    G Gmaj7/B 
|--------3--------3----------|--------2--------2----------|
|-----3--------3--------3----|-----3--------3--------3----|
|--0--------0--------0-------|--0--------0--------0-------|
|----------------------------|----------------------------|
|----------------------------|--2-------------------------|
|--3-------------------------|----------------------------|

   Cadd9 G Cadd9 G 
----------------------------|----------------------------||
--------3--------3----------|--------3--------3----------||
-----0--------0--------0----|-----0--------0--------0----||
----------------------------|----------------------------||
--3-------------------------|--3-------------------------||
-----------3--------3-------|-----------3--------3-------||


 G Gmaj7/B 
   This must be it.
                   Cadd9 G Cadd9 G 
   Welcome to the new year.
 G Gmaj7/B 
   The drinks were consumed,
                     Cadd9 G Cadd9 G 
   the plants were destroyed, and the hors d'oeuvres dismantled.
 G Gmaj7/B 
   I'm not smiling
     Cadd9 G Cadd9 G 
   behind this fake veneer.
          G Gmaj7/B 
   I am often interrupted
                   Cadd9 G Cadd9 G 
   or completely ignored,
        Emin Fmaj7 
   but most of all I'm bored.


 G Cadd9 D          
   I'm trying to find out
   Cadd9 G Cadd9 Fmaj7 
   if my words have any meaning.
 G Cadd9 D Cadd9 
   Lackluster and full of contempt
             G Cadd9 Fmaj7 
   when it always ends the same.
    Emin F 
   Why won't she listen to me?


 G Gmaj7/B 
   Why did I come?
                   Cadd9 G Cadd9 G 
   Oh, why did I come here?
 G Gmaj7/B 
   These humans all suck.
                  Cadd9 G Cadd9 G 
   I'd rather be home feeling violent and lonely.
 G Gmaj7/B Cadd9 G Cadd9 G     
   I'm not trying to sound so insincere,
            G Gmaj7/B 
   but the postcard that's taped to the freezer reads:
                   Cadd9 G Cadd9 G 
   "Wish you were here."
          Emin Fmaj7 
   How I wish I could disappear.


 G Cadd9 D    
   I'm trying to find out
   Cadd9 G Cadd9 Fmaj7 
   if my words have any meaning.
 G Cadd9 D Cadd9 
   Lackluster and full of contempt
            G Cadd9 Fmaj7 
   when it always ends the same.

 G Cadd9 D Cadd9  
   Heads up Damage Control,
              G Cadd9 Fmaj7 
   ther

Ultramen – Preserve chords – Misc Soundtrack

 Preserve
Ultramen
Ultramen
Tom: F#
                
INTRO:  F# G#m A A Gm F# F# G#m A A Gm F# 
Preserve esse sorriso, esse brilho, esse olhar 
Preserve o que eu digo, pois não falo por falar 
Preserve esse abraço, esse abraço carinhoso 
Do jeito que eu acho, pode ser maravilhoso 
Preserve tudo isso, tudo isso e mais um pouco 
E também tudo aquilo, que matar esse sufoco 
Preserve esse aperto de mão meu amigo meu irmão 
E se um irmão por mim perguntar
 
 A Bbm B 
diga que eu vou estar 
 
 B F# F# F# G#m B 
PELO CÉU OU PELO MAR 
VOU POR AÍ A PROCURAR 
PELO CÉU OU PELO MAR 
VOU POR AÍ A TE ENCONTRAR 
 
 F# G#m A A Gm F# 
Preserve os nossos rios, nosso verde nosso ar 
E também tudo aquilo que tiver que preservar 
Preserve o que é mato nesse mundo grandioso 
Pois muito em breve eu acho, poderá ser valioso 
Conserve tudo bicho, todo reino animal 
Só não conserve o lixo, pátria multinacional 
Preserve esse aperto de mão, meu compadre meu irmão 
E se um irmão por mim perguntar, pode ser que eu possa estar

Ultramen – Santo Forte chords – Misc Soundtrack

 Santo Forte
Ultramen
 Ultramen
Tom: B

Intro.:  Eb7 /+9  Ab7 

(Rap)
Pra que ficar aí parado estilo mal-amado
Corpo sem futuro jogado envergonhado
Parece que a vida não foi boa pra você
Parece que a tristeza tomou conta de você
Esquece tudo mano quem procura acha
Apaga o passado passa a borracha

 Abm7 /9
Caia no reggae repente xote trova vanerão
Dance na dança do samba rock rap e baião
Felicidade é voz e batida
Felicidade é vida eu vou cair em cima

 Abm7 Db7 /9  Abm7 Db7 /9 (2x)

 Abm7 Db7 /9         Abm7 Db7 /9
Deixa esse samba tocar na sua escola

 Abm7 Db7 /9           Abm7 Db7 /9
Deixa de papo-furado e passa a bola

 Abm7 Db7 /9         Abm7 Db7 /9
Ouça a composição - julgue a evolução

 Abm7 Db7 /9     Abm7 Db7 /9  Eb7 /+9
Pra melhorar a nossa vida

 Abm7 Db7 /9          Abm7 Db7 /9
Deixe esse bamba dançar no seu terreiro

 Abm7 Db7 /9             Abm7 Db7 /9
Deixe de lado todo esse preconceito

 Abm7 Db7 /9    Abm7 Db7 /9
Venha com empolgação e com muita emoção

 Abm7 Db7 /9           Eb7 /+9
Pra defender o nosso bloco na avenida

Refrão (2X)

 Abm7 Db7 /9             Abm7 
Pra que ficar, ficar aí parado

 Db7 /9         Abm7 Db7 /9          Eb7 /+9  E7 /9
Ou de braços cruzados vendo o tempo passar

 Abm7 Db7 /9         Abm7 
Eu vou curtir, curtir o ano inteiro

 Db7 /9        Abm7 Db7 /9            Abm7 Gb 
Pois Deus é brasileiro e também vai me ajudar

           Abm7 Db7 /9 (4x) 
A balançar

 
 Abm7 Db7 /9     Abm7 Db7 /9
Deixa passar a nossa alegoria

 Abm7 Db7 /9       Abm7 Db7 /9
Deixa ela vestir a sua fantasia

 Abm7 Db7 /9    Abm7 Db7 /9
Quem sabe você vai gostar - capaz até de adorar

 Abm7 Db7 /9         Abm7 Db7 /9  Eb7 /+9
Vai ser demais - vai ser bonito

 Abm7 Db7 /9           Abm7 Db7 /9
Deixa eu mostrar agora o meu enredo

 Abm7 Db7 /9              Abm7 Db7 /9
E por favor meu bem não não tenha medo

 Abm7 Db7 /9           Abm7 Db7 /9
Junte a melodia com a minha harmonia

 Abm7 Db7 /9            Eb7 /+9
Vai ser legal juntar o nosso grito

Refrão (2x)

(Rap)
Tipo azeite - na água não mistura
Cabeça dura - deve ser falta de cultura
Vamo s`imbora não pode parar não pode cansar
E eu também não posso deixar de falar
Fusão das raças pro bem da massa
Também sou brasileiro e quero levantar a taça
Comissão de frente sempre me faz relembrar
Pra esquecer a tristeza vamo balançar
 Abm7 /9
Balança preta balança branca
Balança - entra na roda e vem pra minha banca
O santo é forte e é cheio de critérios
Véio - só não tem mistério

Refrão (3x)... Eb7 /+9  Abm7

Ultramen – Amigo Punk chords – Misc Soundtrack

 Amigo Punk
Ultramen
Ultramen
Tom: C
                
Intro: (  Am Am/G# Am7/G Am/F# F E  ) 3x
Laaaalaararumraralaa

  Am 
Amigo punk
                 Dm 
escuta este meu desabafo
                        G7 
que a esta altura da manhã
                        C E7 
já não importa o nosso bafo
           Am 
Pega a chinoca
                                   Dm 
monta no cavalo e desbrava esta coxilha,
                      G7 
atravessa a Oswaldo Aranha,
                         C E7 Am 
e entra no Parque Farroupilha
       E Am 
Amanhecia, e tu chegavas em casa com asa
                  E 
a tua mãe dá bom dia e se prepara pra marcar o gado
                Am A7 
com o ferro em brasa

                       Dm G7 
E não importa se não tem lata de cola
                       C C/B Am 
eu quero agora é sestear nos teus pelegos
                  Dm E7 
com o cavalo galopando campo afora
                       Am A7 
o meu destino é Woodstock mas eu chego

                 Dm G7 
Aonde eu ouço a voz da acordeona
                 C C/B Am 
já escuto o gaiteiro puxando o fole
                     Dm 
vai animando a gauderiada no bolixo
 E7 Am E Am E Am 
enquanto eu sigo detonando um Hard-core