Tag: Stars

City Of Stars chords by Ryan Gosling & Emma Stone

[Verse 1]

Gm7Â Â Â Â Â C7Â Â Â Â Â Â Â Â Â Â Â Â Dm7

City of stars, are you shining just for me?

Gm7Â Â Â Â Â C7Â Â Â Â Â Â Â Â Â Â Â Â Â Â Fmaj7

City of stars, there’s so much that I can’t see.

   Gm7 C7              F   Am/E   F7/Eb

Who knows? I felt it from the first embrace I shared with you

   Gm7   A7             Dm7 Dm7/C

That now our dreams, they’ve finally come true

[Verse 2]

Gm7Â Â Â Â Â C7Â Â Â Â Â Â Â Â Â Â Â Â Dm7

City of stars, just one thing everybody wants.

Gm7Â Â Â Â Â Â Â C7Â Â Â Â Â Â Â Â Â Â Â Â Â Â Â Â Â Fmaj7Â Â Â Â Â Am/E

There in the bars and through the smokescreen of the crowded restaurants

   Gm7 C7              F    Am/E F7/Eb

It’s love, yes, all we’re looking for is love from someone else

 Gm7        A7

A rush, a glance, a touch, a dance

[Bridge]

  Bb        C          A7

A look in somebody’s eyes to light up the skies

      Dm7

To open the world and send it reeling.

  Bb           C         Dm

A voice that says, I’ll be here and you’ll be alright.

Bb         C          A7Â

I don’t care if I know just where I will go

         Dm7

‘Cause all that I need is this crazy feeling.

 Bb        A7

A rat-tat-tat on my heart

          Dm7 Dm7/C Dm7/A Dm7/G

Think I want it to stay.

[Instrumental]

Abm7Â Db7Â Ebm7

Abm7Â Db7Â Gbmaj7

Abm7Â Db7Â Gbmaj7Â Bb/FÂ Gb7/Fb

Abm7Â Bb7

Cb  Db Bb7 Ebm7

Cb  Db Ebm7

Cb  Db Bb7 Ebm7

Cb  Bb7    Ebm

Dm7

Gm7Â C7Â Fmaj7

Gm7Â A7Â Â Â Â Â Dm7Â Dm7/C

[Outro]

Gm7Â Â Â Â Â C7Â Â Â Â Â Â Â Â Â Â Â Â Fmaj7

City of stars, are you shining just for me?

Gm7Â Â Â Â Â A7Â Â Â Â Â Â Â Â Â Â Â Â Dm7

City of stars, you never shined so brightly

Suggest correction

Atom Bomb Baby Fallout 4 Gameplay Trailer chords – The Five Stars

 ============================================================================
  The Five Stars were an Indiana rock/doo wop group signed with KY Labels,
             this particular song was recorded in 1957.
            
============================================================================

Song: Atom Bomb Baby
Artist: The Five Stars
Tuning: Standard (EADGBe)
Source: Fallout 4 Gameplay Trailer

--

Intro

 G D G D G D 
Got a doll baby, I love her so,
 G D 
Nothing else like her anywhere you go
 G C 
Man, she's anything but calm,
   D G 
A regular pint-sized atom bomb!


 C G 
Atom bomb baby, little atom bomb,
 D G 
I want her in my wigwam!
 C G 
She's just the way I want her to be,
   D G 
A million times hotter than TNT!

 G D G D G D 
Atom bomb baby, loaded with power,
 G D 
Radioactive as a TV tower
   G C 
A nuclear fission in her soul,
 D G 
Loves with electronic control!

 C G 
Atom bomb baby, little atom bomb,
 D G 
I want her in my wigwam!
 C G 
She's just the way I want her to be,
 D G 
A million times hotter than TNT!

 G D G D G D 
Atom bomb baby, boy, she can start,
 G D 
One of those chain reactions in my heart
   G C 
A big explosion, big and loud,
 D G 
Mushrooms me right up on a cloud!

-Chorus-

 G D G D G D 
Atom bomb baby, sweet as a plum,
 G D 
Carries more wallop than uranium
 G C 
When she kisses, there's no hitch,
 D G 
Zero power, she turns on the switch!

-Chorus x2-

============================================================================
I would've provided more info about the band but unfortunately, there isn't
much to go on. The existing wiki page speaks of another, slightly younger
group under the same name.

Should you find any mistakes, feel free to contact me at 
iudicium.invocat

Cheers.

To The Stars – Demos Odds And Ends album chords – Tom Delonge

 Tom Delonge - To The Stars...Demos, Odds and Ends

1. New World                           ( LifeEchoes)
2. An Endless Summer                   ( Fabio BlenderBR)
3. Suburban King                       ( Fabio BlenderBR) 
4. The Invisible Parade                ( Fabio BlenderBR)
5. Circle-Jerk-Pit                     ( Paramore_Fans)
6. Landscapes                          ( Fabio BlenderBR)
7. Animals                             ( Fabio BlenderBR)
8. Golden Showers in the Golden State  ( Fabio BlenderBR)



1. New World                           ( LifeEchoes)


Artist: Tom DeLonge
Song: New World (2015)
Tuning: Standard (EADGBe)
Key: D



*Note* - Some of the A and D chords are played by the bass
         guitar in the song. If you're playing this on an
         acoustic, the added notes make it a lot of fun to
         play. Enjoy.



                           Chords Used:

                Bm A D G D/F# A/C# 
         e|----2------0------2------3------3------0----|
         B|----3------2------3------3------3------2----|
         G|----4------2------2------0------2------2----|
         D|----4------2------0------0------0------x----|
         A|----2------0-------------2------0------4----|
         E|-------------------------3------2-----------|



[Intro/Break: Play 2x] 
                         Bm  -  A  -  D  -  A  (x3)
                           G  -  D/F#  -  A  (x1)



[Verse 1:]
 Bm A  -  D A 
   I've heard  a phantom ring  
          Bm A  -  D  -  A 
   I've awakened to  a lie
 Bm A  -  D  -  A 
   Prying up the    eyes
     G D/F# A 
To a shitty view with a shot of life



 Bm A  -  D A 
   I felt  a tidal wave
          Bm A  -  D A 
   And I watched the city    lights
 Bm A  -  D A 
   Illuminate ‘em bright
      G D/F# A 
And a little walk in the dead of night



[Pre-Chorus 1:]
 G D 
Why must, we not, act tonight 
          A 
Too many lies here 
    G D 
We wait, the knife, we take a bite  
        A 
Nobody wins here
 


[Chorus 1:]
    D A/C# 
It violates and blinds the eyes
     Bm 
But I found a new world 



[Intro/Break: Play 1x] 
                         Bm  -  A  -  D  -  A  (x3)
                           G  -  D/F#  -  A  (x1)


 
[Verse 2:]
 Bm A  -  D A 
   So seven    teen again
          Bm A  -  D A 
   I can hear the bell and tower
 Bm A  -  D A 
   I will be    devoured 
        G D/F# A 
Will ya follow me to the witching hour



[Pre-Chorus 2:]
 G D  
Why must, we not, act tonight 
         A 
To many lies here 
    G D 
We wait, the knife, we take a bite  
        A 
Nobody wins here
      G D 
I've lost, the nerve, I'm finalized 
          A 
Too many die here
   G 
I fall hands down, I pray
   A 
I don't give an F-U-C-K 



[Chorus 2:]
    D A/C# 
It violates and blinds the eyes
     Bm<

The Stars Keep On Calling My Name solo Tabs – Mac Demarco

 This is the solo at the end of the album version song:

From 1:45 to the end (2:23)

Note: the solo in the live version is 100% different, so make sure you listen the album/studio version.

Tuning: Standard (EADGBe)

e -----------------------
B --/15-15-15-15----15---
G -----------------------
D -----------------------
A -----------------------
E -----------------------

e ------------------15---
B --/15-15-15-15---------
G -----------------------
D -----------------------
A -----------------------
E -----------------------

e ------------------------------------
B --/15-15-15-15p12-------------------
G ------------------14p12-14-14p12-14-
D ------------------------------------
A ------------------------------------
E ------------------------------------

e ------------------17---
B --/15-15-15-15---------
G -----------------------
D -----------------------
A -----------------------
E -----------------------

e ------------------15---
B --/15-15-15-15---------
G -----------------------
D -----------------------
A -----------------------
E -----------------------

e ----------------------------
B --/15-15-15-15----15p12-----
G ------------------------14--
D ----------------------------
A ----------------------------
E ----------------------------

e -----------------------
B --/15-15-15-15----15---
G -----------------------
D -----------------------
A -----------------------
E -----------------------

e ------------------15---
B --/15-15-15-15---------
G -----------------------
D -----------------------
A -----------------------
E -----------------------

e ----------------19-17b19b17-15-15-17---
B --/15-15-15-15-------------------------
G ---------------------------------------
D ---------------------------------------
A ---------------------------------------
E ---------------------------------------

                                  (wait)
e ---------------------------------------------------------------------------------------------------
B --/15-15-15-15----15p12-15-15-------------12-------------------------------------------------------
G ----------------------------------------------14-14-----14b16b14-14-12-14---14b16b14-14-12-12------
D ---------------------------------------------------------------------------------------------------
A ---------------------------------------------------------------------------------------------------
E ---------------------------------------------------------------------------------------------------

e ----------------------
B ----------------------
G --14b16b14-14-12-12---
D ----------------------
A ----------------------
E ----------------------


Notation:
"/15" means slide from anywhere.
"14b16b14" means bend "14" until it sounds like "16" and from there bend it back so it sounds again like "14"

Pretending The Stars chords – Mindy Smith

 Pretending the Stars
by
Mindy Smith  (interpreted chords from acm)

Capo I to match recordings 

Intro
 Am F C  (x2)

 Am F C 
Baby what you think about Steppin Out

 Am F C 
Goin for a ride and shakin' Up this Town

 Am F C 
We could put the top down and Feel the Wind 

 C G 
Go Wild

 Am F C 
Underneath the moon with Radio On

 Am F C 
We could drive around until they Play that Song

 Am F C 
Islands in the stream that's What we Are

 C G 
So Fine

CHORUS

                F C Am 
Pretending the Stars, they shimmer and they shine for us

         F C Am 
and the World revolves around our touch 

     F C G 
and Sky would fall if we ever gave up this Love


 Am F C 
Maybe we can find a karaOke Bar

 Am F C 
We don't need the words we can Make em Up.

 Am F C 
Drink dollar beers and piss the locals off

 C G 
All Night


CHORUS


 F C G 
Doesn't really matter wherever we go

    F C 
As long as we're together and we don't 

     G 
Let go

Instrumental
 Am F C Am F C Am F C G 


CHORUS



 F C G 
Pretending the stars
 F C G 
Beautiful stars
 F C 
Beautiful (1, 2, 3) Stars


Tsunami chords – Southern All Stars

 ============================================================================================================
Tsunami - Southern All Stars
============================================================================================================

VERSE 1:
               D A/C# Bm  
Kaze ni tomadou yowaki na boku 
   A G A F#m Bm 
Toori sugaru ano hi no kage 
      G A F#m Bm Em A  
Hontowa mitame ijou namida moroi kakoga aru 

VERSE 2:
            D A/C# Bm  
Tomedo nagaru sayaka mizuyo 
   A G A F#m Bm 
Kesedo moyuru mashou no hiyo 
      G A F#m Bm Em A D  
Anna ni sukina hitoni deau natsuwa nidoto nai 

PRE-CHORUS 1:
        Gm C7 F A# Gm A D  
Hitowa daremo ai motomete yamini samayou sadame 
         Bm G E A  
Soshite kaze makase, oh my destiny, namida kareru made 

CHORUS 1:
         D F#7 Bm D  
Mitsume auto sunaoni oshaberi dekinai 
    G A F#7 Bm E A  
Tsunamino youna wabishisa ni, I know, obieteru 
        D F#7 Bm D  
Meguri aeta toki kara mahouga tokenai 
   G A F#7 Bm  
Kagamino youna yumeno nakade 
  G D Em A D  
Omoidewa itsuno himo ame 

INSTRUMENTAL 2:
 D A/C# Bm A D D/F# Em A  

VERSE 3:
           D A/C# Bm  
Yumega owari mezameru toki 
   A G A F#m Bm 
Fukai yamini yoakega kuru 
      G A F#m Bm Em A D  
Hontowa mitame ijou utarezuyoi bokuga iru 

PRE-CHORUS 2:
       Gm C7 F A# Gm A D  
Nakidashisouna sora nagamete namini tadayou kamome 
       Bm G E A  
Kitto yowa nasake, oh sweet memory, tabidachiwo muneni

CHORUS 2:
        D F#7 Bm D  
Hitowa namida misezuni otonani narenai 
   G A F#7 Bm E A  
Garasuno youna koidatowa, I know, kizuiteru 
        D F#7 Bm D  
Mimo kokoromo itoshii hitoshika mienai 
   G A F#7 Bm  
Harisakesouna muneno okude 
   G D Em A D  
Kanashimini taerunowa naze? 
 
INSTRUMENTAL (SOLO):
 F G D F G D Bm G E A  

CHORUS 3:
         D F#7 Bm D  
Mitsume auto sunaoni oshaberi dekinai 
    G A F#7 Bm E A  
Tsunamino youna wabishisa ni, I know, obieteru 
        D F#7 Bm D  
Meguri aeta tokikara shinumade sukito itte 
   G A F#7 Bm  
Kagamino youna yumeno nakade 
   G D</

Sovereign Light Café chords – Keane V5

 G 
I'm going back to a time when we owned this town
      C5 
Down Powder Mill Lane, in the battlegrounds
         G Em Dsus4 D 
We were friends and lovers and clueless clowns

                      G 
I didn't know I was finding out now I'd be torn from you
         C5 
When we talked about things we were gonna do
         G Em Dsus4 D 
We were wide eyed dreamers and wiser too

Refrão:
                C G 
We go down to the rides on East Parade,
        Em D 
By the lights of the Palace Arcade
                    C G Dsus4 D 
Watch night coming down on the Sovereign Light Café

                          G 
I'm begging you for some sign, but you've still got nothing to say
        C5 
Don't turn your back on me, don't walk away
       G Em Dsus4 D 
I'm a better man now than I was that day

Refrão:
                C G 
Let's go down to the rides on East Parade,
        Em D 
By the lights of the Palace Arcade
                    C G Dsus4 D 
Watch night coming down on the Sovereign Light Café
                C G 
Let's go down to the bandstand on the pier
           E D 
Watch the drunks and the lovers appear
                     C G Dsus4 D 
Take time, just the stars at the Sovereign Light Café

Ponte:
   C Dsus4 G D 
I wheel my bike off the train,

Up the North Trade Road,
 C Dsus4 G D 
Look for you on Marley Lane
                                     Em 
In every building, every streetlight
                    C Dsus4 D 
Oh why did we ever go so far from home?

                        G 
You got nothing to hide, you can't change who you really are
         C5 
You can get a big house and a faster car
         G Em Dsus4 D 
You can run away boy, but you won't go far

Refrão:
                      C G 
Let's go down to the rides on East Parade,
        Em D 
by the lights of the Palace Arcade
                   C G Dsus4 D 
Watch night coming down on the Sovereign Light Café
                    C G 
Let's go down to the bandstand on the pier
           Em D 
Watch the drunks and the lovers appear
                     C G Dsus4 D 
Take time, just the stars at the Sovereign Light Café

       C G Em 
Sha la la la la la yeh, yeah
     D C G Dsus4 D 
I'm going where the people know my name

(  C G D  ) (2x)

A Sky Full Of Stars Tabs – Boyce Avenue

 ------------------------------------------------------------------------------------
                        Boyce Avenue - A Sky Full Of Stars
------------------------------------------------------------------------------------

Intro:

d|-0---0---0-----0-0---0---0---0-----0---0-0---0---0-----0---0-0---0---0-----0-0---|
A|-0---0---0-----0-0---0---0---0-----0---0-0---0---0-----0---0-0---0---0-----0-0---|
F|-0---0---0-----0-0---4---4---4-----4---4-4---4---4-----4---4-2---2---2-----2-2---|
C|-9---9---9-----9-9---5---5---5-----5---5-5---5---5-----5---5-4---4---4-----4-4---|
G|-7---7---7-----7-7---3---3---3-----3---3-x---x---x-----x---x-2---2---2-----2-2---|
D|-0---0---0-----0-0-----------------------3---3---3-----3---3---------------------|
 |                                                                                 |
d|---------------------------------------------------------------------------------|
A|---------------------------------------------------------------------------------|
F|---------------------------------------------------------------------------------|
C|-9---------------10--12-------------------------------10\9-7---------------------|
G|---------------------------------------------------------------------------------|
D|---------------------------------------------------------------------------------|


d|-0---0---0-----0-0---0---0---0-----0---0-0---0---0-----0---0-0-------------------|
A|-0---0---0-----0-0---0---0---0-----0---0-0---0---0-----0---0-0-------------------|
F|-0---0---0-----0-0---4---4---4-----4---4-4---4---4-----4---4-2-------------------|
C|-9---9---9-----9-9---5---5---5-----5---5-5---5---5-----5---5-4-------------------|
G|-7---7---7-----7-7---3---3---3-----3---3-x---x---x-----x---x-2-------------------|
D|-0---0---0-----0-0-----------------------3---3---3-----3---3---------------------|
 |                                                                                 |
d|---------------------------------------------------------------------------------|
A|---------------------------------------------------------------------------------|
F|---------------------------------------------------------------------------------|
C|-9---------------10--12-------------------------------10\9-7---------------------|
G|---------------------------------------------------------------------------------|
D|---------------------------------------------------------------------------------|


Verse 1:

d|---------------------------------------------------------------------------------|
A|---------3-------------------3---------------------------------------------------|
F|-----0-------------------0-----------------------4-------------------2-----------| x4
C|---------------------------------------------5-------------------4---------------|
G|---------------------3---------------------------------------2-------------------|
D|-0---------------------------------------3---------------------------------------|


Chorus 1:

d|---------------------------------------------------------------------------------|
A|---------3-------------------3---------------------------------------------------|
F|-----0---------0---------0-----------------------4-------------------2-----------|
C|---------------------------------------------5---------5---------4---------------|
G|---------------------3---------------------------------------2-------------------|
D|-0---------------------------------------3---------------------------------------\
 |                                                                                 x2
d|---------------------------------------------------------------------------------/
A|-12------------------15------------------12------------------15--------13--------|
F|---------------------------------------------------------------------------------|
C|---------------------------------------------------------------------------------|
G|------------------------------------------------------------------

Tonight We Have The Stars chords – Bryan Adams V3

 TONIGHT WE HAVE THE STARS       -       Bryan Adams

Intro:
 Bm  -  B5  - 
Bmadd4 -  B5 Bm  -  B5                                                                       
          We'll save ourselves a bottle
 Bm  -  A/B E                                                         
          Of California     Red
 Bm  -  B5                                                                       
          We'll drink it on a Tuesday
 Bm  -  A/B E                                            
          Let it go straight to ou -     our heads
 Bm  -  B5                                                                       
          And we'll eat from good china
 Bm  -  A/B E                                                 
          And make love on li -     nen sheets
 G A                                             
   Just like there's no to -     morrow
 Bm  -  B5 Bm                                                 
          no surrender no re -      treat


Chorus:
 A Em7                                                   
   I can feel it in my       bones
 G D                                                   
   and I know it in my    heart
      A Em7                                                   
To -     morrow may be      raining
           G D                                           
but to -    night we have the     stars
 A Em7                                                 
   We may always be to -      gether
 G D                                                
   or miles and miles a -     part
      A Em7                                                   
To -     morrow may be      raining
           G D                                           
but to -     night we have the     stars
           C C                                                       
Yea ie -     yeah 


 Bm  -  B5                                                                       
           We were young and we were foolish
 Bm  -  A/B E                                                 
           We were easy to de -     cieve
 Bm  -  B5                                                                       
           Said we'd be in love forever
 Bm  -  A/B E                                              
           And it was easy to be -     lieve
 Bm  -  B5                                                                       
           Well you and I we had our moments
 Bm  -  A/B E                                                   
           Our devils and our     doubts
 G A                                            
   But the time we spend to -     gether
 Bm  -  B5 Bm                                               
           yeah we gotta make it     count


Chorus:
 A Em7                                                   
   I can feel it in my       bones
 G D                                                   
   and I know it in my    heart
       A Em7                                                   
To -     morrow may be      raining
          G D           

California chords – Sons Of The East

 Intro:    Am F C F Am G F 
Left my home long ago
To get out of California
 F Am G F 
The bird she hides, the other side
And I thought, I thought I saw her
 F Am G F 
Broken homes, rattled bones
White dust from before
 F Am G F 
Now I know what I've got
What I've got in store

 Am G 
And I've seen future hiding beneath the water
 Am G 
And I've seen future, but I cannot seem to wander

 Am F C  (x2)

 Am F C 
I know what I've got in store
 Am F C 
There's no more white stallions at my door
 Am F C 
I see the stars up from the floor
 Am F C 
And I see now

 F Am G F  
Cold nights, sunny skies
Just me, my hazy eyes
 F Am G F 
I've done it too, once with you
But where is my demise
 F Am G F 
I've seen it all
In my ears once before
 F Am G F 
It's my life, my job
But not my chore

 Am G 
And I've seen future hiding beneath the water
 Am G 
And I've seen future, but I cannot seem to wander

 Am F C  (x2)

 Am F C 
I know what I've got in store
 Am F C 
There's no more white stallions at my door, at my door
 Am F C 
I see the stars up from the floor
 Am F C 
And I see now
 Am F C 
I see now
 Am F C 
I see now

The Epilogue chords – Crosses

 Artist: Crosses
Title: The Epilogue
 Crosses
: Nick

Tuning: Standard

[Intro]
 F#m ,  D ,  A F#m ,  D ,  A 


[Verse]
        F#m D 
It's a strange day
     A 
The roses are in bloom
          F#m D 
But in a strange way
   A 
I know somehow we're doomed


[Pre-Chorus]
 Bm 
I Look around, through the town
       D 
Not a soul to be found
            A 
In silence, not a sound
         A 
There's no one around but you
 Bm D 
In the back of the car, on the way from the bar
           Em 
In silence, here we are
   G E 
Reminding us how we're doomed


[Chorus]
          Bm Dsus2 
Well get set, it's time we've come to the end
       A E 
We've circled around our doom
              Bm Dsus2 
And, I won't stop, not 'til I get what I want
     A 
And all that I want is you


[Verse]
      F#m D 
In a strange place
          A 
When the sun goes down we move
        F#m D 
Into a strange phase
                A 
Like we've got nothing left to lose


[Pre-Chorus]
 Bm D 
So we slip through the town, with our heads in the clouds
            A 
In silence, not a sound
     A 
For miles and miles around
 Bm D 
Fall asleep in the park, underneath all the stars
           Em 
In silence, here we are
   G E 
Reminding of how we're doomed


[Chorus]
     Bm Dsus2 
Get set, it's time we come to the end
       A E 
We've circled around our doom
               Bm Dsus2 
Yeah, I won't stop, not 'til I get what I want
     A 
And all that I want is you


[Solo]
 Dsus2 ,  E ,  Asus2 
                 Is you
 Dsus2 ,  E ,  Asus2 
            All that I want is you
 Dsus2 ,  E ,  Asus2 
                 Yeah you
 Dsus2 ,  E ,  Asus2 
            All that I want is you

 A ,  B A ,  B  (hold)
 E 


[Chorus/End]
        Bm Dsus2 
So get set, it's time we come to the end
       A E 
We've circled around our doom
               Bm Dsus2 
Yeah, I won't stop, not 'til I get what I want
     A E 
And all that I want is you
         Bm Dsus2 
Now get set, it's time we come to the end
       A E 
We've circled around our doom
               Bm Dsus2 
Yeah, I won't stop, not 'til I get what I want
     A 
And all that I want is you

Counting Stars chords – Augustana V2

 Augustana
Counting The Stars
Augustana
2011
Submitted by: jeremyunderground41

Key:  C 

Tuning: Standard EADGBe

Chords used:
 C  -   x32010
 F  -   133211
 G  -   320003
 Dm  -  xx0231
 G/B  - x20003
 C/E  - 032xxx


Intro: C--F-G- x4


Verse 1:
 C                       
Everything has a reason
 F G 
Everything has a start
 C 
Anything that ever
               F G 
burned Had a spark
 C 
Anything I ever wanted
 F G 
Anyone I ever needed
 C 
Always seemed to leave 
                G F 
me standing in the dark


Chorus 1:
          Dm 
Suddenly I'm caught 
         F 
in your light
            C 
Opened the door and 
               G 
you stepped inside
And I'm watching the
 Dm G 
hours Looking for reasons
               C                 
Find that I'm missing
       G/B Am 
every beat of your heart
              G 
Until you're back in my
 F G (hold)
arms I'll be waiting up
                   C F 
counting the stars
          G C F G 
Counting the stars


Verse 2:
 C 
Nothing could ever touch us
 F G 
Nothing gonna shake my faith
 C 
Nothing in this big bad world
                     F G 
will ever take you away
        C 
Like a rolling hurricane
            F G 
Nothing's standing in our way
         C 
Full of life full of grace
      F 
in a perfect place


Chorus 2:
          Dm 
Suddenly I'm caught 
         F 
in your light
            C 
Opened the door and 
               G 
you stepped inside
And I'm watching the
 Dm G 
hours Looking for reasons
               C                 
Find that I'm missing
       G/B Am 
every beat of your heart
              G 
Until you're back in my
 F G (hold)
arms I'll be waiting up
               C/E F 
counting the stars
               C/E F 
Counting the stars


Bridge 
        C/E 
Like a rolling hurricane
            F 
Nothing's standing in our
             C/E 
way Full of life full of 
            F G 
grace in a perfect place


Guitar Solo: C--F-G- x2


Chorus 3:
          Dm 
Suddenly I'm caught 
         F 
in your light
            C 
Opened the door and 
               G 
you stepped inside
And I'm watching the
 Dm G 
hours Looking for reasons
               C                 
Find that I'm missing
       G/B Am 
every beat of your heart
              G 
Until you're back in my
 F G (hold)
arms I'll be waiting up
                   C F 
counting the stars
          G C F 
Counting the stars
          G C 
Counting the stars
          F 
like I'm wating until
                G C 
you're back in my arms
             F 
and I'll be waiting
         G C 
waiting waiting waiting
        G 

Dead Rock And Roll Stars chords – Wally Pleasant

 D Dsus2 A G 
   _____________________
    2     0     0     3
    3     3     2     3
    2     2     2     0
    0     0     2     0
    X     X     0     2
    X     X     X     3

Intro / Verse
E-2--2-0-0-2-0-0-2-2-2--2--2--2-2--2-2--2-2-2-2--3--3-3--3-3--3-3-3-3-3-|
B-3--3-3-3-3-3-3-3-3-3--2--2--2-2--2-2--2-2-2-2--3--3-3--3-3--3-3-3-3-3-|
G-2--2-2-2-2-2-2-2-2-2--2--2--2-2--2-2--2-2-2-2--0--0-0--0-0--0-0-0-0-0-|
D-0--0-0-0-0-0-0-0-0-0--0--0--0-0--0-0--0-0-0-0--0--0-0--0-0--0-0-0-0-0-|
A------------------------------------------------2--2-2--2-2--2-2-2-2-2-|
E------------------------------------------------3--3-3--3-3--3-3-3-3-3-|

E-2--2-0-0-2-0-0-2-2-2-|
B-3--3-3-3-3-3-3-3-3-3-|
G-2--2-2-2-2-2-2-2-2-2-|
D-0--0-0-0-0-0-0-0-0-0-|
A----------------------|
E----------------------|

They said when you die you'll never grow old ...
E-2--2-0-0-2-0-0-2-2-2--3--3-3--3-3--3-3-3-3-3--2--2-0-0-2-0-0-2-2-2-|
B-3--3-3-3-3-3-3-3-3-3--3--3-3--3-3--3-3-3-3-3--3--3-3-3-3-3-3-3-3-3-|
G-2--2-2-2-2-2-2-2-2-2--0--0-0--0-0--0-0-0-0-0--2--2-2-2-2-2-2-2-2-2-|
D-0--0-0-0-0-0-0-0-0-0--0--0-0--0-0--0-0-0-0-0--0--0-0-0-0-0-0-0-0-0-|
A-----------------------2--2-2--2-2--2-2-2-2-2-----------------------|
E-----------------------3--3-3--3-3--3-3-3-3-3-----------------------|

E-2--2--2-2--2-2--2-2-2-2--2--2-0-0-2-0-0-2-2-2--3--3-3--3-3--3-3-3-3-3-|
B-2--2--2-2--2-2--2-2-2-2--3--3-3-3-3-3-3-3-3-3--3--3-3--3-3--3-3-3-3-3-|
G-2--2--2-2--2-2--2-2-2-2--2--2-2-2-2-2-2-2-2-2--0--0-0--0-0--0-0-0-0-0-|
D-0--0--0-0--0-0--0-0-0-0--0--0-0-0-0-0-0-0-0-0--0--0-0--0-0--0-0-0-0-0-|
A------------------------------------------------2--2-2--2-2--2-2-2-2-2-|
E------------------------------------------------3--3-3--3-3--3-3-3-3-3-|

E-2--2-0-0-2-0-0-2-2-2--2-2-2-2-2-2-2-2-3-3-3-3-3-3-3-3-|
B-3--3-3-3-3-3-3-3-3-3--3-3-3-3-3-3-3-3-3-3-3-3-3-3-3-3-|
G-2--2-2-2-2-2-2-2-2-2--2-2-2-2-2-2-2-2-0-0-0-0-0-0-0-0-|
D-0--0-0-0-0-0-0-0-0-0--0-0-0-0-0-0-0-0-0-0-0-0-0-0-0-0-|
A---------------------------------------2-2-2-2-2-2-2-2-|
E---------------------------------------3-3-3-3-3-3-3-3-|





  D A G 
Last night I dreamed that all the dead rock n roll stars that I can think of
                      D 
were knockin at my door

   D A G D 
There was Jimi Hendix, Buddy Holly, Janis Joplin, Marvin Gaye, and many more

  D A G 
So I invited them all into my apartment and said hey guys make yourselves at
  D 
home

   D A G D 
Elvis came in and said he was hungry, Jim Morrison started writing a poem

 D A G 
Oh all the dead, all the dead, rock n roll stars, rock n roll stars were
                         D 
hanging out in my apartment

 D A G 
All the dead, all the dead, rock n roll stars, rock n roll stars were hanging
              D 
out in my dream

 D A G 
Well Keith Moon just started smashin all my stuff, Sid Vicious sat in the
         D 
corner trying to look tough

 D A G 
And Stevie Ray Vaughn was still singin the blues, Randy Rhodes was lying down
             D 
on my couch taking a snooze

 D A G D 
Eddie Cochran was getting high with Bob Marley Roy Orbison just pulled in on

his Harley

 D A G 
John Lennon was playing chess with Brian Jones Karen Carpenter was looking
        D 
like skin on bones


 D A G 
All the dead, all the dead, rock n roll stars, rock n roll stars were k

Stars Acoustic chords – Switchfoot

 Intro tab:
                     x2 
e|-2-0---2-0---2-0--|---------------------|
B|-3--3--3--3--3--3-|---------------------|
G|-2---2-0---0-0----|---------------------|
D|-0-----0-----0----|-2-2/4-4/5-4-0---0---|
A|-0-----0-----3----|-0-0-------0----0-0--|
E|------------------|---------------0---0-|

 D ,  Am ,  C ,  G ,  D  x2

Verse 1:

 D 
Maybe I've been the problem
       D7 
maybe I'm the one to blame
                 C 
but even when I turn it off
     G 
and blame myself 
     A 
the outcome feels the same
     A 
I've been thinking maybe 
 D      
I've been partly cloudy
       D7 
Maybe I'm the chance of rain
            C 
And maybe I'm overcast
     G Am 
And maybe all my luck's
                 D7 
Washed down the drain
                          C  (lr)
I've been thinking about everyone
 G  (lr)           Am  
Everyone, you look so lonely

Chorus:

 D 
But when I look at the stars 
                     D7 
When I look at the stars
                    C G 
When I look at the stars 
               D 
I see someone else
                    D7 C G  (lr)
When I look at the stars, the stars
             D 
I feel like myself

Verse 2:

 D 
Stars looking at our planet 
          D7           
Watching entropy and pain
                    C 
And maybe start to wonder how
 G A                
The chaos in our lives could pass as sane
                                D 
I've been thinking about the meaning of resistance
      C G 
Of a hope beyond my own
                  Am C 
And suddenly the infinite and penitent
 G D7 
Began to look like home


                          C  (lr)
I've been thinking about everyone
 A  (lr)                 Am 
everyone, you look so empty

Chorus:

 D 
But when I look at the stars 
                     D7 
When I look at the stars
                    C G 
When I look at the stars 
               D 
I see someone else
                    D7 C G  (lr)
When I look at the stars, the stars
                    D 
I feel like myself


 C  (lr)    A  (lr)               D  (lr)
Everyone everyone we feel so lonely
 C  (lr)     A  (lr)               D7  (lr)
Everyone, everyone we feel so empty

When I look at the stars

When I look at the stars
                    D7 C D                
When I look at the stars I feel like myself
                    D7 
When I look at the stars
 C G  (lr)
The stars
              D 
I see someone

 D ,  C ,  G ,  D 

lr: Let Ring

Counting Stars chords – Augustana

 -----------------------------------------------------------------------------
                             Counting Stars - Augustana
-----------------------------------------------------------------------------
: temps0
ok_1989@hotmail.com

Tuning: Standard


Intro
=====
 C F  x4


Verse 
=====
  C                       
Everything has a reason
  F 
Everything has a start
  C 
Anything that ever burned
         F 
Had a spark
  C 
Anything I ever wanted
  F 
Anyone I ever needed
  C F 
Always seemed to leave me standing in the dark


Pre-Chorus/Chorus 
=================
           Dm F 
Suddenly I'm caught in your light
             C G 
Opened the door, and you stepped inside
                       Dm 
And I'm watching the hours
                G 
Looking for reasons
                 C C/B Am                            
Find that I'm missing every beat of your heart
              G F 
'Til you're back in my arms,
            G C F 
I'll be waiting up, counting the stars
                C F 
Counting the stars


Verse 
=====
  C 
Nothing could ever touch us
  F 
Nothing gonna shake my faith
  C F 
Nothing in this big, bad world will ever take you away
         C 
Like a rolling hurricane
             F 
Nothing's standing in our way
          C F 
Full of life, full of grace, in a perfect place


Pre-Chorus/Chorus 
=================               
           Dm F 
Suddenly I'm caught in your light
             C G 
Opened the door, and you stepped inside
                       Dm 
And I'm watching the hours
                G 
Looking for reasons
                 C C/B Am                            
Find that I'm missing every beat of your heart
              G F 
'Til you're back in my arms,
            G C     
I'll be waiting up, counting the stars
   F C F 
Ooh, counting the stars, ooh


Bridge 
======
         C 
Like a rolling hurricane
             F 
Nothing's standing in our way,
          C F 
Full of life, full of grace, in a perfect place


Guitar Solo (Verse chords)
=============
 C F  x2


Pre-Chorus/Chorus
=================
           Dm F 
Suddenly I'm caught in your light
             C G 
Opened the door, and you stepped inside
                       Dm 
And I'm watching the hours
                G 
Looking for reasons
                 C C/B Am                              
Find that I'm missing every beat of your heart
              G F 
'Til you're back in my arms,
            G C F 
I'll be waiting up, counting the stars
                C F 
Counting the stars


Outro
=====
                 C                        
Counting the stars
           F C 
I'll be waiting 'til you're back in my arms
                 F C F 
And I'll be waiting, waiting, waiting, waiting, waiting, waiting up
                C F C   
Counting the

The Stars Came Out Once The Lights Went Out chords – The Veils

 Capo on 4th


 Em C 
I'm caught between the pen and the page
                             G 
Lost in the remains of the age
                                  B 
Daddy when you were young was it all this strange?

 
 Em C 
Fear's inching up the ridge of my spine
                            
The talking clock reminded me
 G B 
I've never felt all myself and I don't know why

 
 C 
I can't seem to get to grips with it
   A 
I almost touched my fingertips to it
 G B 
Why oh my oh my?

 
 C 
Then the stars came out once the lights went out
          A 
And I could not speak so I had to shout
               G B 
And then the moon passed sadly by.


 C Em G     4x
 

 Em C 
The joys are few and far between
                                           G 
I've got the doomsday app. on my iPhone screen
                                      B 
Honey, I've seen the truth and it's worse than it seemed

 
 Em 
Sins derived and sins original
 C 
Lies eclipsed and lies made visible
 G B 
I'm turning my back on the world and fixing my eyes on the sky

 
 C 
I can't seem to get to grips with it
    A 
I almost touched my fingertips to it
 G B 
Why oh my oh my?

 
 C 
Then the stars came out once the lights went out
         A 
And I could not speak so I had to shout
               G B 
And then the moon passed sadly by

 C Em G  2x 
 C Em G C Em 
Love will I see you again
                G C Em 
'Cause I could do with some mending
               G C Em 
Love, will I see you again
               G C Em 
'Cause I'm through with pretending
         G C 
Will I see you again?
                G C Em 
'Cause I could do with some mending
         G C Em G 
Will I see you again


(Fade Out with   C Em G  )



I'm confident this is correct. If you'd prefer to play it without Capo, simply use 
the transpose function and tune it up four steps.

Enjoy :)

Tab by Ganair

Counting Stars Tabs by Onerepublic V3

 Capo. fret 4

e|-------0----3----0-------0--------0-----0-------------0--1--0--------------|
B|-3-----1---------1----3-----3--1--------1-------3--3-----------3--1--------|
G|----2----2----2----2-----0-----0-----0-----0-------0-----------0-----------|
D|------------------------------------------------0-----------------0--------|
A|-0----------0---------3-----------3----------------------------------------|
E|---------------------------------------------3-----------3-----------------|

e|-0-----------------------------0-----3-----0--------0--------0-----0---|
B|-------------------1-----3-----1-----------1-----3-----3--1--------1---|
G|----2--2--0--2-----2--------2-----2-----2-----2-----0-----0-----0-----0|
D|----3-----------3-----3------------------------------------------------|
A|-3-----------3-----------0-----------0-----------3-----------3---------|
E|-----------------------------------------------------------------------|

e|----------0--1--0--------0--------------0--------------0-----------------3--0--|
B|----3--3-----------3--1-----3--3-----1-----3--3--1--1--------1-----------1-----|
G|-------0-----------0-----------2--2-----------2-----------2-----2-----2--------|
D|----0--------------------------------------------3-----------------------------|
A|-------------------------3-----------3--3-----------3--0-----------0-----------|
E|-3-----------3-----------------------------------------------------------------|

e|-------------------3--0--------------------3-----------------------------------|
B|-3-----1-----------1-----3--------------------0--1-----------------1-----------|
G|----------0--------------------0-----------0-----------2-----------2-----------|
D|----0-----------0-----------0-----0-----0-----------3-----3-----3-----3-----3--|
A|-3-----------3-----------------------------------3-----------3-----------3-----|
E|-------------------------3-----------3-----------------------------------------|

e|-------------------0-----------------3--0--------------------3--0--------------|
B|-1-----------1-----------1-----------1-----3-----1-----------1-----3-----------|
G|-2-----------2--------2-----2-----2-----------0-----0-----0--------------0-----|
D|----3-----3-----3-----------------------------------------------------0-----0--|
A|-------3-----------0-----------0-----------3-----------3-----------------------|
E|-------------------------------------------------------------------3-----------|

e|-------3-----------------------------0-----------0--0--0-----0--0--0--0--3--3--|
B|----------0--1-----------------1-----------1-----------1-----------1-----------|
G|-------0-----------2-----------2--------2-----2-----2-----2-----0-----0-----0--|
D|----0-----------3-----3-----3-----3--------------------------------------------|
A|-------------3-----------3-----------0-----------0-----------3-----------3-----|
E|-3-----------------------------------------------------------------------------|

e|-------0-----------0-----------0-----------0-----------------------5--3--------|
B|-3--------3--1--------3--3--------3--1--------1--1-----1--1--1--------1--3--1--|
G|----0-----------2--------0-----------2-----------2--------2-----2-----0--------|
D|----------0-----------0-----0-----------3-----3-----3-----------------------0--|
A|-------------------------------3-----------3-----------0-----------3-----------|
E|-------3-----------3-----------------------------------------------------3-----|

e|----0-----------------------------------5--3------------0----------------------|
B|-3-----3--0--0--0--0--1-----1--1--1--------1--3--1---3-----3--0--0--0--0--1----|
G|-0-----------------------2-----2-----2-----0---------0-----------------------2-|
D|----0--------------------------------------------0------0----------------------|
A|----------------------------0-----------3--------------------------------------|
E|-------3--------------------------------------3------------3-------------------|

Counting Stars chords – Onerepublic V8

 the chords are  Am C G  and  F 


Chorus
 AM C 
Lately I been, I been losing sleep
 G F      
Dreaming about the things that we could be
 AM C 
But baby, I been, I been prayin' hard
 G 
Said no more counting dollars
 F 
We'll be counting stars
F (ONE STRUM )
Yeah, we'll be counting stars

[Verse 1]
 AM 
I see this life

Like a swinging vine
 C 
Swing my heart across the line
 G 
In my face is flashing signs
 F 
Seek it out and ye shall find
 AM 
Old, but I'm not that old
 C 
Young, but I'm not that bold
 G 
And I don't think the world is sold
 F 
I'm just doing what we're told
 AM C G 
I        Feel something so right
                        F 
By doing the wrong thing
 AM C G 
And I feel something so wrong
 F 
By doing the right thing
 F 
I could lie, could lie, could lie
F ( 1 STRUM )
Everything that kills me makes me feel alive

[Chorus]
 AM C 
Lately I been, I been losing sleep (hey!)
 G F 
Dreaming about the things that we could be
 AM C 
But baby, I been, I been prayin' hard (hey!)
 G 
Said no more counting dollars
 F 
We'll be counting stars
 AM C 
Lately I been, I been losing sleep (hey!)
 G F 
Dreaming about the things that we could be
 AM C 
But baby, I been, I been prayin' hard (hey!)
 G 
Said no more counting dollars
 F 
We'll be, we'll be counting stars

[Verse 2]
I feel the love
 
And I feel it burn

Down this river every turn

Hope is our four letter word

Make that money

Watch it burn

Old, but I'm not that old

Young, but I'm not that bold

And I don't think the world is sold

I'm just doing what we're told

And I feel something so wrong

By doing the right thing

I could lie, could lie, could lie

Everything that drowns me makes me wanna fly

[Chorus]  ( REPEAT THE STRUMMING PATTERN )
Lately I been, I been losing sleep (hey!)
Dreaming about the things that we could be
But baby, I been, I been prayin' hard
Said no more counting dollars
We'll be counting stars
Lately I been, I been losing sleep (hey!)
Dreaming about the things that we could be
But baby, I been, I been prayin' hard (hey!)
Said no more counting dollars
We'll be, we'll be counting stars

Oh, oh, oh.

[Bridge 4x:]
 AM  ( 1 STRUM )
Take that money
 C  ( 1 STRUM )
Watch it burn
 G  ( 1 STRUM )
Sing in the river
 F  ( 1 STRUM )
The lessons I learned

Everything that kills me makes me feel alive

[Chorus]  ( REPEAT THE STRUMMING PATTERN )
Lately I been, I been losing sleep (hey!)
Dreaming about the things that we could be
But baby, I been, I been prayin' hard (hey!)
Said no more counting dollars
We'll be counting stars
Lately I been, I been losing sleep
Dreaming about the things that we could be
But baby, I been, I been prayin' hard
Said no more counting dollars
We'll be, we'll be counting stars

[Outro 4x:]  ( REPEAT THE STRUMMING PATTERN )Take that money

Watch it burn

Sing in the river

The lessons I learned





THANKS

Counting Stars chords – Onerepublic V7

 So , thins is my first tab ... i know that these chords dont sound like the 
original , but they work for the lyrics :)

capo: 3rd or 4th fret , depending on your pitch whilst singing 

"Counting Stars"

[Chorus]
 Em G D C 
Lately I been, I been losing sleep
 Em G D C 
Dreaming about the things that we could be
 Em G D C  
But baby, I been, I been prayin' hard
 Em G D 
Said no more counting dollars
     C 
We'll be counting stars
  * strum c once*
Yeah, we'll be counting stars

[Verse 1]
 Em     
I see this life
 G 
Like a swinging vine
 D C 
Swing my heart across the line
 Em G 
In my face is flashing signs
 D C 
Seek it out and ye shall find

 Em G 
Old, but I'm not that old
 D C 
Young, but I'm not that bold
 Em G 
And I don't think the world is sold
 D C 
I'm just doing what we're told

 Em G      
I feel something so right
    D C 
By doing the wrong thing
 Em G 
And I feel something so wrong
        D C 
By doing the right thing
 Em G D C Em G 
I could lie, could lie, could lie
 D C Em G D C Em G 
Everything that kills me makes me feel alive

[Chorus]


[Verse 2]
 Em G 
I feel the love
 D C 
And I feel it burn
 Em G D C 
Down this river every turn
 Em G 
Hope is our four letter word
 Em G 
Make that money
 D C 
Watch it burn

 Em G D C  
Old, but I'm not that old
 Em G D C  
Young, but I'm not that bold
 Em G D C 
And I don't think the world is sold
 Em G D C 
I'm just doing what we're told

 Em G 
And I feel something so wrong
 D C 
By doing the right thing
 Em G D C Em G 
I could lie, could lie, could lie
 D C Em G D C Em G 
Everything that drowns me makes me wanna fly

[Chorus]

Oh, oh, oh.

[Bridge 4x:]
 Em        
Take that money
 G   
Watch it burn
 D 
Sing in the river
 C 
The lessons I learned

 D C Em G D C Em G 
Everything that kills me makes me feel alive

[Chorus]

[Outro 4x:]
 Em 
Take that money
 G 
Watch it burn
 D 
Sing in the river
 C 
The lessons I learned

Im Gonna Try chords – Shimmering Stars

 Song: I'm gonna try
Artist: Shimmering Stars
 Violent Hearts

 C# Bbm 
walking down the street and i wanna kill everyone i see 
 C# Bbm 
how come i don't like anyone that i meet? 
 C# Bbm 
and despite my antipathy i am longing to be someone better 

 F# Ab Bbm 
in my heart is a violence that i cannot dispel 
 F# Ab F# C# 
i've lost my mind i'm losing you it's just as well 

 C# Bbm 
i'm gonna throw on these old jeans i'm gonna head out on the street 
 C# Bbm 
i'm gonna dream up a new dream & i'm gonna dance to a brand new beat 
 C# Bbm 
i'm gonna find a new desire then i'm gonna set this town on fire 

 F# Ab Bbm 
i'm wearing a smile and it's fake but right now it has to be 
 F# Ab F# C# 
cause i know that love is the only thing that's gonna save me 

 C# Bbm 
i'm gonna try

end with F# Ab Bbm I think.

- I don't have a guitar in front of me, that's from memory - hope it helps.

- Veedub

http://shimmeringstars.bandcamp.com/