Tag: Step Down

Summer Guest chords – Asgeir

 Summer Guest
Ásgeir

 Vincent Castonguay

* Original song is tuned half-step down


 E E A E 
My bird flies home from afar
 E B E 
Brings the joy of spring to me
 E A E 
O'er the ocean's endless blue
          B E A E 
He never fails, his path is clear and true


 E E A E 
Perched upon a branch of green
 E B E 
He rests his legs from the long journey
 E A E 
Warms my heart with one true song
          B E A E 
I listen close, to tales of battles won


 B A Dbm F# 
From my heart I thank you friend for this precious melody
           B A Abm A 
For these sweet and pure tones, sweet and pure tones


 E E A E 
When the autumn comes again
 E B E 
I ask you from my heart, my friend
 E A E 
that you'll help me sing your song
            B E A E 
Oh, summer guest, I'll miss you while you're gone.

 B A Dbm F# 
From my heart I thank you friend for this precious melody
           B A Abm A 
For these sweet and pure tones, sweet and pure tones


 E B A Dbm F# 
You made a shelter for my soul if your language I could speak
         B A Abm A 
I would weave a song for you of my own


 E E E E A E E E B E E E A E B E A E E

Runaway Baby Tabs by Bruno Mars V5

 RUNAWAY BABY - BRUNO MARS 
Tuning: 1/2 step down!!
Enjoy playing!

INTRO + VERSE 1
E-------------------------|-------------------------|
B-------------------------|-------------------------|
G-------------------------|-------------------------|
D-------------------------|-------------------------| 
A---7-5-7-----------------|---7-5-7-----------------|
E-0-------6-5-5-3-5-7-5-3-|-0-------6-5-5-3-5-7-5-3-|

E-------------------------|-------------------------|
B-------------------------|-------------------------|
G-------------------------|-------------------------|
D-------------------------|-------------------------| 
A---7-5-7-----------------|---7-5-7-----------------|
E-0-------6-5-5-3-5-7-5-3-|-0-------6-5-5-3-5-7-5-3-|

E-------------------------|-------------------------|
B-------------------------|-------------------------|
G-------------------------|-------------------------|
D-------------------------|-------------------------| 
A---7-5-7-----------------|---7-5-7-----------------|
E-0-------6-5-5-3-5-7-5-3-|-0-------6-5-------------|

PRE-CHORUS
E -----------------------------|-----------------------------|
B -----------------------------|-----------------------------|
G ---9-7-9---------------------|---9-7-9---------------------|
D ---------8-7-7----7-9-7------|---------8-7-7----7-9-7------|
A -7-------------10-------10---|-7-------------10-------10---|
E -----------------------------|-----------------------------|

E -----------------------------|-----------------------------|
B -----------------------------|-----------------------------|
G ---9-7-9---------------------|---9-7-9---------------------|
D ---------8-7-7----7-9-7------|---------8-7-----------------|
A -7-------------10-------10---|-7---------------------------|
E -----------------------------|-----------------------------|

CHORUS (strummed, these are just the chords) 
E -8----7----7----5----|-8----7----7----5----|-8----7----7----5----|-8----7-|
B -8----7----8----5----|-8----7----8----5----|-8----7----8----5----|-8----7-|
G -9----8----9----6----|-9----8----9----6----|-9----8----9----6----|-9----8-|
D -10---9----9----7----|-10---9----9----7----|-10---9----9----7----|-10---9-|
A -10---9----7----7----|-10---9----7----7----|-10---9----7----7----|-10---9-|
E -8----7----7----5----|-8----7----7----5----|-8----7----7----5----|-8----7-|

INTERLUDE
E-------------------------|-------------------------|
B-------------------------|-------------------------|
G-------------------------|-------------------------|
D-------------------------|-------------------------| 
A---7-5-7-----------------|---7-5-7-----------------|
E-0-------6-5-5-3-5-7-5-3-|-0-------6-5-5-3-5-7-5-3-|

VERSE 2
E --------------------------------|--------------------------------|
B --------------------------------|--------------------------------|
G --------------------------------|--------------------------------|
D ------------5-6-7---------------|------------5-6-7---------------|
A ---5-6-7--7---------------------|---5-6-7--7---------------------|
E -7------------------------------|-7------------------------------| 

E --------------------------------|--------------------------------|
B --------------------------------|--------------------------------|
G --------------------------------|--------------------------------|
D ------------5-6-7---------------|------------5-6-7---------------|
A ---5-6-7--7---------------------|---5-6-7--7---------------------|
E -7------------------------------|-7------------------------------| 

PRE-CHORUS
E -----------------------------|-----------------------------|
B -----------------------------|-----------------------------|
G ---9-7-9---------------------|---9-7-9---------------------|
D ---------8-7-7----7-9-7------|---------8-7-7----7-9-7------|
A -7-------------10-------10---|-7-------------10-------10---|
E -----------------------------|-----------------------------|

E

Islands chords – Sara Bareilles

 Islands by Sara Bareilles
 The Blessed Unrest
Track 11
2013


Half Step Down Tuning


Chords:

Em:      x22000
G:       320003 or 320033
D:       xx0232
A:       x02220
C:       x32010
Bm:      x24432

(To play in standard tuning, put a capo on the 6th fret and replace the chords above by 
Am, C, G, D, F & Em)


  Intro:     Em      (G)  D        x 2


 Em                (G)    D 
 Waiting for the bus stop
 Em                          (G)    D 
 Waiting for the concrete black top to settle down
 Em                      (G)   D A C 
 Long enough for me to get off and get a little ground

 Em                  (G)     D 
 I'm ready for the sea change
 Em                   (G)             D 
 Helpless felt this coming from a mile away
 Em                         (G)   D A G 
 And now you're looking at me babe, and how we'll separate if we can
                              G Bm C 
 Cause I still count on one hand the number of good men I know


                  D Em 
 It's like I'm standing on the edge with just a telephone wire
             C 
 Trying to get to you first to say the world's on fire
 D Em 
 Holding my breath until I know you're alright
               C 
 Because the water will only rise

 When will you realize
 D Em 
 You must become an island
 C G 
 You must become an island
   D Em 
 You must become an island
       C 
 And see for yourself that that's what I am


 Em      (G)  D      x 2


 Em                        (G)   D 
 You always dirty up the windows
          Em 
 If you keep 'em at bay that way
          (G)         D Em 
 No one's gonna surprise you by getting too close
             (G)   D
 Anybody but me though
                 A G 
 You've made exceptions to your rules
                               G Bm C 
 And now we're staring down truth neither one of us wants to know


                  D Em 
 It's like I'm standing on the edge with just a telephone wire
             C 
 Trying to get to you first to say the world's on fire
 D Em 
 Holding my breath until I know you're alright
               C 
 Because the water will only rise

 When will you realize
 D Em 
 You must become an island
 C G 
 You must become an island
   D Em 
 You must become an island
       C G D Em 
 And see for yourself the horizon is all we have
       C G D Em C 
 And see for yourself the horizon is all we have


 D Em 
 Holding my breath until I know you're alright
               C 
 Because the water will only rise

The Trial chords – Phil Ochs

 Ochs plays this with his gutar tuned a half-step down.

 E 
   Outside the cats are scratching
 Dm 
   Inside the doors are latching
 C F 
   On the room, the greedy gloom
        Dm G 
   The trial is revealed
 E 
   Police are six feet deep
 Dm 
   With switchblades in their teeth
       C F 
   So no one leaves and they all believe
            Dm G 
   This is absolutely real
              Am 
   Yes, it's real
   And the Sergeant says, "Are you ready, boys?
   Get ready, boys
   Aim...
        G Am 
   And Fire...

Order in the court
People ready for the sport
They squirm and squeak and lick their beaks
And grease their feathers down
Everybody rise
Judge is here with bathroom eyes
A Grizzly bear, he hugs his chair
And the greedy gavel pounds
Yes, it pounds
And the Sergeant says, "Are you ready, boys?
Get ready, boys
Aim...
And Fire...

In the dungeon's falls
Writing appeals upon the wall
And the priest in prayers is not even there
So precious is his time
To the stake he's tied
The swallows sing the triggers slide
he bids goodbye to the wattery sky that plunges from his mind
From his mind
And the Sergeant says, "Are you ready, boys?
Get ready, boys
Aim...
And Fire...

Anywhere But Here Acoustic Chords – Aaron Lewis V2

 It's half step down tuning
The tab is based on this video - youtu.be/08wyz4ApRk4

I dont know the correct names for the chords so I decided to tab them out:
 
      G C Em D D2 
eb |-3--3--3---2--3--|
Bb |-3--3--3---3--3--|
Gb |-0--0--0---2--2--|
Db |-0--x--2---0--0--|
Ab |-x--3--2------x--|
Eb |-3------------2--|



Into: G-- C-- Em- D- C--

 G C 
  This road is going nowhere
        Em D C 
And these, these shoes are worn too thin
 G C 
  There's always should-haves where I'm going
            Em D C 
There's always could-haves where I've been.


               G 
And all the things that I've said
          D2 Em C 
And the road up ahead don't mean nothing don't mean nothing
           G D2 Em 
And the things that I've done and the man I've become disappear
              C G D2 Em C 
I wish I was anywhere but here.


 G C 
  There's always footsteps from behind me
                   Em D C 
Why don't they ever read the writing on the wall
 G C 
  And all the time I've spent rewinding
                Em D C 
It might mean nothing, it might mean nothing at all


               G 
And all the things that I've said
          D2 Em C 
And the road up ahead don't mean nothing don't mean nothing
           G D2 Em 
And the things that I've done and the man I've become disappear
              C            ( G D2 Em C )x2
I wish I was anywhere but here.


 G C 
  The bed next to me is empty
              Em D C 
Just like the, the shell I'm still trying to fill
 G C 
  The things put in life to tempt me
            Em D C 
They won't ever, they might break my will


               G 
And all the things that I've said
          D2 Em C 
And the road up ahead don't mean nothing don't mean nothing
           G D2 Em 
And the things that I've done and the man I've become disappear
              C G D2 Em C G D2 Em C G 
I wish I was anywhere but here-e-e      anywhere but here


Inhuman Creation Station Tabs by Cky V4

 Song:Inhuman Creation Station
Infiltrate-Destroy-Rebuild
Artist:CKY
Genre:Alternative Metal
Year:2002
Tuning:Whole-Step Down (D,G,C,F,A,D)

Intro 1 Pt.1 x4
D-----------------------|
A-----------------------|
F-----------------------|
C----5-7----------------|
G-/7-----5--------------|
D----------7-0-000-000--|

Intro 1 Pt.2 x1
D----------------------------|
A----------------------------|
F----------------------------|
C----4-5p4-2p0----9-7p5-4h5--|
G-/5------------2------------|
D----------------------------|

Then:
*Intro 1 Pt.1 x2

Verse 1 Pt.1 x4
D-----------------------|
A-----------------------|
F-----------------------|
C----5-7----------------|
G-/7-----5--------------|
D----------7-0-000-000--|

Verse 1 Pt.2 x1
D----------------------------|
A----------------------------|
F----------------------------|
C----4-5p4-2p0----9-7p5-4h5--|
G-/5------------2------------|
D----------------------------|

Then:
*Verse 1 Pt.1 x6
*Verse 1 Pt.2 x1
*Verse 1 Pt.1 x1
*Verse 1 Pt.2 x1
*Verse 1 Pt.1 x1

Bridge 1 Pt.1 x8
D-------------------|
A-------------------|
F-------------------|
C-----0h4-5----2~~--|
G-0h2----------2~~--|
D-----------00-0~~--|

Bridge 1 Pt.2 x1
D------------------|
A------------------|
F------------------|
C-----0h4-----0h4--|
G-0h2-----0h2------|
D------------------|

Chorus 1 Pt.1 x1
D-----------------------------------|
A-----------------------------------|
F(          P.M         )--X--------|
C--------------------------X---X-7--|
G-3x16--------3x16---------X-5-X----|
D-------0x16--------0x16-------X----|

Chorus 1 Pt.2 x1
D-------------------------------|
A-------------------------------|
F-------------------------------|
C(            P.M            )--|
G-3x18--2222--------------------|
D------------3333-555555-0x32---|

D------------------------------------|
A------------------------------------|
F------------------------------------|
C(             P.M           )-------|
G-3x18--2222--------------------X-5--|
D------------3333-555555-0x24--------|

Post-Chorus 1 x1
D-------------------------------------|
A-------------------------------------|
F(       x4       )-------------------|
C-----0h4-5----2~~-------0h4-----0h4--|
G-0h2----------2~~---0h2-----0h2------|
D-----------00-0~~--------------------|

Verse 2 Pt.1 x4
D-----------------------|
A-----------------------|
F-----------------------|
C----5-7----------------|
G-/7-----5--------------|
D----------7-0-000-000--|

Verse 2 Pt.2 x1
D----------------------------|
A----------------------------|
F----------------------------|
C----4-5p4-2p0----9-7p5-4h5--|
G-/5------------2------------|
D----------------------------|

Then:
*Verse 2 Pt.1 x6
*Verse 2 Pt.2 x1
*Verse 2 Pt.1 x1
*Verse 2 Pt.2 x1
*Verse 2 Pt.1 x1

Bridge 2 Pt.1 x8
D-------------------|
A-------------------|
F-------------------|
C-----0h4-5----2~~--|
G-0h2----------2~~--|
D-----------00-0~~--|

Bridge 2 Pt.2 x1
D------------------|
A------------------|
F------------------|
C-----0h4-----0h4--|
G-0h2-----0h2------|
D------------------|

Chorus 2 Pt.1 x1
D-----------------------------------|
A(         P.M          )-----------|
F--------------------------X--------|
C--------------------------X---X-7--|
G-3x16--------3x16---------X-5-X----|
D-------0x16--------0x12-------X----|

Chorus 2 Pt.2 x1
D-------------------------------|
A-------------------------------|
F-------------------------------|
C(            P.M            )--|
G-3x18--2222--------------------|
D------------3333-555555-0x32---|

D----------------------------------------|
A----------------------------------------|
F----------------------------------------|
C(             P.M           )--------7--|
G-3x18--2222--------------------X-5-X----|
D------------3333-555555-0x24------------|

Interlude 1 Pt.1 x1
D----------------------------------------|
A----------

Travelling Song Chords – Pentangle

 Travelling Song - Pentangle

Based off collection "The Time Has Come (1967 - 1973)
Live version on Youtube is a half-step down, I believe

Some notes:

- For the "die da de da" section, you should take the chords liberally. In the recorded 
version you can hear only two strings for every chord (I suggest you do the same).

- I'm not going to tab out the solo, it's more fun to improvise on an acoustic. It's in 
the key of C/Am, so concentrate on that. I also suggest using the mixolodyian scale over C.

- The F can be subbed for a Dm/Fsus2 (100230)

- As for the tab, I'm only tabbing the segmented patterns, not the whole damn thing.


Chords

(Intro)


 Am C Am 
Sittin' behind the front wheel             Got my woman beside me too
 F Am F Am 
Hey baby we're goin' home                  Hey baby we're goin home
 Am C Am 
I don't mind the drizzlin' rain            Insiiide where it's warm and dry
 F Am F Am 
Hey baby we're goin' home                  Hey baby we're goin home

 E D C B A E D C B A 
Diiee da da da daaaa                       Die da da da daaaa

 Am C Am 
Well faster baby let's gooo                Racin' on through the night
 F Am F Am 
Hey baby we're goin' home                  No baby we're goin home
 Am C Am 
And baby when we get there                 I'll do everythin' for you
 F Am F Am 
Because baby we'll be back home            No baby we'll be back home

 E D C B A E D C B A 
Diiee da da da daaa                        Die da da da daaaa

(Solo)
 Am C Am 
And I'll I hope is right down              Get stopped on this old highway
 F Am F Am 
Because baby we must get home              No baby we must get home
 Am C Am 
And I don't mind tellin' a good gal        Hey The policeman won't do us good
 F Am F Am 
Hey jailhouse will be our home             Hey jailhouse will be our home
 Am C Am 
So faster baby let's gooo                  Racin' on through the night
 F Am F Am 
Hey baby we're goin' home                  Hey baby we're goin home

 E D C B A E D C B A 
Dieee Da da da daaa                        Die da da da daaa

 E D C B A E D C B A 
Dieee da da da daaa                        Die da da da daaa

(Outro)



Tab (It's fingerstyle)

"Sittin' behind the front wheel...         My woman beside me too"       (On the hammer 
on, literally pluck twice as hard to get that effect)

e|-3-|                   e|-5-|            e|-/3-|                 e|------------------|
B|-5-|                   B|-2-|            B|-/5-|                 B|-1---1h3p1--------|
G|-2-|                   G|-2-|            G|-/5-|                 G|-2---------2------|
D|---|                   D|---|            D|-/5-|                 D|-2-----------2----|
A|---|                   A|---|            A|----|               

Steadily Tabs by Means

 Means
Steadily
From "To Keep Me From Sinking" - 2008
Chords by blackoctober119
Tuning: Whole-step down (D G C F A D)

Chord diagrams:
d|--0----3----0----0----1----0--|
A|--1----3----1----1----3----3--|
F|--2----0----2----0----2----2--|
C|--3----0----2----2----0----0--|
G|-------2----0----3------------|
D|------------------------------|
   D#7   F    Gm   Bb   Cm  Csus2


Verse:
D#7           F                 Gm    Bb
We can see so far across the sky
D#7           F
We can see so far from here
Gm               Bb
Across the water
D#7            F             Gm    Bb
We can see the tops of the trees
     D#7              F        Gm    Bb
And I hold my arms out steadily
       D#7          F      Cm  Csus2 Cm    Csus2 Cm
And I'm keeping my fist secure


Chorus:
  Gm      Bb       D#7    F
To keep me from sinking
  Gm                   Bb       D#7    F    
To keep me from falling to sleep
    Gm       Bb     D#7    F
Without even a wonder
        Gm                   Bb     D#7    F
In this evening, just fading away


Lead riff, played over chorus:
d|--13-12------------------13-12----------------------|
A|--------13-13--10-10~----------13-13-10-10-/-12-13--|
F|----------------------------------------------------|
C|----------------------------------------------------|
G|----------------------------------------------------|
D|----------------------------------------------------|

d|--13-12------------------13-12----------------------15-12-----|
A|--------13-13--10-10~----------13-13-10-10-10/12h13-------13--|
F|--------------------------------------------------------------|
C|--------------------------------------------------------------|
G|--------------------------------------------------------------|
D|--------------------------------------------------------------|

d|--13-12------------------13-12----------------------|
A|--------13-13--10-10~----------13-13-10-10-/-12-13--|
F|----------------------------------------------------|
C|----------------------------------------------------|
G|----------------------------------------------------|
D|----------------------------------------------------|

d|--13-12------------------13-12----------------------15-12-----15~--|
A|--------13-13--10-10~----------13-13-10-10-10/12h13-------13-------|
F|-------------------------------------------------------------------|
C|-------------------------------------------------------------------|
G|-------------------------------------------------------------------|
D|-------------------------------------------------------------------|


Interlude: Cm-Csus2-Cm-Csus2-D#7-F


Verse:
F         Gm                 Bb  D#7  
And if the water comes up to our necks
         Gm     Bb          D#7
And it's easier just to give in
       Gm              Bb                 D#7
I will remember what I learned before the flooding came
       Gm                Bb          Cm     Csus2   Cm
I will remember who I was before the walls gave way.


Pre-chorus: F--Gm-Bb-D#7


Chorus:
  Gm      Bb       D#7    F
To keep me from sinking
  Gm                   Bb       D#7    F    
To keep me from falling to sleep
    Gm       Bb     D#7    F
Without even a wonder
        Gm                   Bb     D#7    F
In this evening, just fading away
        Gm                   Bb     D#7    F
In this evening, just fading away


Outro: Cm--Csus2-Cm--Csus2-Cm--Gm

Orange Skies Tabs by Newton Faulkner

 Newton Faulkner- Orange Skies

This is the last song on Newtons new album 'Studio Zoo'. 
I realised that there isn't any tabs for this yet, so I 
had a crack at it and think I've come pretty close 
(without doing the higher or tappy bits.)
The chords refer to what they would be called in 
standard tuning. Enjoy!

No Capo
Tuned Half-Step Down
                                          
Verse Chords                                Chorus Chords
     (A*)     (C#*)    (B*)          (A)      (B)   
e|----5--------9--------7----|  e|----0--------2---|
B|----5--------9--------7----|  B|----2--------2---|
G|----6--------9--------8----|  G|----2--------4---|
D|----7--------11-------9----|  D|----2--------4---|
A|----7--------11-------9----|  A|----0--------2---|
E|----5--------9--------7----|  E|----0--------0---|

Intro- (Listen to song for rhythm) A*, C#*, B*, C#* x2

Verse- (Slightly Dubbed, almost just bass notes)
Continue with A*, C#*, B*, C#*

I was born in 85' and I just want to get some sleep,
I've been away so long oh I just want to rest my feet,
I've been knocked side ways by the people of my frequency,
Where ever I go there is always something there with me..

Chorus- A, B
Home...

Verse 2- (Slightly Dubbed)Continue A*, C#*, B*, C#* 
(Before going back to the chorus play an E)

I have memorized your face so I can always see,
and every time I close my eyes it's you right there smiling back at me,
Even though it's one below and the skies are always grey,
I can feel it in my bones it's London calling me...

Chorus 2- A, B
Home...

Middle 8-
A, E (in time with the changes, I don't know what he actually plays)

Verse 3- Hold A then play A*, C#*, B*, C#* very quietly.

I was born in 85', the years go by, my footsteps fall,
I know inside that every time I walk out that door,
That I'll be back and in my sights I'll find familiar shores,
(and you) See Orange Skies and traffic lights and then you know that you're...

(Raise the volume/ strumming strength for the last chorus)
Chorus 3- A, B
Home...

Then drop out the guitar for the last round of choir singing.

Hope you enjoy playing this tab and find it to be accurate,
Thanks :) x

Photograph Chords – Nickelback V8

 First tab. Guitarist for 13 yrs. Album is 1/2 step down standard. All chords open strumming.

E5 on 2nd string, 7th fret, 
B5 on 1st string, 7th fret, 
D5 on 1st string, 10th fret,
A5 on 1st string, 5th fret

[Verse 1] 

 E5 B5 
Look at this photograph, every time I do it makes me laugh.
 D5 A5  
How did our eyes get so red, and what the hell is on Joey's head?
 E5 B5 
And this is where I grew up, I think the present owner fixed it up.
 D5 A5 
I never knew we ever went without, the second floor is hard for sneakin' out.
 E5 B5 
And this is where I went to school, most of the time, had better things to do.
 D5 A5  
Criminal record says I broke in twice, I must have done it half a dozen times.
 E5 B5 
I wonder if it's too late, should I go back and try to graduate?
 D5 A5 G5    
Life's better than it was back then, if I was them I wouldn't let me in
                    A5 
Oh, whoa whoa, oh god I, I... 

[Chorus]

  E5 B5 
Every memory of looking out the back door, I have a photo album spread out on my bedroom floor.
 D5 A5 
It's hard to say it, time to say it, good-bye, good-bye. 
          E5 B5 
Every memory of walking out the front door. I found the photo of a friend I was looking for. 
       D5 A5                   
It's hard to say it, time to say it. Good-bye, good-bye.
 E5 ,  B5 ,  G5 ,  A5 
                 Good-bye.

[Verse 2]

 E5 B5 
Remember the old arcade? Blew every dollar that we ever made.
 D5 A5  
The cops hated us hangin' out, they say somebody went and burned it down.
 E5 B5 
We used to listen to the radio, and sing along with every song we know.
 D5 A5 
We said someday we'd find out how it feels, to sing to more than just the steering wheel.
 E5 B5 
Kim's the first girl I kissed, I was so nervous that I nearly missed.
 D5 A5  
She had a couple of kids since then, I haven't seen her since god knows when.
 G5 A5 
Oh, whoa whoa, oh god I, I... 

[Chorus]

           E5 B5 
Every memory of looking out the back door, I have a photo album spread out on my bedroom floor.
 D5 A5 
It's hard to say it, time to say it, good-bye, good-bye. 
          E5 B5 
Every memory of walking out the front door. I found the photo of a friend I was looking for. 
       D5 A5 C ,    D 
It's hard to say it, time to say it. Good-bye, good-bye.

[Bridge]

 E5 B5 G 
I miss that town, I miss their faces. 
                     E5 
You can't erase, you can't replace it. 
 E5 B5 
I miss it now, I can't believe it
 G A 
So hard to stay, too hard to leave it
 E5 B5 
If I could relive those days, I know the one thing that will never change

[Chorus]

           E5 B5 
Every memory of looking out the back door, I have a photo album spread out on my bedroom floor.
 D5 A5 
It's hard to say it, time to say it, good-bye, good-bye. 
          E5 B5 
Every memory of walking out the front door. I found the photo of a friend I was looking for. 
       D5 A5                                     
It's hard to say it, time to say it. Good-by

Dead Mans Party Chords – Oingo Boingo

 Just the basic chords here, but it gets the idea across.  Tune a half step down.

 Em 
I'm all dressed up with nowhere to go 
Walkin' with a dead man over my shoulder 
I'm all dressed up with nowhere to go 
Walkin' with a dead man over my shoulder

( Em ,  D ) x4

Waiting for an invitation to arrive 
Goin' to a party where no one's still alive 
Waiting for an invitation to arrive 
Goin' to a party where no one's still alive

 Em D 
I was struck by lightning 
 Em D 
Walkin' down the street 
                                   D Em                           
I was hit by something last night in my sleep 
 Em D 
It's a dead man's party 
 Em D 
Who could ask for more 
                                 D Em 
Everybody's comin', leave your body at the door 
             A B7 
Leave your body and soul at the door
 C Em D Em 
(Don't run away it's only me) 

Verse chords here:
All dressed up with nowhere to go 
Walkin' with a dead man (walkin' with a dead man)
Waitin' for an invitation to arrive 
With a dead man (dead Man)

Got my best suit and my tie 
Shiny silver dollar on either eye 
I hear the chauffeur comin' to my door 
Says there's room for maybe just one more

Chorus repeats here

 C Em D Em 
Don't run away it's only me 
Don't be afraid of what you can't see 
Don't run away it's only me

Stay Chords – Florida Georgia Line V2

 -------------------------------------------------------------------------------
                             Stay -  Florida Georgia Line
-------------------------------------------------------------------------------
: Kyle J Gillen
 kygillen

Tuning: 1/2 Step Down


       G A Bm 
e|-----------------------------------------------------------------------------|
B|--------3--------------------3--------------------------3------3---------3---|
G|---------------------------3--------------------------4----4------4---4----4-|
D|------0------------------3--------------------------4--------4------4-------4|
A|----2------------------0--------------------------2--------------------------|
E|--3--------------------------------------------------------------------------|

          Id sell my     soul just to see your      face

        G A Bm 
e|-----------------------------------------------------------------------------|
B|--------3--------------------3--------------------------3------3---------3---|
G|---------------------------3--------------------------4----4------4---4----4-|
D|------0------------------3--------------------------4--------4------4-------4|
A|----2------------------0--------------------------2--------------------------|
E|--3--------------------------------------------------------------------------|

         And Id break my bones just to heal your    pain

        G A Bm 
e|-----------------------------------------------------------------------------|
B|--------3--------------------3--------------------------3------3---------3---|
G|---------------------------3--------------------------4----4------4---4----4-|
D|------0------------------3--------------------------4--------4------4-------4|
A|----2------------------0--------------------------2--------------------------|
E|--3--------------------------------------------------------------------------|

           In these      times I need a saving      grace

 G  (once)                             A  (once)
     But time is runnin out, and Im startin to lose my faith

[Chorus]
          G D A 
But if I told you I love you, would it make you wanna stay
    Bm A G D A 
Im sorry for the way I hurt you and makin you walk away
                                                     (I shoulda took the time to tell you)
          G D A 
And if I wrote you a love song and sang it to you every day
          Bm A G D A 
Would it ever be enough to make you wanna come back home and stay  
                                                           (I cant go another day without you)
          G D A 
Would it make you, make you, wanna stay
                                     (Girl you gotta know I love you)


[Verse 2]
 G A Bm 
 My heart's on my sleeve, but it's turnin black
                                            (I guess I know what it feels like it to be alone)
 G A Bm 
 Without your touch I'm not gonna last
                                    (I know you know that I need ya just to carry on)
 G A Bm 
 It feels like my walls are caving in
                                   (You'd always hold me before I left you hanging on)
 G A 
 And I'll do anything to have you here again




[Chorus]
          G D A 
But if I told you I love you, would it make you wanna stay
    Bm A G</s

Slip On By Chords – Austin Webb

 Slip On By - Austin Webb
http://www.austinwebbmusic.com
half step down
Chords:  D ,  Em7 ,  G ,  Em7 D                                   
Early morning by the riverside,
         Em7 
Saw an old man waiting for a bite,
 G Em7 
We started talking and he took me back in time.
       
           D 
He said I was young, and thought I'd always be,
         Em7 
Then I woke up, now I'm 83
            G 
There's so much I missed, oh how I wish
             Em7 
I could get back all that time I wasted.


Chorus:
 D 
I see the tears of a young bride
 Em7 G 
The morning that we had our first fight.
                     Em7 
I should've held her tight.
 D 
And on the day that my momma died,
 Em7 G 
I hung up the phone and never said goodbye.

Don't let it slip on,
 Em7 
Don't let it slip on,
                      D 
Don't let it slip on by.


Verse 2
          D 
Well, he looked up, tears in his eyes.
 Em7 
Said I'm not sure if you were looking for advice.
              G Em7 
There's just something about you that reminds me of me.

          D 
It ain't easy always looking back,
       Em7 
But it seems these days that it's all I have.
      G 
What hurts me the most is knowing what could have been,
          Em7 
And if I listen real close sometimes I can

Chorus
 D 
Hear the sound of my little boy
 Em7 G 
Saying, daddy can you please come play with me?
               Em7 
But I was too busy.
                D 
Then one day, my baby grew up and went to war.
 Em7 G 
I never thought he'd be gone in the blink of an eye.

So don't let it slip on,
 Em7 
Don't let it slip on,
                      D 
Don't let it slip on by.


Bridge
                       Em7 G 
I shook the old man's hand and I thanked him.
             Em7 G 
And I drove home as fast as I could go.
                 D 
Just to let her know...

 D 
That I need her,
        Em7 
That I love her,
          G Em7 
That I'm never gonna let another moment like this slip on by.
                      D 
Don't let it slip on by.

 D 
We're only here for a little while,
 Em7 G 
And God gives us only so much precious time.

So don't let it slip on,
 Em7 
Don't let it slip on,
                      D Em7 
Don't let it slip on by.
                      G Em7 
Don't let it slip on by.

Its Late Tabs by Rise Against

 -------------------------------------------------------------------------------
                             It's Late - Rise Against
-------------------------------------------------------------------------------
Tabbed by: WildGrim
E-mail: Grim-117@hotmail.com

Tuning: Half-step down

This is a song that Tim played multiple times during The Revival tour.
Played with a capo on the 5th fret

Intro riff
eb|-------5---0-0-0-0-0-----|
Bb|-5-----5-7-0-0-0-0-0-----|
Gb|-7-6---6---1-1-1-1-1-1-2-|
Db|-7---7-7---2-2-2-2-2-----|
Ab|-0---------2-2-2-2-2-----|
Eb|-------------------------|

Play this part 4x
eb|---------------|
Bb|-----------2---|
Gb|-------2-----2-|
Db|-----2---2-----|
Ab|-0-0-----------|
Eb|---------------|

Play these sections together 2x
eb|-------------------------------------------------------------|
Bb|-----------2-------------2-------------2---------------------|
Gb|-------2-----2-------2-----2-------2-----2-------2-------2---|
Db|-----2---2---------2---2---------2---2---------2---2---2---2-|
Ab|-0-0-----------0-0-------------------------------------------|
Eb|-----------------------------4-2-----------2-2-------0-------|

eb|-----------------------------------------------------------------|
Bb|---------3---------------0---------------2---------------0-------|
Gb|-----2-----2---2-----1-----1---1-----2-----2---2-----1-----1---1-|
Db|---0---0-----0-----2---2-----2-----2---2-----2-----2---2-----2---|
Ab|-0---------------2---------------0-------------------------------|
Eb|-------------------------------------------------2---------------|

After that it's these sections together 2x
eb|---------------------------------------------------------------|
Bb|-----------2-----------------------------2---------------------|
Gb|-------2-----2-------2-------2-------2-----2-------2-------2---|
Db|-----2---2---------2---2---2---2---2---2---------2---2---2---2-|
Ab|-0-0-----------0-0---------------------------------------------|
Eb|-------------------------4-------2-----------2-2-------0-------|

eb|-----------------------------------------------------------------|
Bb|---------3---------------0---------------2---------------0-------|
Gb|-----2-----2---2-----1-----1---1-----2-----2---2-----1-----1---1-|
Db|---0---0-----0-----2---2-----2-----2---2-----2-----2---2-----2---|
Ab|-0---------------2---------------0-------------------------------|
Eb|-------------------------------------------------2---------------|

Strum this chord for a bit after that
eb|-0-|
Bb|-0-|
Gb|-1-|
Db|-2-|
Ab|-2-|
Eb|---|

This next part is a bit hard to tab out, but it goes a little something like this: 
Played 4x
eb|--------------------------------------|
Bb|-2-2-22-2-2-2-2-2-22-22-2-2-2-2-2-2-2-|
Gb|-2-2-22-2-2-2-2-2-22-22-2-2-2-2-2-2-2-|
Db|-2-2-22-2-2-2-2-2-22-22-2-2-2-2-2-2-2-|
Ab|-0-0-00-0-0-0-------------------------|
Eb|--------------4-2-22-22-2-2-2-2-0-0-0-|

eb|----------------------0-0-00-|
Bb|-3-3-33-0-0-00-2-2-22-0-0-00-|
Gb|-2-2-22-1-1-11-2-2-22-1-1-11-|
Db|-0-0-00-2-2-22-2-2-22-2-2-22-|
Ab|-0-0-00-2-2-22-0-0-00-2-2-22-|
Eb|-----------------------------|

After that play this
eb|------------------------------------------------------------|
Bb|-0-0-00-0-0-00-3-3-33-3-3-3-3-3-0-0-00-2-2-22--------3-3-33-|
Gb|-2-2-22-1-1-11-2-2-22-2-2-2-2-2-2-2-22-2-2-22-4-4-44-2-2-22-|
Db|-4-4-44-2-2-22-0-0-00-0-0-0-0-0-4-4-44-2-2-22-4-4-44-0-0-00-|
Ab|-4-4-44-2-2-22-0-0-00-0-0-0-0-0-4-4-44-0-0-00-2-2-22-0-0-00-|
Eb|----------------------------------------------2-2-22--------|

eb|-------------------------------------------------|
Bb|-0-0-00-0-0-00-2-2-22-3-3-33-0-0-0-0-0-0-0-0-----|
Gb|-2-2-22-1-1-11-2-2-22-2-2-22-2-2-2-2-1-1-1-1-1-2-|
Db|-4-4-44-2-2-22-2-2-22-0-0-00-4-4-4-4-2-2-2-2-----|
Ab|-4-4-44-2-2-22-0-0-00-0-0-00-4-4-4-4-2-2-2-2-----|
Eb|-------------------------------------------------|

Then back to this part 4x
eb|---------------|
Bb|-----------2--

Turn The Dirt Over Chords – Sea Wolf

 "Turn The Dirt Over"

Tuned Full Step Down "D Tuning"
Alternate picking on Em and Am

 Em 
Come closer to the window-frame
 Am C 
Window to the dark and the field of snow
 Em 
I saw you running like summer-flame 
 Am 
Running through the grass
         C 
Turning gold to black

 Bm Am 
Oh, turn the dirt over
                C Em 
If you want to grow back
 Bm Am 
Oh! open up the shutters 
                   C 
See the moonlight on 
 G 
The snow
 C 
On the snow

 Em 
You left your brother in a northern town
 Am C 
Took the ferry o'er the water on the bay
 Em 
His body covered by the colors going down
 Am C 
A statue in the square before the wind could change

 Bm Am 
Oh, turn the water over
                C Em 
If you want to flow down
 Bm Am 
Oh! open up the shutters
                 C 
See the falling snow
 G 
The falling snow

 Em 
Come softly to the window frame
 Am C 
Window through the dark and the fields of snow
 Em       
I saw you running like a summer-flame
 Am 
Running through the grass 
         C 
Turning gold to black

 Bm Am 
Oh, turn the dirt over
                C Em 
If you want to grow back
 Bm Am 
Oh, open up the shutters
                   C 
See the moonlight on 
 G 
The snow
                   C 
See the moonlight on
 G 
The snow
 C Em 
On the snow

Disengage The Stimulator Tabs by Cky

 Song:Disengage The Simulator
Album:Infiltrate-Destroy-Rebuild
Artist:CKY
Genre:Alternative Metal
Year:2002
Tuning:Whole-Step Down (D,G,C,F,A,D)

Verse 1 x2
D-----------------------------|
A-----------------------------|
F-----------------------------|
C--------4---------4-----3----|
G-4444-4---44--4-4---4-2---4--|
D-2222-----22--2--------------|

Interlude 1 x1
D---------------------------------------|
A---------------------------------------|
F---------------------------------------|
C----44-66----66-88-----44-66----66-88--|
G-66-------44--------66-------44--------|
D---------------------------------------|

*Verse 2 x2

Interlude 2 x1
D----------------------------------|
A----------------------------------|
F----------------66-88----88-1010--|
C----44-66-88-88-------66----------|
G-66-------------------------------|
D----------------------------------|

*Verse 3 x2

Interlude 3 x1
D---------------------------------------|
A---------------------------------------|
F---------------------------------------|
C----44-66----66-88-----44-66----66-88--|
G-66-------44--------66-------44--------|
D---------------------------------------|

*Verse 4 x2

Interlude 4 x1
D----------------------------------|
A----------------------------------|
F----------------66-88----88-1010--|
C----44-66-88-88-------66----------|
G-66-------------------------------|
D----------------------------------|

Chorus 1 Pt.1 x1
D-------------------------------------------------------|
A-------------------------------------------------------|
F--------------------------------9--------9-------11----|
C-----------4-2-----7-6--------6---6----6---6---8----8--|
G-4~~--4~~------4-7-----9-6--7--------7-------9---------|
D-2~~--2~~----------------------------------------------|

Chorus 1 Pt.2 x1
D----------------------------------------------------------|
A----------------------------------------------------------|
F-----------------------------------9--------9-------11----|
C-----------44-4-2-----7-6--------6---6----6---6---8----8--|
G-4~~--4~~---------4-7-----9-6--7--------7-------9---------|
D-2~~--2~~-------------------------------------------------|

Verse 5 x5
D---------|
A---------|
F---------|
C---------|
G-4444-44-|
D-2222-22-|

Interlude 5 x1
D---------------------------------------|
A---------------------------------------|
F---------------------------------------|
C----44-66----66-88-----44-66----66-88--|
G-66-------44--------66-------44--------|
D---------------------------------------|

*Verse 6 x2

Interlude 6 x1
D----------------------------------|
A----------------------------------|
F----------------66-88----88-1010--|
C----44-66-88-88-------66----------|
G-66-------------------------------|
D----------------------------------|

*Verse 7x2

Interlude 7x1
D---------------------------------------|
A---------------------------------------|
F---------------------------------------|
C----44-66----66-88-----44-66----66-88--|
G-66-------44--------66-------44--------|
D---------------------------------------|

*Verse 8 x2

Interlude 8 x1
D----------------------------------|
A----------------------------------|
F----------------66-88----88-1010--|
C----44-66-88-88-------66----------|
G-66-------------------------------|
D----------------------------------|

*Verse 9 x2

Interlude 9 x1
D---------------------------------------|
A---------------------------------------|
F---------------------------------------|
C----44-66----66-88-----44-66----66-88--|
G-66-------44--------66-------44--------|
D---------------------------------------|

Then:
*Chorus 2 Pt.1 x1
*Chorus 2 Pt.2 x1

Post-Chorus 1 x2
D----------|
A----------|
F----------|
C----------|
G-4444-44--|
D-2222-22--|

Interlude 10 x1
D---------------------------------------|
A---------------------------------------|
F---------------------------------------|
C----4

The Last Outlaw Tabs by Naxxerian

 This song is in Half-Step Down Tuning, ENJOY :)

INTRO/VERSE

--------------------------------------------|
--1---1---1---1------1---1---1---1-------1--|
---2---2---2---2------2---2---2---2-------2-|
----2---2---2---2---2------0---0---0----0---|
-0----------------------3-------------------|
--------------------------------------------|

--------------------------------------------|
--1---1---1---1------1---1---1------3---3---|
---2---2---2---2------2---2---2------4---4--|
----2---2---2---2---2------0---0------0---0-|
-0----------------------3--------3/5--------|
--------------------------------------------|

PRE CHORUS:

--------------------------------------|
--------------------------------------|
--------------------------------------|
--------------------------------------| X2
-3--3--3-3-3--3-3----5--5--5-5-5--5-5-|
-1--1--1-1-1--1-1----3--3--3-3-3--3-3-|

CHORUS:
just strum Am, C, G, D over again.
                       Am  C  G  D                X4
"He's The Last Outlaw"       "Woah, Woah"

BREAKDOWN RIFF 1:

--------------------------------------------------------|
--------------------------------------------------------|
--------------------------------------------------------|
---------------------2-5------------------------2-7-2-7-| X2
-7-7-7-7----7-7-7-7--0-3----7-7-7-7----7-7-7-7--0-5-0-5-|
-5-5-5-5----5-5-5-5---------5-5-5-5----5-5-5-5----------|

BREAKDOWN RIFF 2:

-----------------------------------------------------------|
-----------------------------------------------------------|
-----------------------------------------------------------|
-2-2-2-2-3/5-2-2-2-2-3/5-2-3/5-2-2-2-2-3/5-2-2-2-2-3/5-2-7-| X2
-0-0-0-0-2/3-0-0-0-0-2/3-0-2/3-0-0-0-0-2/3-0-0-0-0-2/3-0-5-|
-----------------------------------------------------------|
pm......    pm......    pm     pm.....     pm.....    pm

SOLO 1: (Just Play Breakdown Riff 2 During Whole Solo 1)

-15-12-12-12-14-12-12-12-15-12-17-12-12-12-15-12-12-12-14-|
----------------------------------------------------------|
----------------------------------------------------------| X2
----------------------------------------------------------|
----------------------------------------------------------|
----------------------------------------------------------|

-17p15p12-17p15p12-17p15p12-17p15p12-|
-------------------------------------|
-------------------------------------|
-------------------------------------|
-------------------------------------|
-------------------------------------|

-19p17p14-19p17p14-19p17p14-19p17p14-|
-------------------------------------|
-------------------------------------|
-------------------------------------|
-------------------------------------|
-------------------------------------|

-19p17p16-19p17p16-19p17p16-19p17p16-19b~~~~~~~~19br-|
-----------------------------------------------------|
-----------------------------------------------------|
-----------------------------------------------------|
-----------------------------------------------------|
-----------------------------------------------------|

--------------------------------------------------------10~-|
---------------------------------------------10h12p10h12----|
-12b-12b-12brp10h12br-10----------10h12p10h12---------------|
-------------------------12~-10h12--------------------------|
------------------------------------------------------------|
------------------------------------------------------------|

-13p11p1013p11p1013p11p1013p11p1015p13p1215p13p1215p13p1215p13p12-|
------------------------------------------------------------------|
------------------------------------------------------------------|
------------------------------------------------------------------|
------------------------------------------------------------------|
------------------------------------------------------------------|

-17p15p1417p15p1417p15p1417p15p1420p18p1720p18p1720p18p1720p18p

Hide And Seek Chords – Janet Devlin

 Hide And Seek by Janet Devlin
Album: Hide And Seek
Track 8
2013


HalF Step Down Tuning


Chords:

 C :      x32010
 Em :     x22000
 Am :     x02210
 F :      x33211 or 133211
 Fm :     133111
 Dm :     xx0231
 Bb :     x13331


(To play in standard tuning put a capo on the 4th fret and replace the chords 
above by G, Bm, Em, C, Cm, Am & F)


   Intro:        C C Em 
 I'm so tired of playing hide and seek with love
                             Am F 
 I won't close my eyes and count again to 10


  C Em Am F                      
 I don't mind if you take what you need from me
   C Em Am F 
 You always hide but I'm finding it hard to seek

  F Fm C Em Am 
 Oh I spy with my little eye some thing that begins with you
       F Fm 
 Oh why are you so hard to find


          C Em 
 I'm so tired of playing hide and seek with love
                             Am F 
 I won't close my eyes and count again to 10
            C Em 
 Sick and tired of playing hide and seek with love
                          Am 
 This time I'm going to hide my heart
 F 
 Were you will never find it


   C Em Am F 
 We've been here so many times before
             C Em 
 It's this game that I won't play
     Am F 
 No I won't no more

 F Fm 
 Oh I spy with my little eye
        C Em Am 
 Something that ends with you
       F Fm 
 Oh why are you so hard to find


          C Em 
 I'm so tired of playing hide and seek with love
                             Am F 
 I won't close my eyes and count again to 10
            C Em 
 Sick and tired of playing hide and seek with love
                          Am 
 This time I'm going to hide my heart
 F 
 Were you will never find it


 Dm Am 
 You won't find me
                 F 
 You give it up
          C 
 So easily
             Dm 
 I've had enough
                   Am 
 It's my turn to leave
                    F 
 I won't be caught
          Bb 
 So easily


          C Em 
 I'm so tired of playing hide and seek with love
                             Am F 
 I won't close my eyes and count again to 10
            C Em 
 Sick and tired of playing hide and seek with love
                          Am 
 This time I'm going to hide my heart
 F 
 Were you will never find it

Attached At The Hip Tabs by Cky V4

 Song:Attached At The Hip
Album:Infiltrate-Destroy-Rebuild
Artist:CKY
Genre:Alternative Metal
Year:2002
Tuning:Half-Step Down (Eb,Ab,Db,Gb,Bb,Eb)

Intro x4
Eb---------------------------|
Bb-------------------5-3-----|
Gb-------------2---2-------2-|
Db-44444444--4---4-------4---|
Ab-22222222------------------|
Eb---------------------------|

Verse 1 x1
Eb---------------------|
Bb---------------------|
Gb---------------------|
Db(   x4  )-(   x4  )--
Ab-22-2222---5x12--2---|
Eb---------------------|

Chorus 1 x4
Eb----------------------------|
Bb-------------------5-3------|
Gb-------------2---2-------2--|
Db-44444444--4---4-------4----|
Ab-22222222-------------------|
Eb----------------------------|

Then:
*Verse 2 x1

Pre-Chorus 1 x4
Eb--------------------------------------------------|
Bb--------------------------------------------------|
Gb-4~~--4~~-44--7-77--------------------7-77--6-66--|
Db-4~~--4~~-44--7-77-5-55--7~~--7~~-77--7-77--6-66--|
Ab-2~~--2~~-22--5-55-5-55--7~~--7~~-77--5-55--4-44--|
Eb-------------------3-33--5~~--5~~-55--------------|

Then:
*Chorus 2 x4

Bridge 1 x4
Eb--------------------------------------------------|
Bb--------------------------------------------------|
Gb-4~~--4~~-44--7-77--------------------7-77--6-66--|
Db-4~~--4~~-44--7-77-5-55--7~~--7~~-77--7-77--6-66--|
Ab-2~~--2~~-22--5-55-5-55--7~~--7~~-77--5-55--4-44--|
Eb-------------------3-33--5~~--5~~-55--------------|

Chorus 3 x4
Eb----------------------------|
Bb-------------------5-3------|
Gb-------------2---2----------|
Db-44444444--4---4-------4-2--|
Ab-22222222-------------------|
Eb----------------------------|

Song Order:
*Intro x4
*Verse 1 x1
*Chorus 1 x4
*Verse 2 x1
*Pre-Chorus 1 x4
*Chorus 2 x4
*Bridge 1 x4
*Chorus 3 x4

*Here Is A Link If You Wanna Play Along:


*Don't Forget To Rate And Comment If You Liked The Tab, And Comment Any
Corrections, I Welcome Corrections.