Tag: still

Still Not Dead Piano Chords by Willie Nelson

[Intro]
E    B    A    E
E    A    B    E

[Verse 1]
  E                                 B
I woke up still not dead again today
    A             B             E
The internet said I had passed away
E                           A
If I died I wasn't dead to stay
    B                                 E
I woke up still not dead again today

[Verse 2]
         E                                 B
Well, I woke up still not dead again today
     A                B              E
The gardener did not find me that a way
     E                                 A
You can't believe a word that people say
       B                                 E
And I woke up still not dead again today

[Chorus]
      A                            E
I run up and down the road making music as I go
      B                               E
They say my pace would kill a normal man
          A                           E
But I've never been accused of being normal anyway
       B                              E
And I woke up still not dead again today

[Instrumental]
E    B    A    E
E    A    B    E

[Verse 3]
  E                                 B
I woke up still not dead again today
     A               B               E   
The news said I was gone to my dismay
       E                           A
Don't bury me, I've got a show to play
       B                                 E
And I woke up still not dead again today

[Chorus]
      A                            E
I run up and down the road making music as I go
      B                               E
They say my pace would kill a normal man
          A                           E
But I've never been accused of being normal anyway
       B                              E
And I woke up still not dead again today
      A                                E
Last night I had a dream that I died twice yesterday
       B                             E
But I woke up still not dead again today

[Outro]
 E

Still Not Dead Chords by Willie Nelson

Still Not Dead
Recorded by Willie Nelson
Written by Willie Nelson, Buddy Cannon

Tab submitted by: Mykola Poberezhnyi

[Intro]
E    B    A    E
E    A    B    E

[Verse 1]
  E                                 B
I woke up still not dead again today
    A             B             E
The internet said I had passed away
E                           A
If I died I wasn't dead to stay
    B                                 E
I woke up still not dead again today

[Verse 2]
         E                                 B
Well, I woke up still not dead again today
     A                B              E
The gardener did not find me that a way
     E                                 A
You can't believe a word that people say
       B                                 E
And I woke up still not dead again today

[Chorus]
      A                            E
I run up and down the road making music as I go
      B                               E
They say my pace would kill a normal man
          A                           E
But I've never been accused of being normal anyway
       B                              E
And I woke up still not dead again today

[Instrumental]
E    B    A    E
E    A    B    E

[Verse 3]
  E                                 B
I woke up still not dead again today
     A               B               E   
The news said I was gone to my dismay
       E                           A
Don't bury me, I've got a show to play
       B                                 E
And I woke up still not dead again today

[Chorus]
      A                            E
I run up and down the road making music as I go
      B                               E
They say my pace would kill a normal man
          A                           E
But I've never been accused of being normal anyway
       B                              E
And I woke up still not dead again today
      A                                E
Last night I had a dream that I died twice yesterday
       B                             E
But I woke up still not dead again today

[Outro]
 E

Still Feel Like Your Man Piano Chords by John Mayer

[Intro]
GM7
I still feel like your man (Ohhh oh oh)
GM7
I still feel like your man (Eww ew ew)
GM7
I still feel (I still feel) 
A
I still feel like your man

DM7 A7sus4
DM7 A7sus4
[Verse]
DM7                                      A7sus4
The prettiest girl in the room she wants me
                   DM7        A7sus4 
I know because she told me so
DM7               A7sus4 
She says come over I'd like to get to know you
      DM7                    A7sus4 
But I just don't think I can

[Chorus]
         Em7                     A7sus4 A7
'Cause I still feel like your man
DM7                     F#7        
Still feel like your man
Em7                       A7sus4 A7
I still feel like your man
F#7
Still feel like your man
Bm      A
I still feel like your man

[Break]
[Verse]
A6                              A7sus4  
I still keep your shampoo in my shower
            A6                   A7sus4 
In case you wanna wash your hair
A6                                          A7sus4 
And I know that you probably found yourself someone somewhere
A6                        A7sus4 
But I do not really care 'cause as long as it is there

[Chorus]
         Em7                     A7sus4 A7
'Cause I still feel like your man
DM7                     F#7        
Still feel like your man
  Em7                     Asus4 A7
I still feel like your man
F#7
Still feel like your man
Bm      A
I still feel like your man

[Bridge]
     Bb6
Your man... (Ever since the day we met)
F6                                               Bb6
Still like the letters in your name and how they feel, babe
F6                                       Bb6
Still think I'm never gonna find another you
F6                                          A
Still like to leave the party early and go home, babe
A
And don't you know, babe
A
I'd rather sit here on my own and be alone, babe

[Chorus]
         Em7                      Asus4 A7
'Cause I still feel like your man
DM7                     F#7        
Still feel like your man
  Em7                     Asus4 A7
I still feel like your man
F#7
Still feel like your man
  Em7                     Asus4 A7
I still feel like your man
DM7                     F#7
Still feel like your man
  Em7                     Asus4 A7
I still feel like your man
F#7
Still feel like your man

[Outro]
DM7               A7sus4 
I still feel like
DM7               A7sus4 
I still feel like
DM7               A7sus4 
I still feel like
DM7                       A7sus4     
I still feel, I still feel

DM7 A7sus4 
DM7 A7sus4 
DM7 A7sus4 
DM7 A7sus4

Still Within The Sound Of My Voice chords – Glen Campbell

 Still within the sound of my voice
Glen Campbell
written by Jimmy Webb
1987 album Still Within The Sound Of My Voice

Capo 1

Intro:  E A E A E A E A   

Verse 1

 E A E A E A 
WHERE HAVE YOU GONE, MY DARLING ONE.  ARE YOU ON YOUR OWN,
         B A 
ARE YOU HAVING FUN?
 B C#m7 D A 
IS THERE SOME ONE TO HOLD, WHEN YOU NEED IT BAD?
 B C#m7 F#7sus4 F#7 A 
IS IT UNCONTROLED, LIKE THE LOVE WE HAD?

Verse 2

 E A E A 
DOES A DAY GO BY, LIKE A MEMORY ?
        E A B A 
DO YOU EVER TRY TO REMEMBER ME?
       B C#m7 D A 
IN AN AUTOMOBILE OR A CROWDED BAR.
        B C#m7 F#7sus4 F#7 C D  
WELL I HOPE YOU’RE ALRIGHT, WHEREVER YOU ARE.

Chorus 1

               G C 
AND IF YOU’RE STILL WITHIN THE SOUND OF MY VOICE,
      G Em D F C 
OVER SOME RADIO.  I JUST WANT YOU TO KNOW
          Em D E 
YOU WERE ALWAYS MY ONLY CHOICE.
     Am Dm7 G C 
AND WHEREVER YOU GO ,  THAT I STILL LOVE YOU SO
           F C 
IF YOU’RE STILL WITHIN THE SOUND OF MY VOICE.

Verse 3

 E A E A 
IN THE DEAD OF NIGHT,   DO YOU HEAR ME CALL?
            E A B A 
SOMETHINGS NOT QUITE RIGHT ,  NO ONE’S THERE AT ALL.
         B C#m7 D A 
DID YOU MAKE A MISTAKE?  WAS IT IN YOUR HEAD?
           B C#m7 F#7sus4 F#7 C D 
OR WAS IT REALLY ME TALKING , TO YOUR HEART   INSTEAD?


Chorus 2

               G C 
AND IF YOU’RE STILL WITHIN THE SOUND OF MY VOICE
               G D 
WHY DON’T YOU LET ME KNOW?
        F C G D E 
I JUST CAN’T LET YOU GO CAUSE IT ALWAYS MADE ME REJOICE.
         Am F G C 
JUST TO HAVE YOU SO NEAR, THERE’S A PLACE FOR YOU HERE
           F C 
IF YOU’RE STILL WITHIN THE SOUND OF MY VOICE.

Bridge

      C G 
I AM CALLING LIKE THE ECHO OF A PASSING TRAIN THAT CRIES,
     C G 
ONE LAST TIME BEFORE IT FADES INTO THE DISTANT HILLS AND DIES.
      F G 
I AM SENDING OUT A MESSAGE, LIKE A SHIP OUT ON THE SEA
    F E 
IN DISTRESS BUT ONLY YOU CAN SEND A LIFELINE OUT TO ME.

Chorus 3

         A D                               
ARE YOU STILL WITHIN THE SOUND OF MY VOICE?
               F#m E G D            
WHY DON’T YOU LET ME KNOW?   I JUST CAN’T LET YOU GO.
         F#m E F# 
IF IT’S WRONG THEN I HAVE NO CHOICE.
        Bm G A D 
BUT TO LOVE YOU UNTIL, I NO LONGER HAVE THE WILL,
           G D G D G D 
IF YOU’RE STILL WITHIN THE SOUND OF MY VOICE. 
 
Outro

                                                               
 D Ab7sus4 
I AM CALLING LIKE THE ECHO OF A PASSING TRAIN THAT CRIES,
 D A

Where Time Stands Still chords – Glen Campbell

 Where Time Stands Still
Glen Campbell
written by Geoff Thurman/Shawn Craig
1994 album The Boy In Me

Intro   C G   


Verse 1

 G 
Living life on the ragged edge
            Am Bm C 
I spend my day trying to buy some time
 G 
Weeks fly by as I move ahead
                       Bm C D 
Got to make it happen while I'm in my prime
        Em Bm C G F 
But it all comes to a halt when I steal away
 C Em Bm C 
And I lie in the meek
         G F 
In the secret place 

Chorus 1

 G C 
where time stands still
                  G 
Where the empty fills
         Am Bm 
And the weary finds strength
          F 
To walk through this strain
 Bm C 
Where the time stands still
                   G 
Where the wounded heal
           Am G D C F 
There's a place that is only a prayer away
                     G 
(Where time stands still)

Verse 2

 G 
I go there in my solitude
                       Bm C    
I find myself feeling glad to be with Him
   G  
I close my eyes and I turn my thoughts
                      Bm C D 
And my Father's arms embrace me once again
       Em Bm C G F 
I can see the deeper meaning of my fleeting days
 D Em D C G F G 
Come alive in my heart as I am swept away

Chorus 2
                   C 
Where time stands still
 Cmaj7 G 
Where the empty fills
         C Bm 
And the weary finds strength 
         F 
to walk through this strain
 G C 
Where time stands still
                   G 
Where the wounded heal
           Am Bm C F 
There's a place that is only a prayer away
                   C 
Where time stands still
                 Bm 
Where the empty fills
          Am Bm 
and the weary finds strength 
          F 
to walk through this strain

Outro

 G C 
Where time stands still
           G 
Where the wounded heal
           Am G C F 
There's a place that is only a prayer away
                   G 
Where time stands still
                   C 
Where time stands still
                   G 
Where time stands still   (fade)


flyinglibra51
God Bless Glen Travis Campbell

When We Were Still In Love chords – Trisha Yearwood

 Trisha Yearwood - When We Were Still In Love


CAPO: 5th fret




INTRO:  G Gadd9 G D Em C G Gadd9 G D 
When we    were still in love 
   Em Em7 C   
I knew just what to do, for
    G D 
My heart was like a child at play 
      Em C D G 
When all the world is new 


      Gadd9 G D 
When we    were still in love 
   Em Em7 C       
I didn't have a fear, 'cause 
   G D 
I still believed a love like ours 
       Em C D G G - Gadd9 - G - C 
Would never disappear 


CHORUS:
 D Em D G 
I remember everything 
          C G 
As if it were happening 
 D Em D G 
When the promise that we made 
     C G D 
Was everlasting 


 G Gadd9 G D 
When we    were still in love 
  Em Em7 C      
Above the clouds we  flew, yes 
     G D 
But now they have gone out to sea 
    Em C D G   
To weep for me and you 


INSTRUMENTAL:  G - Gadd9 - G D Em C G D Em C D G G - Gadd9 - G - C 


CHORUS:
 D Em D G 
I remember everything 
          C G 
As if it were happening 
 D Em D G 
When the promise that we made 
     C G D 
Was everlasting 


 G Gadd9 G D 
When we    were still in love 
   Em Em7 C      
I sang a happy song, but
     G D 
Now all I hear is the bitter wind 
      Em C D G D 
That whispers love is gone 
     G D 
Now all I hear is the bitter wind 
      Em C D G    
That whispers love is gone 


OUTRO:  G Gadd9 G D Em C D G

Still As The Night chords – Duane Eddy

 -------------------------------------------------------------------------------
                        STILL AS THE NIGHT - Duane Eddy
-------------------------------------------------------------------------------
: harrytheblurfan

This was originally by Sanford Clark, I believe, but featured Duane Eddy on the 
guitar and has been covered a few times in recent years. Most notably by the 
Crystal Stilts on their Radiant Door EP and Richard Hawley who also performed 
it with Duane Eddy. Anyway, I can't find any tabs for it (or even lyrics!) so
here they are. 

In the break you can either play the first notes or the chords, both sound 
good so it's up to you.

Tuning: STANDARD

VERSE:

                 Em 
Still as the night 
                 G 
Cold as the wind 
                   Em 
Don't guess I'll see
             G 
My baby again

CHORUS:

 C 
His devil's smile
                G 
Stole her from me
               C 
Until she's back
              D 
My heart will be

                Em 
Still as the night
               G 
Cold as the wind

BREAK: 

e|----------------------|
B|----------------------|
G|----------------------|
D|----------------------|
A|-----2----------------|
E|-3-3---3-0~-0-0-2-3~--|

VERSE:

                 Em 
Still as the night 
                 G 
Cold as the wind 
                 Em 
Now her warm lips
               G 
Are kissing him

CHORUS:

 C 
Can't eat, can't sleep
                 G 
Please make her see
              C 
Until she's back
              D 
My heart will be

                Em 
Still as the night
               G 
Cold as the wind

BREAK:

e|--------------------------------------------| 
B|--------------------------------------------|
G|--------------------------------------------|
D|--------------------------------------------|
A|-----2---------------------2----------------|
E|-3-3---3-0~-0-0-2-3~---3-3---3-0~-0-0-2-3~--|

VERSE:

                 Em 
Still as the night 
                 G 
Cold as the wind 
             Em 
A fool in love
             G 
Can never win

CHORUS:

 C 
No I can't forget
                 G 
No I can't be free
              C 
Until she's back
              D 
My heart will be

                Em 
Still as the night
               G 
Cold as the wind

OUTRO:

e|--------------------------------------------| 
B|--------------------------------------------|
G|--------------------------------------------|
D|--------------------------------------------|
A|-----2---------------------2----------------|
E|-3-3---3-0~-0-0-2-3~---3-3---3-0~-0-0-2-3~--|



CHORDS:

    Em G C D 
e|-0--3--0--2--|
B|-0--3--1--3--|
G|-0--0--0--2--|
D|-2--0--2--0--|
A|-2--2--3-----|
E|-0--3--3-----|


************************************

| /   slide up
| \   slide down
| h   hammer-on
| p   pull-off
| ~   vibrato
| +   harmonic
| x   Mute note
| b   Bend
| pb  Pre-bend
| br  Bend release
| pbr Pre-bend release
| brb Bend release bend

************************************

Why Am I Still Here chords – The Journeymen

 D C G G C 
I bought you some flowers, and you just looked at me
 D C G 
I bought you some earrings, you just went to sleep.
 G C 
I said let's go to vegas, but you don't gamble or drink.
 D C G 
With all this passion whirling around, it kinda made me think.

 G C 
You don't like to fuck me, so why am I still here?
 D C G 
Gettin you to give me some lovin, is like gettin me to give up beer.
 G C 
You don't like to fuck me, so I guess I'll just get on home.
 D C G 
I've told you once, I won't tell you again, being with you is like being alone.

 G C 
I've read books on making love, and books on the psyche of women.
 D C G 
We were wandering around in a desert of love, but we needed an oasis to swim in.
 G C 
I packed my bags, but your attention simply could not be bought.
 D C G 
So I thought I'd write you this here song, and let you know some of my thoughts.

 G C 
You don't like to fuck me, so why am I still here?
 D C G 
Gettin you to give me some lovin, is like gettin me to give up beer.
 G C 
You don't like to fuck me, so I guess I'll just get on home.
 D C G 
I've told you once, I won't tell you again, being with you is like being alone.

 G C Am Em 
Eatin smores and kissin' whores, and knockin' over discount liquor stores.
 Em C 
I talked to a preacher, and I talked to a nun.
 C D 
They said you son of a bitch, you're a son of a gun!

 G C 
You don't like to fuck me, so why am I still here?
 D C G 
Gettin you to give me some lovin, is like gettin me to give up beer.
 G C 
You don't like to fuck me, so I guess I'll just get on home.
 D C G 
I've told you once, I won't tell you again, being with you is like being alone.
 D C G 
I've told you once, I won't tell you again, being with you is like being alone.

Still You Love Me chords – Aaron Shust

 Still You Love Me by Aaron Shust


Intro:  F#m A D E F#m A D E               
Verse 1: I've never felt so undeserving than when You called out for me
            F#m A D E   
I've never been more unworthy than when You reached down for me
             F#m A F#m D  
I'm lifting hands, stained and dirty to touch my Savior's face
            E D     
And I know now, I am touching grace

                   F#m A D       
Chorus: You see everything I do But still You love me
            F#m A D 
You hear everything that I say But still You want me
          F#m A D  
You know all my darkest secrets That I try so hard to hide
           F#m A D F#m A D E   
You know everything I am But still You love me, still You love me

                  F#m A D E 
Verse 2: Amazing love, how can it be that You would die for me
         F#m A D E    
Amazing grace, oh, the mystery my blinded eyes now see
        F#m A F#m D 
When I fall, when I stumble I struggle to my feet
          E D 
Just to find grace is lifting me

                 
                   F#m A D    
Chorus: You see everything I do But still You love me         
            F#m A D 
You hear everything that I say But still You want me
          F#m A D   
You know all my darkest secrets That I try so hard to hide
           F#m A D                  
You know everything I am But still You love me


                                A D E A E D  
Bridge: There's nothing I can say to make You turn away
                       A D E A E D  
There's nowhere I can go You're never far away


                       F#m A D    
End Chorus: You see everything I do but still You love me
         F#m A D 
You hear everything I say but still You want me
            F#m A D   
You see everything I do but still You love me
            F#m A D   
You hear everything I say but still You want me
           F#m A D   
You know all my darkest secrets that I try so hard to hide
           F#m A D F#m A D E  
You know everything I am but still You love me, still You love me
            F#m A D 
Still You love me

        
       Hey, I wasn't sure about the chorus here, so any corrections would be helpful. Thanks :)

Your Grace Still Amazes Me chords – Phillips Craig And Dean V4

 Enjoy this tab. I´m not sure about the bridge, so if you have any suggestions, just suscribe it.



VERS 1:

  F G C F G C 
 My faithful Father, enduring Friend
               F G              
 Your tender mercy’s like a river with no end
 Am G C F G C 
 It overwhelms me, covers my sin
               F G 
 Each time I come into Your presence
              F G 
 I stand in wonder once again

 CHORUS:
         C F G 
 Your grace still amazes me
                        F C             
 Your love is still a mystery
                  F G Am 
 Each day I fall on my knees
         F G Am 
 Your grace still amazes me
               F G C 
 ‘Cause Your grace still amazes me

VERS 2:

  F G C F G C 
 Oh, patient Saviour, You make me whole
               F G                
 You are the Author and the Healer of my soul
 Am G C F G C 
 What can I give You, Lord, what can I say
                   F G 
 I know there’s no way to repay You
           F G 
 Only to offer You my praise     [CHORUS]


 Bridge:
 F Am 
 It’s deeper, it’s wider
 F Am 
 It’s stronger, it’s higher
 F G 
 It’s deeper it’s wider 
 C Am F G 
 It’s stronger, it’s higher than anything my eyes can see 

Would You Still Be There Tabs by Of Mice And Men

 Would You Still Be There Tabs 
Artist: Of Mice & Men
 Restoring Force
Tab by: http://www.youtube.com/jamesmouamusic


Of Mice & Men - Would You Still Be There (Official Video) 

 
Of Mice & Men FB page... 
https://www.facebook.com/ofmice 
 
Of Mice & Men Rise Records page... 
http://www.riserecords.com/press-assets-details.php?artist=Of_Mice_%26_Men_31


b: bend 
/: slide 
*: palm mute 
h: hammer on 
~: let it ring 
p: pinch harmonic 
/////: picking tremolo
x: scratch
po: pull off



INTRO:
D||-------------------------------------------------------------------------|
A||-------------------------------------------------------------------------|
F||-------------------------------------------------------5p----------------|
C||-10-0-0--00--0h2-2-x-0h2-2-x-------5-4--0h2-2--x0h2--5p--5p--------------|
G||-10-0-0--00--0h2-2-x-0h2-2-x-0-2h5------0h2-2--x0h2----------------------|
C||-10-0-0--00--0h2-2-x-0h2-2-x------------0h2-2--x0h2----------------------|


D||-------------------------------------------------------------------------|
A||-------------------------------------------------------------------------|
F||-------------------------------------------------------------------------|
C||-0h2-2-x-0h2-2-x-------5-4--0h2-2--x0h2----------------------------------|
G||-0h2-2-x-0h2-2-x-0-2h5------0h2-2--x0h2----------------------------------|
C||-0h2-2-x-0h2-2-x------------0h2-2--x0h2----------------------------------|



VERSE 1:
D||-------------------------------------------------------------------------|
A||-------------------------------------------------------------------------|
F||---------------------------------------------------------[REPEAT x2]-----|
C||-22-4h5po4---------222h4-----22-4h5po4---------4-------------------------|
G||-22--------222-555-----------22--------222-555---55----------------------|
C||-22--------------------------22------------------------------------------|
    **        *** *** **        **        *** ***

D||-------------------------------------------------------------------------|
A||-------------------------------------------------------------------------|
F||-------------------------------------------------------------------------|
C||-77-7h9po7------------777h9---77-7h9po7------------777h9-----------------|
G||-77--------777-101010---------77--------777-101010-----------------------|
C||-77---------------------------77-----------------------------------------|
    **        *** * * *          **        *** * * *  **

D||-------------------------------------------------------------------------|
A||-------------------------------------------------------------------------|
F||-------------------------------------------------------------------------|
C||-22-4h5po4---------222h4-----22-4h5po4----------4--------7~--5~----------|
G||-22--------222-555-----------22--------222-5555---55-----5~--3~----------|
C||-22--------------------------22------------------------------------------|
    **        *** *** **        **        *** **** 



CHORUS:
D||-------------------------------------------------------------------------|
A||-----------------------------------------------------------[REPEAT x2]---|
F||-------------------------------------------------------------------------|
C||-22-00-22/555555--22-00-22/555/777--22-00-22/555555--5-(x8)--------------|
G||-22-00-22/555555--22-00-22/555/777--22-00-22/555555--3-------------------|
C||-22-00-22/555555--22-00-22/555/777--22-00-22/555555--------0-0-000~------|



FILL-IN:
D||-------------------------------------------------------------------------|
A||-------------------------------------------------------------------------|
F||-------------------------------------------------------5p----------------|
C||-10-0-0--00--0h2-2-x-0h2-2-x-------5-4--0h2-2--x0h2--5p--5p--------------|
G||-10-0-0--00--0h2-2-x-0h2-2-x-0-2h5-----

I Still Cant Say Goodbye chords – Chet Atkins V2

 I Still Can’t Say Good-bye              Capo II

Intro :    G C D ,     G C D G D C D  
When I was young, my Dad would say
  G D G/B C     
Come on Son let's go out and play
 G D C Dsus4 D  ,  Am7 D /F#  G C D 
Sometimes it seems like yesterday     

 G D C D         
Then I'd climb up the closet shelf
  G D G/B C     
When I was all by my-self
 G D C Dsus4 D   
Grab his hat and fix the brim
 Am7/E D/F# G    
Pretending I    was him 

Chorus
 D C G 
No matter how hard I try
 D C G 
No matter how many tears I cry
 D Em D A/C# 
No matter how many years go by
     C D C Am7 D/F# G C D  
I still can't say good-bye




 G D C D         
He always took care of Mom and me.
 G D G/B C     
We all cut down a Christmas tree 
 G D C Dsus4 D Am7 D /F#    G 
 He always had some time for me      

Bridge
 C D Em Em/D 
  Wind blows through the trees
 C D Gmaj7 
Street lights, they still shine bright

 C D Em Em/D 
  Moon    still looks the same
           A/C# A C Dsus4 D  
but I miss my Dad to-night


 G D C D         
I walked by a Salvation Army store
 G D G/B C     
Saw a hat like my daddy wore       
 G D C Dsus4 D    
Tried it on when I walked in
 Am7/E D/F# G 
Still trying to be like him 

 D C G 
No matter how hard I try
 D C G 
No matter how many years go by
         D Em Em/D A/C# 
No matter how many tears   I     cry
     C D C Am7 D/F# G Am7 D/F# G 
I still can't say good-bye

Still I Long For Your Kiss chords – Lucinda Williams

                            Still I Long For Your Kiss by Lucinda Williams
                                                 

 C 
I know I shouldn't but I want you so bad
                                          Dm F 
I know it couldn't be but I want what we had
            C 
I know our love is gone and I can't bring it back
         Dm F C 
Still I long for your kiss
         Dm F C  
Still I long for your kiss
             C 
I know it's over cause you told me so
 C Dm F 
I tried to leave but I can't let you go
         C 
I can't believe you don't want me no more
         Dm F C 
Still I long for your kiss
         Dm F C 
Still I long for your kiss
 Am F 
The days go by but they don't seem the same
 Am F G  
I cry and cry and I call out your name
      C 
I go downtown I see your face
                             Dm F 
Nobody around can take your place
             C 
But you put me down
         
But you turned me away
         Dm F C  
Still I long for your kiss
         Dm F C 
Still I long for your kiss

SOLO

 Am F 
The days go by but they don't seem the same
 Am F G  
I cry and cry and I call out your name
      C 
I go downtown I see your face
                             Dm F 
Nobody around can take your place
             C 
But you put me down
         
But you turned me away
         Dm F C  
Still I long for your kiss
         Dm F C 
Still I long for your kiss

Still Life Tabs by American Standards

 -------------------------------------------------------------------------------
                             STILL LIFE - American Standards
-------------------------------------------------------------------------------
: Brennen Westermeyer
 MotionManagementAZ

Tuning: CGCFAD



Main Riff

Guitar 1

d|------------------|------------------|------------------|------------------|
a|------------------|------------------|------------------|------------------|
f|------------------|------------------|------------------|------------------|
c|-----------2------|-----------2------|-----------2------|-----------2------|
g|------------------|------------------|------------------|------------------|
C|-3------------2---|-3------------2---|-3------------2---|-3------------2---|


Guitar 2 (feedback/noise/pedal effects) 

d|------------------|------------------|------------------|------------------|
a|------------------|------------------|------------------|------------------|
f|------------------|------------------|------------------|------------------|
c|------------------|------------------|------------------|------------------|
g|------------------|------------------|------------------|------------------|
C|------------------|------------------|------------------|------------------|



Main Riff (cont.)

Guitar 1

d|------------------|------------------|------------------|------------------|
a|------------------|------------------|------------------|------------------|
f|------------------|------------------|------------------|------------------|
c|-----------2------|-----------2------|-----------2------|-----------2------|
g|------------------|------------------|------------------|------------------|
C|-3------------2---|-3------------2---|-3------------2---|-3------------2---|



Guitar 2 (feedback/noise/pedal effects) 

d|------------------|------------------|------------------|------------------|
a|------------------|------------------|------------------|------------------|
f|--9---------------|------------------|------------------|------------------|
c|------------------|------------------|------------------|------------------|
g|------------------|------------------|------------------|------------------|
C|------------------|------------------|------------------|------------------|



Chorus

d|----------------------------|----------------------------|
a|----------------------------|----------------------------|
f|-----------9----------------|-----------9----------------|
c|-3---------x--2-------------|-3---------x--2-------------|
g|-3---------7--2-------------|-3---------7--2-------------|
C|-3------------2-------------|-3------------2-------------|


Guitar 2 

d|-----------------10--8------|-----------------10--8--12--|
a|------------------------12--|----------------------------|
f|-10--------12-9-------------|-10--------12-9-------------|
c|----------------------------|----------------------------|
g|----------------------------|----------------------------|
C|----------------------------|----------------------------|



Main Riff

Guitar 1

d|------------------|------------------|------------------|------------------|
a|------------------|------------------|------------------|------------------|
f|------------------|------------------|------------------|------------------|
c|-----------2------|-----------2------|-----------2------|-----------2------|
g|------------------|------------------|------------------|------------------|
C|-3------------2---|-3------------2---|-3------------2---|-3------------2---|



Guitar 2 (feedback/noise/pedal effects) 

d|------------------|------------------|------------------|------------------|
a|------------------|------------------|------------------|------------------|
f|--10--------------|------------------|------------------|------------------|
c|------------

I Still Call Australia Home chords – Peter Allen V2

 I Still Call Australia Home  (Peter Allen)

Intro: | F      | A7     | Dm     | C      |

 F A7 Dm F   
I've been to cities that never close down
      Bb Dm7 G7 C 
From New York to Rio to old London town
        F A7/E Dm G7  
But no matter how far or how wide I roam
 F Gm7/C C7 F 
I still call Australia home

Turnaround:  | Bb     | Am     | C7     |

 F A7 Dm F  
I'm always trav'lin' I love being free 
     Bb Dm7 G7 C 
And so I keep leaving the sun and the sea 
        F A7/E Dm G7  
But my heart lies waiting - over the foam 
 F Gm7/C C7 F      
I still call Australia home 

Turnaround: | E      |

 Am Am7/G# Am7/G D/F# 
All the sons and daughters spinning 'round the world 
 Dm G7 C E 
Away from their family and friends 
 Am Am7/G# Am7/G D/F# 
But as the world gets older and colder 
              Dm Dm/G C7 
It's good to know where your, journey ends 

 F A7 Dm F  
But someday we'll all be together once more 
      Bb Dm7 G7 C 
When all of the ships come back to the shore 
   F A7/E Dm G7 
I realise something I've always known 
 F Gm7/C C7 F Gm7/C C7  
I still call Australia, I still call Australia
 F Gm7/C C7 F 
I still call Australia Home  

Instrumental:
|      | A7     | Dm       | F         |
| Bb     | Dm7    | G7       | C         |
| F      | A7/E   | Dm       | G7        |
| F      | C7     | F        | C7        | 
| F      | C7     | F        |

Charted by Simon Gaz - sggaz11

Im Still Here chords – Johnny Rzeznik V4

 I'm still here by Johnny Rzeznik (Treasure Planet Soundtrack)

Standard Tuning: Capo Second Fret

      G Csus2 A7sus4 D Em7       
e|---3---|---3---|---3---|---2---|---3---|
B|---3---|---3---|---3---|---3---|---3---|
G|---0---|---0---|---2---|---2---|---0---|
D|---0---|---2---|---2---|---0---|---2---|
A|---2---|---3---|---0---|---x---|---2---|
E|---3---|---x---|---x---|---x---|---0---|

Verse 1:

 G Csus2 G 
I am a question to the world,
        Csus2 G 
Not an answer to be heard
      Csus2 A7sus4 Csus2 
Or a moment that's held in your arms.
     G Csus2 G 
And what do you think you'd ever say?
         Csus2 G 
I won't listen anyway...
           Csus2      
You don't know me,
     Em7 D Csus2 G Csus2 G Csus2    
And I'll never be what you want.. me to be.


Verse 2:
     G Csus2 G 
And what do you think you'd understand?
       Csus2 G 
I'm a boy, no, I'm a man..
           Csus2 A7sus4 Csus2 
You can't take me and throw me away.
     G Csus2 G 
And how can you learn what's never shown?
           Csus2 G 
Yeah, you stand here on your own.
            Csus2      
They don't know me,
        Em7 D Csus2   
'Cause I'm not here.


Chorus 1:
     G Csus2 G    
And I want a moment to be real,
       Csus2 G 
Wanna touch things I don't feel,
       Csus2 A7sus4 Csus2 
Wanna hold on and feel I belong.
                 Csus2 G 
And how can the world want me to change?
             Csus2 G 
They're the ones that stay the same.
            Csus2 
They don't know me,
        Em7 D Csus2 
'Cause I'm not here.


Verse 3:
     G Csus2 G 
And you see the things they never see
         Csus2 G 
All you wanted, I could be
         Csus2 A7sus4 Csus2 
Now you know me, and I'm not afraid
     G Csus2 G 
And I wanna tell you who I am
         Csus2 G 
Can you help me be a man?
            Csus2 
They can't break me
    Em7 D Csus2 
As long as I know who I am


Chorus 2:   
     G Csus2 G    
And I want a moment to be real,
       Csus2 G 
Wanna touch things I don't feel,
       Csus2 A7sus4 Csus2 
Wanna hold on and feel I belong.
     G Csus2 G 
And how can the world want me to change?
             Csus2 G 
They're the ones that stay the same. 
            Csus2      
They can't see me,
     Em7 D Csus2 
But I'm still here.


Bridge:
 Csus2 D Em7 
 They can't tell me who to be,
 Csus2 D Em7  
'Cause I'm not what they see.
           Csus2 
Yeah, the world is still sleepin',
       D Em7 
While I keep on dreamin' for me.
           Csus2             
And their words are just whispers,
     D Em7</

Still After All These Years chords – Noah And The Whale

 -------------------------------------------------------------------------------
                             STILL AFTER ALL THESE YEARS - Noah and the Whale
-------------------------------------------------------------------------------
: tunietunes

Tuning: Standard

Capo: 1st fret

     D A Bm G D 
Oh Lisa, lift up your head, light up a cigarette.
 A Bm G A 
In the morning light you're not so hot.
     D A Bm G D 
Oh Lisa, come talk to me, I wanna hear your memories,
 A Bm G A 
you know I thought of you, from time to time.


 G      
Lying with your make-up off,
 A   
I can see the girl I love
 Bm A G 
Dark and brooding, fickle and demure


                D A Bm A 
And I think, still after all these years
                D A Bm     
Oh I think, still after all these years
 A G 
something still burns.


     D A Bm G D 
Oh, Lisa, don't be shy, this is not real life,
 A Bm G A 
this moment will soon be lost in time.
 D A Bm G D 
When it's time to leave don't turn your back on me.
 A Bm G A 
This was no return, our grand farewell.


 G 
Mostly I won't think of you,
 A 
but baby if I ever do
 Bm A G 
I remember thinking with surprise.


       D A Bm A 
That still after all these years,
   D A Bm     
still after all these years 
 A G 
something still burns.

(Key-change in this Pre-Chorus)

 G 
Lying with your make-up off
 Em 
I can see the girl I love,
 C A 
Dark and brooding, fickle and demure.


                E B C#m B 
And I think, still after all these years,
       A G#m F#m    
oh, still something in me.
 E B C#m   
Still after all these years,
 B A 
something still burns.


Enjoy!

Still chords – Hillsongs V8

 Still – Hillsong
Try  In Key of  E
for high pitch male voice
 Christian Estoesta of
British School Manila
January 2014

 E E/D# C#m 
Hide me    now
   A F# B 
Under your wings
 E E/D# C#m 
Co...ver   me
 A F# B 
Within Your mighty hands

Refrain
  E A 
When the ocean rise
           E B 
and thunder roar
                       A 
I will soar with you
           B C#m 
above the storm
                          A B E 
Father You are King over the flood
            C#m F#m B 
I will be still know You are God

 E E/D# C#m 
Unrest my   soul
 A F# B 
in Christ alone
 E E/D# C#m 
Know His desire
     A F# B 
 in quiteness and trust

Are You Still Having Fun chords – Eagle Eye Cherry V3

 Artist: Eagle Eye Cherry
Song: Are you Still Having Fun
Tab by: Absolution
Mail: theechelon83

This tab sounds better in acoustic.

CAPO on 4th.

Chords relative to capo:

 Dadd9/A  |0-0-4-2-3-0| you can also play like this :|0-0-0-2-3-0|
 A4       |0-0-2-2-0-0|
 Em       |0-2-2-0-0-0|
 C        |0-3-2-0-1-0|

Intro:  Em A4 C C   (x4) 

Verse 1 : 
                 Em A4 C 
You are on your own you do as you please
                Em A4 C 
Having so much fun gone and lost your reason
                         Em A4 C 
After all is said and done
                        Em A4 C 
Are you still having fun?

                  Em A4 C 
How were you to know when you've gone astray?
                      Em A4 C 
That happiness would go like a lost emotion
                              Em A4 C 
You have always gone your way
                     Em A4 C 
Are you happy today?

Pré-chorus:
          Em A4 C 
Well you know when you've been defeated
           Em A4 C 
You don't care and you thank no one
         Em A4 C 
Feeling low you will always need it
                      Em A4 C 
Are you're having fun

Chorus:
 A4 C Dadd9/A 
Ooooouuh .. You don't know what is it you've done
 A4 C Dadd9/A 
Ooooouuh .. You don't know that...


Verse 2 :
                   Em A4 C 
This was your mistake with the master plan
                        Em A4 C 
With all the drugs you take, you can hardly stand
                          Em A4 C 
After all is said and done
                        Em A4 C 
Are you still having fun?

Pré-chorus :
         Em A4 C 
Well you know when you've been defeated
           Em A4 C 
You don't care and you thank no one
         Em A4 C 
Feeling low you will always need it
                      Em A4 C 
Are you're having fun
                        Em A4 C 
Are you still having fun

Chorus:

 A4 C Dadd9/A 
Ooooouuh .. You don't know what is it you've done
 A4 C Dadd9/A 
Ooooouuh ..Just to show that you're having fun
 A4 C Dadd9/A         
AaaaaAah.. You don't know what it is you've done
 A4 C Dadd9/A 
AaaaaAah.. Just to show that...

Intru:  Em A4 C C  x2

Verse 3 : 
               Em A4 C  
I can set you straight if you let me stay
                    Em A4 C 
I hope I'm not too late no you won't regret it
                      Em A4 C 
I can show you the way
                       Em A4 C 
And make you happy today

Outro:
         Em A4 C 
Well you know when you've been defeated
           Em A4 C

Youre Still The One Tabs by Shania Twain V3

 -------------------------------------------------------------------------------
                             Your'r Still the One - Shania Twain
-------------------------------------------------------------------------------
:Randy Andal Ante
barakotayo
 *** hope you like it ***

Tuning: Standard


 verse
e|--------0----------0--------------------------0---2---0-------0-------------|
B|------3-------3--------3---0------0---0---3---------------3-----------------|
G|----2------2-----2---2---------0--------------------------------------------|
D|--0-------------------------------------------------------------------------|
A|-------------------------------2--------------------------------------------|
E|-------------------------------3--------------------------------------------|

e|---------------------------------------2---0--------0-------------------------|
B|--3---------3--5h--3---0---0---0---3------------3-----------------------------|
G|-----2---4h-------------------------------------------------------------------|
D|------------------------------------------------------------------------------|
A|---------------------------2--------------------------------------------------|
E|---------------------------3--------------------------------------------------|


  bridge
e|-----5---------------------------0---2----------------------------------------|
B|---------3------5---3----0---3-----------0---3---0-----------------3----------|
G|--0-------------------------------------------------2---0--------------2------|
D|-------------0----------------------------------------------2---4-------------|
A|------------------------------------------------------------------------------|
E|------------------------------------------------------------------------------|

e|---------------------------------------------------------------------------|
B|-------5----2~-----------------------------------------0--(2)--------------|
G|--4-----------------------------7~-----------9p---6----0--(2)--------------|
D|----------------9---7---5---4--------7---5-------------0--(2)--------------|
A|---------------------------------------------------------------------------|
E|---------------------------------------------------------------------------|
                                                               your'e still the one


     chorus
e|-----2--0----------------------------------------------------------------------|
B|-----------3--0--0-----3------------8h--7h-------------------------------------|
G|--2------------------------------7-------------7----------11p------------------|
D|--0-----------------------------------------9-----9/--11-------12--------------|
A|--------------------------2--0-------------------------------------------------|
E|--0-----------------3----------------------------------------------------------|


e|-----2--0--------------------------------------------------------2~--------------|
B|-----------3--0--0-----3------------8h--7h-----------------------3~--------------|
G|--2------------------------------7-------------7-----------------2~--------------|
D|--0-----------------------------------------9-----9/--11--6---0------------------|
A|--------------------------2--0---------------------------------------------------|
E|--0-----------------3------------------------------------------------------------|


will work on the intro and solo and update later on...





************************************

| /   slide up
| \   slide down
| h   hammer-on
| p   pull-off
| ~   vibrato
| +   harmonic
| x   Mute note
| b   Bend
| pb  Pre-bend
| br  Bend release
| pbr Pre-bend release
| brb Bend release bend

************************************