Tag: stone

Santa Monica Dream chords by Angus and Julia Stone

[Intro]

F - G - C

e|-------------------------------|----------------|------------------|
B|-------------------------------|---1-------1----|---1-------1------|
G|---0-------0--0--0--------0--0-|----------------|------------------|
D|------3-------------3----------|------2-------2-|------2-------2---| x4
A|-0---0------3--2--2--------2---|-3---3-------3--|-3---3-------3----|
E|-------------------------------|----------------|------------------|

F             G            C
Goodbye to my Santa Monica dream
F                   G                C
Fifteen kids in the backyard drinking wine
F             G            C
You tell me stories of the sea
F       G             C
And the ones you left behind
F              G             C
Goodbye to the roses on your street
F              G                 C
Goodbye to the paintings on your wall
F               G                   C
Goodbye to the children we'll never meet
F       G             C
And the ones we left behind
F       G             C
And the ones we left behind

[Chorus]
    C                 Am7
I'm somewhere, you're somewhere
    C                 Am7
I'm nowhere, you're nowhere
       C          G      C
You're somewhere, you're somewhere
        F        G     C
I could go there but I don't

[Verse]
F            G             C
Rob's in the kitchen making pizza
F            G             C
Somewhere down in Battery Park
F            G             C
I'm singing songs about the future
F            G             C
Wondering where you are
F            G             C
I could call you on the telephone
F            G             C
But do I really want to know?
F            G             C
You're making love now to the lady down the road
F            G             C
No I don't, I don't want to know


[Chorus]
    C                 Am7
I'm somewhere, you're somewhere
    C                 Am7
I'm nowhere, you're nowhere
       C          G      C
You're somewhere, you're somewhere
        F        G     C
I could go there but I don't

[Outro]
F            G             C
Goodbye to my Santa Monica dream
F            G             C
Fifteen kids in the backyard drinking wine
F            G             C
You will tell me stories of the sea
F            G             C
And the ones you left behind
F            G             C
And the ones we left behind

City Of Stars chords by Ryan Gosling & Emma Stone

[Verse 1]

Gm7           C7                        Dm7

City of stars, are you shining just for me?

Gm7          C7                            Fmaj7

City of stars, there’s so much that I can’t see.

     Gm7  C7                            F       Am/E      F7/Eb

Who knows?  I felt it from the first embrace I shared with you

     Gm7       A7                          Dm7   Dm7/C

That now our dreams, they’ve finally come true

[Verse 2]

Gm7           C7                         Dm7

City of stars, just one thing everybody wants.

Gm7              C7                                  Fmaj7           Am/E

There in the bars and through the smokescreen of the crowded restaurants

     Gm7   C7                             F        Am/E   F7/Eb

It’s love, yes, all we’re looking for is love from someone else

  Gm7                A7

A rush, a glance, a touch, a dance

[Bridge]

   Bb                 C                    A7

A look in somebody’s eyes to light up the skies

            Dm7

To open the world and send it reeling.

   Bb                       C                   Dm

A voice that says, I’ll be here and you’ll be alright.

Bb                  C                     A7 

I don’t care if I know just where I will go

                  Dm7

‘Cause all that I need is this crazy feeling.

  Bb                 A7

A rat-tat-tat on my heart

                   Dm7   Dm7/C  Dm7/A  Dm7/G

Think I want it to stay.

[Instrumental]

Abm7  Db7  Ebm7

Abm7  Db7  Gbmaj7

Abm7  Db7  Gbmaj7  Bb/F  Gb7/Fb

Abm7  Bb7

Cb    Db   Bb7   Ebm7

Cb    Db   Ebm7

Cb    Db   Bb7   Ebm7

Cb    Bb7        Ebm

Dm7

Gm7   C7   Fmaj7

Gm7   A7          Dm7  Dm7/C

[Outro]

Gm7          C7                        Fmaj7

City of stars, are you shining just for me?

Gm7          A7                         Dm7

City of stars, you never shined so brightly

Suggest correction

Medication chords – Queens of the Stone Age Vsion 1

 All the song is played in 5 Chords
In the intro the guitar make a quick -i didnt know how many-. I make a 
little pull-off from the 8th fret of the four string (A# or Bb)to the 6th fret 
from the same string (G# or Ab). Sound good in a few part of song, play with it and enjoy

[ A# G# A# G# ..]  A# A# 
Medication for us all, it is a new way
               F# Db G#  
& we're gonna take it cause we love it
 B A# 
Don't you know?

 A# 
Is this the dose you've been dreamin' of?
A revelation from a gun
Doesn't matter
     F# Db G# B A# 
Overtaken, mine was yours, now overthrown

 A# 
Just copulation in a song
I'mso contagious, can I c**?
In the new way
           F# Db G# B A# 
All of us cast asides became what has become

 A# 
Medication for us all
You think you know me, well you're wrong
Doesn't matter
           F# Db G# B A# 
All of us cast asides became what has become


*Also you can hear the version of Olivier Libaux (from "Uncovered Queens of the Stone Age")
and make it acoustic, its in the same tone.

Greetings from Argentina

Sadist chords – Stone Sour

 This is an acoustic version of Sadist by Stone Sour. There are some passages where you will need to listen to
the song in order to get the rhythm, but that shouldn't be too hard. Also this is my first tab, so some things
might not be correct.
The power chords used in the Verses can be substituted for minor chords, depending on your voice, and if you
want to sing it heavier or softer.

Chords used:

     D#m B5 A#5 F#5 Dsus2 Csus2 Bsus2 E5 F5 G#5 G#m A# 
E|--6------x------x------x------5--------3--------2-------x-----x-----x-------4-----1--|
B|--7------x------x------x------5--------3--------2-------x-----x-----x-------4-----3--|
G|--8------x------x------x------7--------5--------4-------10----11----13------4-----3--|
D|--8------9------8------4------7--------5--------4-------10----11----13------6-----3--|
A|--6------9------8------4------5--------3--------2-------8-----9-----11------6-----1--|
E|--x------7------6------2------x--------x--------x-------x-----x-----x-------4-----1--|



Intro Riff:

E|-----------------------------------|-----------------------------------|
B|-----------------------------------|-----------------------------------|
G|-----------------------------------|-----------------------------------|
D|-----------------------------------|---------------------4~~~~~~~------|
A|6~~~~~~~~~~~~~~2~~~~~4~~~~~~~2~~~~~|6~~~~~~~~~~~~~~2~~~~~--------2~~~~~|
E|-----------------------------------|-----------------------------------|


E|-----------------------------------|-----------------------------------|
B|-----------------------------------|-----------------------------------|
G|-----------------------------------|-----------------------------------|
D|-----------------------------------|-----------------------------------|
A|6~~~~~~~~~~~~~~2~~~~~4~~~~~~~2~~~~~|1~~~~~~~~~~~~~~~~------------------|
E|-----------------------------------|-----------------2~~~~~~~~~~~~~~~~~|



Verse:
           D#m B5 
Withering eyes catch you as you fall

          D#m 
A bitter sigh...

                B5 
No one knows at all

            D#m 
Let me in...

                      B5   
For one more long disgrace

         A#5 
Just forget...

                       F#5 
The same distractions you refuse to face



Pre-Chorus:
 D#m Dsus2 
We both know that it's gone

     Csus2  
But what if no one knows...

Bsus2                              D#5      D#5/E5/F5 - G#5
No one knows to remember why it's wrong?

 E5 D#5 E5 D#5           D#5/E5/F5 -  G#5 
This is all the pain a man can take

 E5 D#5 E5 D#m B    
This is how a broken heart still breaks



Chorus:
 B 
I don't need much to show you

 D#m 
Only enough to control you

 B 
Bury your head inside this

 D#m 
And gather the darkness that binds it

 G#m 
I think I'll die if you deny me

 D#m 
Swallowed alive in eternity

 G#m A# 
Give me a way to be the agony

 A# D#m 
That knew you all along



Verse:
 D#m B5 
Push it down and hide me from this waste

            D#m 
Don't hold back...

                  B5 
I'd kill to take your place

           D#5 
Tell me a lie...

                   B5 
Tell me you don't care

         A#5 
Just forget... A storm is coming

 F#5 
Just forget your skin



Pre-Chorus:
 D#m Dsus2 
We both know how this ends

     Csus2  
But what if no one knows...

Bsus2

Severus And Stone chords – Radical Face V4

 I didn't find the other tabs to be that accurate, here's what the song sounds to me
Surprisingly the tuning is standard, so if you, like Radical Face, are used to tune your guitar half
a step down, you'll have to put a capo on the 1st fret, if not you're ok to go.

TUNING: E A D G B E (Standard)

 G : 320033
 G *:320003


 G A D D/F# G A 
All the trees stood like skeletons
 D G D G A 
silhouettes of spilled ink
 D D/F# 
and the snow fell in sheets
 Dsus2 Bm 
and got wrapped around our feet
                        A 
we built the fire evermore
                             G 
with winter beating at the door

 D G A D D/F# G A 
Brother's eyes were getting heavier
 D G D G A 
his boney hands cold and white
 D D/F# 
and I could hear his ragged breathing
 Dsus2 Bm 
like the wind along a knife
                                A 
there beside  him through the night
                      G 
in the hum of candlelight 
                       D 
I no longer felt the time

 D D F#m     x2
Oooh...

 D Dmaj7 F#m 
Brother woke just after midnight
                              D 
and he didn't make a sound
                               Dmaj7 
and as he climbed from out of bed 
                                F#m 
with severed rings around his head
                            G 
his feet didn't touch the ground
                      A 
I could feel it then
             Bm 
a tiny miracle
                   D 
so I followed him
            G 
into the woods
                           A 
crossed beneath the trees
           Bm 
but only I
                       D 
left my prints in tow
             G 
he was afloat
                    A 
found a lonely tree
         Bm 
and tied 
                          D 
himself within its limbs
                           G 
and he said to me these words:
                       A 
don't you fear for me,
                            D 
I am where I'm supposed to be.

 D D6 D G 
and when I woke he was gone
                        G *             G Bm 
and I was wrapped in blankets on the lawn
 
the sky was blue and my skin matched the hue
              G 
and I could hear mother crying in your room
       A A7       
from here on out I wear this face for both of us

 D G A Bm D  x4

 D

Gonna Leave You chords – Queens Of The Stone Age V2

 Standard Tuning EADGBe


Intro:  B D B A# B D B  


Verse 1: 

 B D B A# B D B 
Wait by the phone late alone he can't help you but I know I could
 B D B A# B D B 
Free is too long you know this is wrong everything scars the skin push it in break it off


Chorus 1:

 B D G F#       
I'm gonna leave I'm gonna leave you
 B D G F#       
I'm gonna leave I'm gonna leave you


Verse 2: 

 B D B A# B D B 
I gave it starts I stomped on your hearts this the is the end no more pictures we aint friends
 B D B A# B D B 
It's raining in my room there's blood in my spoon youre out of my highchair Im out of your womb

Chorus 2:

 B D G F#       
I'm gonna leave I'm gonna leave you
 B D G F#       
I'm gonna leave I'm gonna leave you


Verse 3:

 B D B A# B D B 
Free is too long you know this is wrong everything scars the skin push it in break it off

Chorus 3:

 B D G F#       
I'm gonna leave I'm gonna leave you
 B D G F#       
I'm gonna leave I'm gonna leave you
 B D G F#       
I'm gonna leave I'm gonna leave you
 B D G F#       
I'm gonna leave   I don't need you


(end)

Mosquito Song chords – Queens Of The Stone Age V2

 Standard Tuning EADGBe 


Here is a way to play it in standard: 

Intro riff: 


   Fm G# C 

E|-------------------------------------------|
B|-------------------------------------------|
G|-----1~-0h1----------------5-----9--9-9-9--|
D|-----3~-----1h3------------6-----10-101010-|
A|---3~-----------1h3------6-------10-101010-|
E|-1~-----------------1--4------4--8--8-8-8--|



Verse 1: 

 Fm G# C 
I know I know the sun is hot
 Fm G# C 
Mosquitoes come and suck your blood
 Fm G# C 
Leave you there all alone
 Fm G# C 
Just skin and bone
 Fm G# C 
When you walk among the trees
 Fm G# C 
Listening to the leaves
 Fm G# C 
The further I go the less I know
 Fm G# C 
The less I know


Chorus 1:

 Bbm Fm C Fm 
Where will you run? where will you hide?
 Bbm Fm C         
Lullabies to paralyze


Verse 2:

 Fm G# C 
Fat and soft pink and weak
 Fm G# C 
Foot and thigh tongue and cheek
 Fm G# C 
You know I'm told they swallow you whole
 Fm G# C 
Skin and bone
 Fm G# C 
Cutting boards and hanging hooks
 Fm G# C 
Bloody knives cooking books
 Fm G# C      
Promising you won't feel a thing
 Fm G# C 
At all


Chorus 2:

 Bbm Fm C Fm 
Swallow and chew Eat you alive
 Bbm Fm C          
All of us food that hasn't died


Verse 3:

 Fm G# C 
Somehow they pick and pluck
 Fm G# C 
Tenderize bone to dust
 Fm G# C 
The sweetest grease, finest meat 
 Fm G# C 
you'll ever taste
 Fm G# C 
So you scream whine and yell
 Fm G# C 
Supple sounds of dinner bells
 Fm G# C       
We all will feed the worms and trees 
 Fm G# C 
So don't be shy


Chorus 3:

 Bbm Fm C Fm 
Swallow and chew Eat you alive
 Bbm Fm C Fm  
All of us food that hasn't died



(play riff through outro)

Peckinpah Tabs – Stone Sour

 -------------------------------------------------------------------------------
                             PECKINPAH - Stone Sour
-------------------------------------------------------------------------------

Song Name: Peckinpah
Artist Name: Stone Sour
Album Name: House of Gold and Bones Part 2

: chairman_tom
 tomholloway00

Tuning: D Standard (DGCFAD)

I'm tabbing out Jim Root's part in the song just so you know...
Also this is my first tab so feedback is appreciated!

Intro:
d|---------------------------------------------------------------------------|
A|---------------------------------------------------------------------------|
F|------------6~------------7~------------6~---------------------------------|
C|---------5-------------5-------------5-------10~---9~---5~-----------------|
G|------7-------------7-------------7-----------8~---7~---3~-----------------|
D|---0-------------0-------------0-------------------------------------------|

d|---------------------------------------------------------------------------|
A|---------------------------------------------------------------------------|
F|------------6~------------7~------------6~---------------------------------|
C|---------5-------------5-------------5-------------------10~---9~---5~-----|
G|------7-------------7-------------7-------------3--7------8~---7~---3~-----|
D|---0-------------0-------------0-------------/5----------------------------|

Verse: (Play this throughout the verse)
d|---------------------------------------------------------------------------|
A|---------------------------------------------------------------------------|
F|------------6~------------7~------------6~---------------------------------|
C|---------5-------------5-------------5--------7~---5~---3~-----------------|
G|------7-------------7-------------7-----------8~---7~---5~-----------------|
D|---0-------------0-------------0-------------------------------------------|

Pre Chorus: (Prepare to crucify...)
d|---------------------------------------------------------------------------|
A|---------------------------------------------------------------------------|
F|---------------------------------------------------------------------------|
C|--------------10-----9-----5~----------------------------------------------|
G|-------3--7----8-----7-----3~--------5------7----7h8-----------------------|
D|---/5------------0-0---0-0------0000---0000---00---------------------------|
P.M.               ...   ...      ....   ....   ..

d|---------------------------------------------------------------------------|
A|---------------------------------------------------------------------------|
F|---------------------------------------------------------------------------|
C|---------------------------------------------------------------------------|
G|--------7----10p8p7----8p7-------------------------------------------------|
D|---0000---00--------10-----10p8--------------------------------------------|
P.M  ....   ..

d|---------------------------------------------------------------------------|
A|---------------------------------------------------------------------------|
F|-----------------------------------------7---------------------------------|
C|------------------------------------7----x---------------------------------|
G|--------5------7----7h8------7------8----5---------------------------------|
D|---0000---0000---00-----0000---0000---00-----------------------------------|
P.M. ....   ....   ..     ....   ....   ..

d|---------------------------------------------------------------------------|
A|---------------------------------------------------------------------------|
F|---------------------------------------------------------------------------|
C|---------------------------------------------------------------------------|
G|----------5------7----7h8------7----10p8p7----8p7--------------------------|
D|-----0000---0000---00-----0000---00--------10-

Stone Walls chords – We The Kings

 We The Kings- Stone Walls off of their acoustic album Stripped

Capo 1


     D A 
The stars fade, the earth shakes
     Em Bm A 
The poison's on your tongue
     D A 
The lost plans, the last dance
    Em Bm A 
oh God what have you done


 G A 
I can see the fever spreading, I can feel the faith is gone
 G 
Even though it's all you've wanted


 D A Em Bm A 
Stone walls will fall, young hearts will break
     A G A G D A Bm 
for so long we're so strong, we shine until we fade
     G 
but don't stop burning


    D A 
On gold streets, the dust sleeps
     Em Bm A 
for you the flames still dance
     D A 
The skies changed, a new day
     Em Bm A 
are these the same two hands


 G A 
I can see the fever breaking, I can feel the faith come home
 G 
Everything you've ever wanted


 D A Em Bm A 
Stone walls will fall, young hearts will break
     A G A G D A Bm  
for so long we're so strong, we shine until we fade


        D A Em Bm A 
We are all we are, we are all we are
        D A Em Bm A 
We are all we are, we are, who we are


    Em Bm A 
We are, who we are


 D A 
Stone walls will fall (stone walls will fall)
 Em Bm A 
Young hearts will break (Young hearts will fall)
 A G A G 
So long, we're so strong
 D A Bm G 
we shine until we fade (but don't stop burning)


        D A 
we are all we are (don't stop burning)
        Em Bm A 
we are all we are (don't stop burning)
        D A 
we are all we are (don't stop burning)
    Em Bm A 
we are, who we are
(x2)

 Bm G 
Don't stop burning


So yeah. This is my version. This is my very first tab! Hope you all like it. WTK is awesome!!!

Circle chords – Allen Stone V2

 Intro:  x2
 C#m7 B G#m A  

Verse:
 C#m7 B G#m A 
Time - what's with all this time
 C#m7 B G#m A 
The world rotates as I fall behind
 F#m B C#m7 G#m 
Change - what's with all this change
 F#m B 
Years go by but I stay the same

Fear - what's with all this fear
I push back but it always stays here
Pace - how can I keep this pace
The damage done is now taken shape

Chorus:
 A Am7 C#m7 G#m 
Cause out of this circle there are no corners to hide
 A Am7 C#m7 G#m 
Every line I follow lead me back inside
 A Am7 C#m7 G#m 
Gravity pulls me from the center every time
 A Am7 C#m7 G#m A 
And gravity pulls me from my center every time

Verse:
 C#m7 B G#m A 
Home - where did I loose my  hope
 C#m7 B G#m A 
Life moves quick when your quick to ...
 F#m B C#m7 G#m 
Faith - where can a man find faith
 F#m B 
The damage done is now taken shape

Chorus: x2
 A Am7 C#m7 G#m 
Cause out of this circle there are no corners to hide
 A Am7 C#m7 G#m 
Every line I follow lead me back inside
 A Am7 C#m7 G#m 
Gravity pulls me from the center every time
 A Am7 C#m7 G#m A 
And gravity pulls me from my center every time

Outro:  x2
 C#m7 B G#m A  



My first attempt at a tab. Let me know if there are any issues :)

Sally Cinammon intro Tabs – Stone Roses

 Intro Tab For Sally Cinammon
Feedback:cole1joe1@gmail.com

|-----------------------|
|----3-1-0-1-0-1-0-2----|
|--0--------------------|
|-----------------------|
|-----------------------|
|-----------------------|
X2

Then 'D'

|-----------------------|
|-1-0-1-0---------------|
|-----------------------|
|-----------------------|
|-----------------------|
|-----------------------|

'C' 'C' 'D'

The Bed I Made chords – Allen Stone

 This Bed I Made
by Allen Stone

As far as I know, this song was never recorded on any of his albums. Here's the link 
though to his performance on "In The Backyard" with Taylor Guitars:



Tuning: D Tuning (DGCFAd)

Chords Used
************************************************
    E  - 0221xx     C#m7  - x424xx       F#m  - x442xx-|
 F#m7  - 2x22xx     C#m6  - x243xx       G#m  - x664xx-|
 G#m7  - 4x44xx       B7  - x212xx     A (v2) - x776xx-|
  G#7  - 4x45xx        A  - x022xx         B  - x244xx-|
************************************************

Intro x2
 E F#m7 G#m7 G#7                  (Whenever there is  A F#m7 - G#m7 , the symbol
 C#m7 C#m6 F#m7 - G#m7 F#m7 E        "-" represents  A  ghost note)


Verse 1
          E F#m7 
I took a plane over the stars,
           G#m7 G#7 
It didn't get me very far,
        C#m7 C#m6 F#m7 - G#m7 F#m7 E 
'Cause all my problems, they fol  -   low   me,
 E F#m7 G#m7 G#7 
I flew to the moon, but it wasn't far enough a-way from you,
        C#m7 C#m6 F#m7 - G#m7 F#m7 B7 
'Cause all our problems, they fol  -   low   me, yeah, hey, yeah,


Chorus
     A G#m7 C#m7 C#m6 
And every night, I close my eyes,
     A G#m7 C#m7 
And all my troubles fade,
     A G#m7 C#m7 C#m6 
But every morning when I rise,
           F#m7 B7 
I'm still sleeping in this bed I made


 E F#m7 G#m7 G#7 C#m7 C#m6 F#m7 - G#m7 F#m7 E 


Verse 2
             E F#m7 
One million times inside of my mind,
 G#m7 G#7 
I have justified,
     C#m7 C#m6 F#m7 - G#m7 F#m7 E 
But all my problems still fol   -   low   me,
     E F#m7 G#m7 G#m6 
And I discovered a way to cleverly avoid the blame,
     C#m7 C#m6 F#m7 - G#m7 F#m7 B7 
But all my problems still fol   -   low   me,


Chorus
     A G#m7 C#m7 C#m6 
And every night, I close my eyes,
     A G#m7 C#m7 
And all my troubles fade,
     A G#m7 C#m7 C#m6 
But every morning when I rise,
           F#m7 B7 
I'm still sleeping in this bed I made


Bridge
 F#m B7 
    Ohhh, I can't outrun the pain, oh,
 F#m B7 
      Should have faced these demons as they came, yeah,
 F#m G#m 
      And what I wouldn't trade,
    A (v2)                   B7 
To make some room in this bed I made,


Chorus
     A G#m7 C#m7 C#m6 
And every night, I close my eyes,
     A G#m7 C#m7 
And all my troubles fade,
     A G#m7 C#m7 C#m6 

Heart Like Stone chords – Greyson Chance

 Greyson Chance
Heart Like Stone
Hold On Til The Night
2011
Submitted by: jeremyunderground41


There is THE KILLERS vibe in this song 
especially the Chorus haha


Key:  C 

Tuning: Standard EADGBe

Chords used:
 Am  - x02210
 F  -  133211
 C  -  x32010
 G  -  320003
 Dm  - xx0231


Intro: Piano
Am--F-G- x2


Verse 1:
 Am 
Late at night I start
           F 
to think about the
          G Am F G 
things I did it wrong
 Am 
Late at night I start to
        F 
think about the things
   G Am 
I could've done
    F G Dm 
To save us from him
    G Dm 
To save us from her
    G Am F G 
To save us from the world


Verse 2:
 Am 
Late at night my tears
          F 
start to melt my
 G Am F G 
heart into gold
 Am 
Late at night the silver
        F G 
lining turns my heart into
  Am F G Dm 
stone To save us from him
    G Dm 
To save us from her
    F G 
To save us from


Chorus 1:
 Dm F 
Suddenly my heart
starts to feel yeah
    Am 
My heart starts to feel 
    C 
My heart starts to feel 
       Dm 
Like stone All around
    F G 
is silver and gold
    Am 
My heart never heals
    G 
My heart only feels
       Dm F G Am F G 
like stone (Oh like stone)


Verse 3:
 Am 
Late at night when I'm at
         F G 
parties my gloom fills the
 Am F G Am 
room    Late at night when
                  F 
I'm dancing with other
            G Am 
girls I pretend it's you
    F G Dm 
To save me from hurt
    G Dm 
To save me from hurt
    F G 
To save me from


Chorus 2:
 Dm F 
Suddenly my heart
starts to feel yeah
    Am 
My heart starts to feel 
    C 
My heart starts to feel 
       Dm 
Like stone All around
    F G 
is silver and gold
    Am 
My heart never heals
    G 
My heart only feels
             Dm 
feels like stone 
             F 
Suddenly my heart
starts to feel yeah
    Am 
My heart starts to feel 
    C 
My heart starts to feel 
       Dm 
Like stone All around
    F G 
is silver and gold
    Am 
My heart never heals
    G 
My heart only feels
             Dm F G 
feels like stone
       Am F G 
like stone


Bridge:
   Dm 
I tried my hardest
   Am 
I tried my best
         C 
But you just don't
      G 
seem satisfied
             Dm 
And now I'm here
       Am 
alone tonight
        C 
When I think
          G 
of you I cry


(Repeat Chorus 2)


Outro:
 Am 
Late at night when
I'm all alone
 F G (hold)
  I think of you

If I Had A Tail Tabs by Queens Of The Stone Age V4

 -------------------------------------------------------------------------------
                    Queens of the Stone Age – If I Had a Tail
-------------------------------------------------------------------------------
: Blordoh
 lordjrs95@hotmail.com


(INTRO)

e-------------------------------11------------|
B------14---------14---------14----14----14---|
G---------------------------------------------|  the 2nd guitar joins after 3 repeats
D---11----11---11---------11----------11------|
A---------------------------------------------|
E---------------------------------------------|



Then enters Josh :

e|---------------------------------------------------------------------------|
B|---------------------------------------------------------------------------|
G|-----4---4------4---4------4---4-------------------------------------------|
D|-----6---6------6---6------6---6-------2-4-2-(4)/6-------------------------|
A|----------------------------------------------------4----------------------|
E|---------------------------------------------------------------------------|



Verse: Troy stops playing, Josh continues with the intro riff.

Every now and then there are some variations and different licks 

e|---------------------------------------------------------------------------|
B|--------------------------------------5b6----------------------------------|
G|-------------------------4--4---4--6----------4--4-------------------------|
D|----2--4--2--(4)/6-------6--6-----------------6--6--4--2~------------------|
A|--------------------4------------------------------------------------------|
E|---------------------------------------------------------------------------|

or 

e|---------------------------------------------------------------------------|
B|---------------------------------------------------------------------------|
G|--------------------4--4------4-------------4--4---------------------------|
D|----2--4--2--6------6--6---------6--2--4----6--6---------------------------|
A|----------------4----------------------------------------------------------|
E|---------------------------------------------------------------------------|


Chorus (x2):


e|---------------------------------------------------------------------------|
B|---------------------------------------------------------------------------|
G|---------------------------------------------------------------------------|
D|-------------------------------------------2~------------------------------|
A|------------2~---2/4--1~--1/2--------------2~------------------------------|
E|---0--2--4-------------------0~------------0~------------------------------|

  If I had a tail, I'd own  the night
  If I had a tail, I'd swat the flies

Post-chorus x2 (don't know how to name this part) :

e|---------------------------------------------------------------------------|
B|---------------------------------------------------------------------------|
G|---------------------------------------------------------------------------|
D|--------------------------------------------2~-----------------------------|
A|-----------4~--4/6--2~--2/4--1~--1/2--------2~-----------------------------|
E|--0--2--4-----------------------------0~----0~-----------------------------|



(SOLO)

e---------------------------------------------------------9---|
B---9-------------9-12b-9------------------------9b-9b-9b-----|
G-----9------9h11---------11p9---13p11h13-11-9----------------|
D-------11-9-------------------11--------------11-------------|
A-------------------------------------------------------------|
E-------------------------------------------------------------|


e--------------------------------------------------------------------|
B------------------------9-9-9-9h11----12b-12b-9--------------9-9~---|
G---9-13p11-9-------9h11-------------------------13-11-9---11--------|
D-----

Regular John Tabs by Queens Of The Stone Age V6

 Regular John is in full C tuning

INTRO:
Guitar I
C |-----------------------------------------|
G |-----------------------------------------|
Eb|-----------------------------------------|   downstrokes only!
Bb|-9-9-9-9-9-9-9-9-9-9-9-9-9-9-9-9-9-9-9-9-|
F |-7-7-7-7-7-7-7-7-7-7-7-7-7-7-7-7-7-7-7-7-|
C |-----------------------------------------|

Guitar II
C |------------------------------14~--------|   QOTSA actually uses a
G |-15~----------------14~------------------|   volume pedals but you can
Eb|----------12~----------------------------|   just as easily pick and
Bb|-----------------------------------------|   turn the volume knob up
F |-----------------------------------------|
C |-----------------------------------------|

Then
Guitar I and II
C |-----------------------------------------|
G |-----------------------------------------|
Eb|-----------------------------------------|   again, downstrokes only!
Bb|-9-9-9-9-9-9-9-9-9-9-9-9-9-9-9-9-9-9-9-9-|
F |-7-7-7-7-7-7-7-7-7-7-7-7-7-7-7-7-7-7-7-7-|
C |-----------------------------------------|

Guitar I and II
C |-----------------------------------------|
G |-----------------------------------------|
Eb|-----------------------------------------|  
Bb|-----------------------------------------|
F |-19191919-222222-----19191919-212121-----|
C |-0-0-0-0--0-0-0------0-0-0-0--0-0-0------|
=============================================================================
VERSE
Guitar I and II
C |-----------------------------------------|
G |-----------------------------------------|
Eb|-----------------------------------------|   again, downstrokes only!
Bb|-9-9-9-9-9-9-9-9-9-9-9-9-9-9-9-9-9-9-9-9-|
F |-7-7-7-7-7-7-7-7-7-7-7-7-7-7-7-7-7-7-7-7-|
C |-----------------------------------------|

Guitar I and II
C |-----------------------------------------|
G |-----------------------------------------|
Eb|-----------------------------------------|   
Bb|------------1010-------------------------|
F |-7-7--9-9---8-8---1010--1212121212121212-|
C |-5-5--7-7---------8-8---1010101010101010-|
=============================================================================
CHORUS
Guitar I and II
C |-----------------------------------------|
G |-----------------------------------------|
Eb|-----------------------------------------|   
Bb|-12121212121212--------------------------|
F |-10101010101010---12--14--1414141414-----|
C |------------------10--12--1212121212-----|

CHORUS SOLO 
Guitar II 
C |-----------------------------------------|
G |-----------------------------------------| while  guitar I plays the
Eb|-----------------------------------------| chorus  
Bb|------------------12-14p12--12-14--12-14-|
F |-------10-12-12/14--------14-------------|
C |-10-12-----------------------------------|

C |-----------------------------------------|
G |-----------------------------------------|
Eb|-----------------------------------------|   
Bb|-14b16r-14b16r-14b16r-14b16r-14b16r-12---|
F |--------------------------------------14-|
C |-----------------------------------------|

CHORUS END
C |-----------------------------------------|
G |-----------------------------------------|
Eb|-----------------------------------------|   
Bb|-12\--9~---------------------------------|
F |-10\--7~---------------------------------|
C |-----------------------------------------|

2ND CHORUS SOLO
Guitar II
C |-12-----12-----12-----12-----12----------|  again while guitar I
G |-15b17r-15b17r-15b17r-15b17r-15b17r------|  plays the chorus
Eb|------------------------------------12---|   
Bb|--------------------------------------14-|   twice
F |-----------------------------------------|
C |-----------------------------------------|

LONG CHORUS END
C |-----------------------------------------|
G |-----------------------------------------|
Eb|-----------------------------------------|   
Bb|-12\--9~---------------------------

Bother Acoustic chords – Stone Sour V3

 Hey guys, this is one of my favourite Stone Sour tunes to play and because I can't 
be arsed to keep baring the chords, I've written it for CAPO 6

Capo 6, all chords capo relative.


Chords;
 Am7     x-0-2-0-1-0
 Gadd9   x-0-0-0-0-x
 G5      3-5-5-x-x-x
 C5      x-3-5-5-x-x
 E7      0-2-0-1-0-0
 F *     1-3-3-2-x-x
 G *     3-5-5-4-x-x
 E       0-2-2-1-0-0
 F       1-3-3-2-1-1
 G       3-5-5-4-3-3


Intro riff:
 Am7 Gadd9   |   Am7 Gadd9 Am7 Gadd9   |   Am7 Gadd9 Am7 Gadd9 Am7 Gadd9 
Wish I was too dead to cry
    G5 Am7 Gadd9 
My self-affliction fades
 Am7 Gadd9 Am7 Gadd9 
Stones to throw at my creator
 G5 C5 G5 
Masochists to which I cater


 Am7 Gadd9 
You don't need to bother;
 Am7 E7 
I don't need to be
 Am7 Gadd9 
I'll keep slipping farther
     F *
But once I hold on,
   G *                      Am7 Gadd9 
I won't let go 'til it bleeds

 Am7 Gadd9 Am7 Gadd9 Am7 Gadd9 
Wish I was too dead to care
      G5 Am7 Gadd9 
If indeed I cared at all
 Am7 Gadd9 Am7 Gadd9   
Never had a voice to protest
 G5 C5 G5 
So you fed me shit to digest

 Am7 
I wish I had a reason;
 E7 
my flaws are open season
 F 
For this, I gave up trying
 G 
One good turn deserves my dying

 Am7 Gadd9 
You don't need to bother;
 Am7 E7 
I don't need to be
 Am7 Gadd9 
I'll keep slipping farther
     F *
But once I hold on,
   G *                      Am7 Gadd9 
I won't let go 'til it bleeds

[Solo: Corey]

 Am7 Gadd9 Am7 Gadd9 
Wish I'd died instead of lived
   G5 Am7 Gadd9 
A zombie hides my face
 Am7 Gadd9 
Shell forgotten
 Am7 Gadd9 
With its memories
 G5 
Diaries left
      C5 G5 
With cryptic entries

     Am7 Gadd9 
And you don't need to bother;
 Am7 E7 
I don't need to be
 Am7 Gadd9 
I'll keep slipping farther
 F *
But once I hold on,
   G *                     
I won't let go 'til it bleeds


 Am7 Gadd9 
You don't need to bother;
 Am7 E7 
I don't need to be
 Am7 Gadd9 
I'll keep slipping farther
 F *
But once I hold on,
      G *                      Am7 
I'll never live down my deceit



So yeah, that's how I play it at least. Hope it sounds to you as right as it sounds to me.

Wonderful Soup Stone chords – Dr Hook

 F C  
I swear you could taste the chicken and tomatoes

          F C 
And the noodles and the marrowbone

         F C 
But it really wasn't nothin’ but some water and potatoes

          G C C F C F 
And the wonderful, wonderful soupstone.

- - -

  C F C         
Hanging from a string in my mama's kitchen, 

 C G D 
Back in the hard time days

 C F C 
Was a little ol' stone 'bout the size of an apple,

        D G 
It was smooth and worn and grey

      C F C  
There wasn't much food in my mama's kitchen, 

              G C 
So whenever things got tight

        F C 
Mama’d boil up some water, put in the stone and say 

  D G 
"Let's have some soup tonight"

- - -
         F C  
And I swear you could taste the chicken and tomatoes

          F C 
And the noodles and the marrowbone

        F C 
But it really wasn't nothin’ but some water and potatoes

          G C C F C F 
And the wonderful, wonderful soupstone.  

- - -
    C F C 
It had been in the family for a whole lotta years, 

        C G C 
So we knew it was a nurturing thing

                              F C 
And I remember mama, as she stirred it in the water, 

     D G 
And we could all hear her say

          C F C 
"It’s a magical stone and as long as we got it, 

                     G C 
We'll never have a hungry night

       F C 
Just add a little love to the wonderful soupstone 

      D G 
And everything will be alright"

- - -
         F C  
And I swear you could taste the chicken and tomatoes

          F C 
And the noodles and the marrowbone

        F C 
But it really wasn't nothin’ but some water and potatoes

          G C C F C F 
And the wonderful, wonderful soupstone.  

- - -
       C F C 
So it carried us all through the darkening days

                    G C 
‘til finally the sunshine came

                                     F C 
And the soupstone started in to gathering dust

         D G 
But if hung there just the same

      C F C 
And ever since then, the food’s been plenty

                    G C 
But every now and then I find

        F C 
That mama, in the kitchen with the wonderful soupstone
   D G 
Drifts across my mind

- - -
              F C 
And again, I can taste the chicken and tomatoes
          F C 
And the noodles and the marrowbone
        F C 
But it really wasn't nothin’ but some water and potatoes
          G C C F C F 
And the wonderful, wonderful soupstone.  

3s And 7s solo Tabs by Queens Of The Stone Age

 QOTSA - 3's and 7's Solos

Tuning: C standard

I made this when I was learning it for myself and figured I would share in case 
anyone wants it. The other tabs have the rest of the song tabbed out pretty good.

solo 1:
e|------------------------------------------------13----------------------------------------------|
B|---------------------------------------------10-------------------------13--------/14--14\------|
G|-------------------------5------6-6~\--------12b14r12-10~--10-12p10--------10-------------------|
D|----5b--3------5p3-3-------3----------------------------------------12--------12~-/14--14\------|
A|-----------5------5---/5-----/7-----------------------------------------------------------------|
E|------------------------------------------------------------------------------------------------|


End Solo:
e|---10----10-13p10----10-13p10----10h13p10----10--/17-----------------|
B|---13b15----------15----------15----------13---------17-17~-17b18r17-|
G|---------------------------------------------------------------------|
D|---------------------------------------------------------------------|
A|---------------------------------------------------------------------|
E|---------------------------------------------------------------------|

-------------------------------------------------------|
-15h17p15----15------------------------------14-14\----|
----------17----17b19----14-17----14-17----------------|
-------------------------------17--------/14(14)-------|
-------------------------------------------------------|
-------------------------------------------------------|


*This is the Billy Gibbons move where you bend at the 12 and, while holding it, 
reach over and tap 17 with your finger on your pick hand.
e|------------------------------------------------------------------------------------|
B|--10--8-11--11-10--6--8--14~--------------------------------------------------------|
G|---------------------------------10--12b14-t17r-14r12---10-12p10----10--------------|
D|--10--8-12--12-10--7--8--14~-------------------------------------12----12-----------|
A|--------------------------------------------------------------------------10--12~\--|
E|------------------------------------------------------------------------------------|

e|----------------------------------------------------------|
B|----------------------------------------------------------|
G|----------------------------------------------------------|
D|-----------------------------------------------------11~--|
A|----10br10p8-----10br10p8-----10br10p8-----8--------------|
E|-------------10-----------10-----------10----8-/-10-------|

--------------------------------------------------------|
--------------------------------------------------------|
-------------------------------------------------/9~----|
--------------10----------------------------------------|
------8h10/12----12/10 8b-----------8h10-8-10-8---------|
-8h10---------------------10---8h10---------------------|


e|----------------------------------------------------|
B|----------------------------------------------------|
G|--9h10p9/7-9-7--/14-10~---12p10-10p9-10p9-7--/12-9~-|
D|----------------------------------------------------|
A|----------------------------------------------------|
E|----------------------------------------------------|

---------------------------------------------------|
------------------------------------------/14------|
--9h10p9/7-9-7--/14-10~--12p10-10p9-10p9--/14------|
---------------------------------------------------|
---------------------------------------------------|
---------------------------------------------------|




************************************

| /   slide up
| \   slide down
| h   hammer-on
| p   pull-off
| ~   vibrato
| +   harmonic
| x   Mute note
| b   Bend
| pb  Pre-bend
| br  Bend release
| pbr Pre-bend release
| brb Bend release bend

*

Great Stone Tabs by Sublime

 I couldn't find the tabs to this song anywhere so I decided to tab it out myself.
This is probably one of the best sublime songs out there. I watched Bradley
play this in a live video and tabbed it out so it sounds extremely accurate to me.


Intro: (half palm muted)

This is also pretty much the bass line throughout the whole song

E---------------------|
B---------------------|
G---------------------|
D---------------------|
A---------------------|
e-5555-000-3h5-5-00-3-|




Rhythm throughout the whole song:

Brad pretty much just rocks an A bar chord the whole time but on every 8th time
he hits the G bar chord just once. This is all down strokes Reggae Stylee


     A  A  A  A  A  A  A  G
E----5--5--5--5--5--5--5--3-----------|
B----5--5--5--5--5--5--5--3-----------|
G----6--6--6--6--6--6--6--4-----------|
D----7--7--7--7--7--7--7--5-----------|
A----7--7--7--7--7--7--7--5-----------|
e----5--5--5--5--5--5--5--3-----------|