Tag: street

In The Street chords by Big Star

[Verse]
G       C G             C G
Hanging out, down the street
             C G               C G
The same old thing we did last week
      C     G  Am7     C    G  Am7   G  C  G  C
Not a thing to do, but talk to you

[Chorus]
G       C G             C G
Steal your car, and bring it down
             C G               C G
Pick me up, we'll drive around
      C     G  Am7     C    G  Am7   G  C  G  C
Wish we had a joint so bad

[Instrumental]
G  C  G  C  A   

[Verse]
E                                       B  C# D
Bust a street light, out past midnight
G       C G             C G
Hanging out, down the street
             C G               C G
The same old thing we did last week
      C     G  Am7     C    G  Am7   G  C  G  C
Not a thing to do, but talk to you

Passiona Piano Chords by The Smith Street Band

[Intro]
C Am F x2

[Verse 1]
    C                                   Am     F   C                         Am      F         [stop]
The people in the apartments across the street,    literally and metaphorically look down on me
C
Tangled in tenderness
    Am           F
Why do I have to live like this?
      C
I was tempted by your company
    Am             F
And you've already noticed me
    C                           Am                  F
I'm sorry for what I say when I don't know what I'm saying
    C                                   Am              F
And you don't have to play this cat and mouse game I am playing
           C                      Am              F
I'm just a pretty sad person in a quite surreal place
            C                             Am                      F
And I don't look up from my phone because I know I won't see your face
           C      Am         F                 C [stop]
And it's pathetic, it's also not a competition

[Chorus]
        C          F          Am                      G
And I'm absolutely infinitely more scared of you than you are of me
         C               F                 Am   [stop]
And I've always been the one who cares too much

[Verse 2]
      C                    F          F
And I hope you're happy, I hope you've slept
             Am                         G
I'll try not write another record about the pain in my chest
            C                   F                   Am   [stop]
I'm just so glad I could be someone that you wanted
            C                                 Am            F
And I don't recognise these stars, I'm unfamiliar with this skyline
      C                                   Am               F
I was born and bred in bars, now nothing man-made is in my eyeline
         C                                Am              F
Turn and walk back to the house that they saved after the war
         C
And I am questioned once again
               Am              F
Get asked what I would do that for
        C
And our host tells me I'm sick
         Am            F
Tentatively hands me a spliff
           C
And I know he's forgotten my name
      Am                F
But I don't remember his

[Chorus]
        C          F          Am                      G
And I'm absolutely infinitely more scared of you than you are of me
         C               F                 Am   [stop]
And I've always been the one who cares too much

[Hook]
       F              C            Am
And oh god if only it was that easy to run
                  G                            F
From what I've achieved, I've let it define me
                  C                 Am
I'm having panic attacks on German TV
                 G                        F
This is not work ethic, it's survival technique
                           C
And there's nothing I can really do
   Am                            G                               F
So I sit in the band room, start fights to get attention from you
                           C                         Am
There is nothing I am qualified or smart enough to do
                               G                               F G F
Sit in the band room and start fights to get attention from you

[Verse 3]
       C                              Am             F
I walk off into the corn field, every cut's a new relief
             C                         Am              F
I might stop talking altogether if you stop talking to me
           C
And if I'm really supposed to be here
               Am              F
Why has no one come to that conclusion
           C
I'm out of place amongst the band boys
        Am          F
I can't suspend disillusion
    C                                 Am                  F
And music industry professionals yeah they can all go and fuck themselves
    C                      Am                    F                    C
And it's just me and Chris,   but he's stoned as shit and passing out
                        Am               F    C 
That was okay once, for some reason it's sad now
    Am               F   C        Am               F    C
For some reason it's sad now, for some reason it's sad

Passiona Chords by The Smith Street Band

[Intro]
C Am F x2

[Verse 1]
    C                                   Am     F   C                         Am      F         [stop]
The people in the apartments across the street,    literally and metaphorically look down on me
C
Tangled in tenderness
    Am           F
Why do I have to live like this?
      C
I was tempted by your company
    Am             F
And you've already noticed me
    C                           Am                  F
I'm sorry for what I say when I don't know what I'm saying
    C                                   Am              F
And you don't have to play this cat and mouse game I am playing
           C                      Am              F
I'm just a pretty sad person in a quite surreal place
            C                             Am                      F
And I don't look up from my phone because I know I won't see your face
           C      Am         F                 C [stop]
And it's pathetic, it's also not a competition

[Chorus]
        C          F          Am                      G
And I'm absolutely infinitely more scared of you than you are of me
         C               F                 Am   [stop]
And I've always been the one who cares too much

[Verse 2]
      C                    F          F
And I hope you're happy, I hope you've slept
             Am                         G
I'll try not write another record about the pain in my chest
            C                   F                   Am   [stop]
I'm just so glad I could be someone that you wanted
            C                                 Am            F
And I don't recognise these stars, I'm unfamiliar with this skyline
      C                                   Am               F
I was born and bred in bars, now nothing man-made is in my eyeline
         C                                Am              F
Turn and walk back to the house that they saved after the war
         C
And I am questioned once again
               Am              F
Get asked what I would do that for
        C
And our host tells me I'm sick
         Am            F
Tentatively hands me a spliff
           C
And I know he's forgotten my name
      Am                F
But I don't remember his

[Chorus]
        C          F          Am                      G
And I'm absolutely infinitely more scared of you than you are of me
         C               F                 Am   [stop]
And I've always been the one who cares too much

[Hook]
       F              C            Am
And oh god if only it was that easy to run
                  G                            F
From what I've achieved, I've let it define me
                  C                 Am
I'm having panic attacks on German TV
                 G                        F
This is not work ethic, it's survival technique
                           C
And there's nothing I can really do
   Am                            G                               F
So I sit in the band room, start fights to get attention from you
                           C                         Am
There is nothing I am qualified or smart enough to do
                               G                               F G F
Sit in the band room and start fights to get attention from you

[Verse 3]
       C                              Am             F
I walk off into the corn field, every cut's a new relief
             C                         Am              F
I might stop talking altogether if you stop talking to me
           C
And if I'm really supposed to be here
               Am              F
Why has no one come to that conclusion
           C
I'm out of place amongst the band boys
        Am          F
I can't suspend disillusion
    C                                 Am                  F
And music industry professionals yeah they can all go and fuck themselves
    C                      Am                    F                    C
And it's just me and Chris,   but he's stoned as shit and passing out
                        Am               F    C 
That was okay once, for some reason it's sad now
    Am               F   C        Am               F    C
For some reason it's sad now, for some reason it's sad

Ifwhiteamericatoldthetruthforonedayitsworldwouldfallapart Tabs – Manic Street Preachers Vsion 2

 Enjoy!


E|---------------------------------|---------------------------------|---------------------------------|
B|---------------------------------|---------------------------------|---------------------------------|
G|---------------------------------|---------------------------------|---------------------------------|
D|-----------------2---4-----------|---------2---4-------------------|-2---4-------------------2---4---|
A|---------2---4-------------------|-2---4-------------------2---4---|-----------------2---4-----------|
E|-2---4-------------------2---4---|-----------------2---4-----------|---------2---4-------------------|


E|---------------------------------|---------------------------------|---------------------------------|
B|---------------------------------|---------------------------------|---------------------------------|
G|-----------------0---------------|-----------------0---------------|-----------------0---------------|
D|-------------6-------6-------6---|-------------6-------6-------6---|-------------6-------6-------6---|
A|---------7---------------7-------|---------7---------------7-------|---------7---------------7-------|
E|-0---0---------------------------|-0---0---------------------------|-0---0---------------------------|


E|---------------------------------|---------------------------------|---------------------------------|
B|---------------------------------|---------------------------------|---------------------------------|
G|-----------------0---------------|-----------------0---------------|-----------------0---------------|
D|-------------6-------6-------6---|-------------6-------6-------6---|-------------6-------6-------6---|
A|---------7---------------7-------|---------7---------------7-------|---------7---------------7-------|
E|-0---0---------------------------|-0---0---------------------------|-0---0---------------------------|


E|---------------------------------|---------------------------------|---------------------------------|
B|---------------------------------|---------------------------------|---------------------------------|
G|-----------------0---------------|-----------------0---------------|-----------------0---------------|
D|-------------6-------6-------6---|-------------6-------6-------6---|-------------6-------6-------6---|
A|---------7---------------7-------|---------7---------------7-------|---------7---------------7-------|
E|-0---0---------------------------|-0---0---------------------------|-0---0---------------------------|


E|---------------------------------|---------------------------------|---------------------------------|
B|---------------------------------|---------------------------------|---------------------------------|
G|-----------------0---------------|-----------------0---------------|-----------------0---------------|
D|-------------6-------6-------6---|-------------6-------6-------6---|-------------6-------6-------6---|
A|---------7---------------7-------|---------7---------------7-------|---------7---------------7-------|
E|-0---0---------------------------|-0---0---------------------------|-0---0---------------------------|


E|---------------------------------|---------------------------------|---------------------------------|
B|---------------------------------|---------------------------------|---------------------------------|
G|-----------------0---------------|-----------------0---------------|-----------------0---------------|
D|-------------6-------6-------6---|-------------6-------6-------6---|-------------6-------6-------6---|
A|---------7---------------7-------|---------7---------------7-------|---------7---------------7-------|
E|-0---0---------------------------|-0---0---------------------------|-0---0---------------------------|


E|---------------------------------|---------------------------------|---------------------------------|
B|---------------------------------|---------------------------------|----------------

Out In The Street Tabs – UFO

 -------------------------------------------------------------------------------
                               Out In The Street - UFO
-------------------------------------------------------------------------------

UFO - Out In The Street
From the  ‘Force It’ (1975)

: Bryan Graham

Tuning: Standard


VERSE 1
e|-------------------|---------------|
B|-------------------|---------------|
G|o-------7---------o|------7--------|
D|o--5----7----7----o|-5----7--------|
A|---5----5----7-----|-5----5--------|
E|---3---------5-----|-3-------------|


PRE-CHORUS
e|---------------------------------------------------|-----|
B|---------------------------------------------------|-----|
G|o--------------------------------------------7----o|-----|
D|o---5-7---7-7--7-5-7---7-7--7-5-7---7-7---5--7----o|-7---|
A|----5-7---7-7--7-5-7---7-7--7-5-7---7-7---5--5-----|-7---|
E|----3-5---5-5--5-3-5---5-5--5-3-5---5-5---3--------|-5---|
                                                       *1st & 3rd time

VERSE 2 & 3
e|----------------|-----------|
B|----------------|-----------|
G|------7---------|------7----|
D|-5----7----7----|-5----7----|
A|-5----5----7----|-5----5----|
E|-3---------5----|-3---------|


CHORUS
e|-------------------------------------|-----------------------|
B|-------------------------------------|-----------------------|
G|-5---------7----7-7--7-7-------5-----|-----------------------|
D|-5----5----7----7-7--7-7--3----5--5--|-5-7--7-7--7-5-7--7-7--|
A|-3----5----5----5-5--5-5--3----3--5--|-5-7--7-7--7-5-7--7-7--|
E|------3-------------------1-------3--|-3-5--5-5--5-3-5--5-5--|

e|-------------------------------------------|
B|-------------------------------------------|
G|-5---------7----7-7--7-7-------------------|
D|-5----5----7----7-7--7-7--3--3--5--5--7----|
A|-3----5----5----5-5--5-5--3--3--5--5--7----|
E|------3-------------------1--1--3--3--5----| 


GUITAR SOLO
e|--------------------------------------------------------------------|
B|-17------19r17-15-17----------------------------------14-15-14------|
G|---------------------16br-14-----14-16-16br-14-----16---------------|
D|------------------------------16------------------------------------|
A|--------------------------------------------------------------------|
E|--------------------------------------------------------------------|

e|--------------------------------------------------------------------|
B|-15p14--------------------------------------------------------------|
G|-------16-14h15p14-----14-13----------------------------------------|
D|-------------------17--------14~----12p11-12p11----11---------------|
A|------------------------------------------------14----12~-----------|
E|--------------------------------------------------------------------|

e|-----------------------------------------------------------------------|
B|-------------------------------------------14-15-14h15p14----14-15-17--|
G|-------------------------------------14-16----------------16-----------|
D|----11-12-11h12p11----12-11-12-14-16-----------------------------------|
A|-12----------------14--------------------------------------------------|
E|-----------------------------------------------------------------------|

e|-14-15-17----19-19brp17-19\-------14-------------------------------|
B|-------------------------------------17-14-17~--15--17-------------|
G|------------------------------16b----------------------16br--14----|
D|-------------------------------------------------------------------|
A|-------------------------------------------------------------------|
E|-------------------------------------------------------------------|

e|-------------------------------------------------------------------|
B|-----------------------------17b-17b-17b-17brp15-17----------------|
G|----------------------------------------------------16brp14----14~-|
D|--16-14-----------------------------------------------------16-----|
A|--------17-16~---15-13-13------------------------

Back Street Girl Tabs – The Rolling Stones Vsion 1

 BACK STREET GIRL

As recorded by The Rolling Stones
(From the 1967 Album FLOWERS)

Words and Music by Mick Jagger & Keith Richards

 Slowhand


Gtr I (D G C F A D) - 'Keith Richards - Acoustic Guitar (1 step down)'


   Intro
    Q=154
    E/A        D/A        A
   3/4
    Gtr I (Ac. Gtr. / 1 step down: D G C F A D) 
    Q  Q  Q    Q  Q  Q    E E E E E E   Q  Q  Q
||-----4-----|----2-----|-------5-----|----5--5--|
||o-------5--|-------3--|-----2---3-5-|----2--2--|
||-----------|----------|---2---------|----2--2--|
||-----------|----------|-------------|----2--2--|
||o-0--------|-0--------|-0-----------|-0--------|
||-----------|----------|-------------|----------|


  E           D           A
  E E Q  Q    E E Q  Q    E E E E E E   Q  E E Q
|-----0-----|-----------|---------5---|----5-5-5---||
|---0----0--|-----3-----|-----2-----3-|-2--2-2-2--o||
|-----------|---2----2--|-------------|----2-2-2---||
|-----------|-0---------|---2---2-----|----2-2-2---||
|-----------|-----------|-0-----------|-----------o||
|-0---------|-----------|-------------|------------||


   1st - 4th Verses
    $
    $$
    E/A        D/A        A
    Q  Q  Q    Q  Q  Q    E E E E E E   Q  Q  Q
||-----4-----|----2-----|-------5-----|----5--5--|
||o-------5--|-------3--|-----2---3-5-|----2--2--|
||-----------|----------|---2---------|----2--2--|
||-----------|----------|-------------|----2--2--|
||o-0--------|-0--------|-0-----------|-0--------|
||-----------|----------|-------------|----------|


  E           D           A
  E E Q  Q    E E Q  Q    E E E E E E   Q  E E Q
|-----0-----|-----------|---------5---|----5-5-5--|
|---0----0--|-----3-----|-----2-----3-|-2--2-2-2--|
|-----------|---2----2--|-------------|----2-2-2--|
|-----------|-0---------|---2---2-----|----2-2-2--|
|-----------|-----------|-0-----------|-----------|
|-0---------|-----------|-------------|-----------|


  E/A        D/A        A
  Q  Q  Q    Q  Q  Q    E E E E E E   Q  Q  Q
|----4-----|----2-----|-------5-----|----5--5--|
|-------5--|-------3--|-----2---3-5-|----2--2--|
|----------|----------|---2---------|----2--2--|
|----------|----------|-------------|----2--2--|
|-0--------|-0--------|-0-----------|-0--------|
|----------|----------|-------------|----------|


  E           D           A
  E E Q  Q    E E Q  Q    E E E E E E   Q  E E Q
|-----0-----|-----------|---------5---|----5-5-5--||
|---0----0--|-----3-----|-----2-----3-|-2--2-2-2--||
|-----------|---2----2--|-------------|----2-2-2--||
|-----------|-0---------|---2---2-----|----2-2-2--||
|-----------|-----------|-0-----------|-----------||
|-0---------|-----------|-------------|-----------||


 Pre-Chorus
  Bm            F#7/A#        Bm
  E E E E E E   E E E E E E   E E E E E E   E E E E E E
|-------2-----|-------0-----|-------2-----|-------2-----|
|-----3---3---|-----2---2---|---------3---|---------3---|
|---4-------4-|---3-------3-|-----4-----4-|-----4-----4-|
|-------------|-------------|---4---------|---4---------|
|-2-----------|-1-----------|-2-----------|-2-----------|
|-------------|-------------|-------------|-------------|


  C#m           D             A
  E E E E E E   E E E E E E   E E E E E E
|-------4-----|-------2-----|-------------|
|---------5---|-----3---3---|-------2-----|
|-----6-----6-|---2-------2-|-----2---2---|
|---6---------|-0-----------|---2-------2-|
|-4-----------|-------------|-0-----------|
|-------------|-------------|-------------|


  E
  Q  E E E E   Q  E E E E   Q  E E E E   Q  E E E E
|----0-0-0-0-|----0-0-0-0-|----0-0-0-0-|----0-0-0-0-||
|----0-0-0-0-|----0-0-0-0-|----0-0-0-0-|----0-0-0-0-||
|----1-1-1-1-|----1-1-1-1-|----1-1-1-1-|----1-1-1-1-||
|----2-2-2-2-|----2-2-2-2-|----2-2-2-2-|----2-2-2-2-||
|----2-2-2-2-|----2-2-2-2-|----2-2-2-2-|----2-2-2-2-||
|-0--0-0-0-0-|-0--0-0-0-0-|-0--0-0-0-0-|-0--0-0-0-0-||


 Chorus
  E/A        D/A        A
  Q  Q  Q    Q  Q  Q    E E E E E E   Q  Q  Q
|----4-----|----2-----|-------5-----|----5--5--|
|-------5--|------

Down The Street To 301 chords – Johnny Cash

 C F C G7 
There's a boy across the street lately he's looked very neat

 C F C G7 C 
Seems he's always on the run down the street to 301

                    F C G7 C 
(Seems he's always on the run down the street to 301)


             F C G7 
Saturday he mows the lawn it's about the crack of dawn

 C F C G7 C 
Nine o'clock the work's all done down the street to 301

                   F C G7 C 
(Nine o'clock the work's all done down the street to 301)


                   F C G7 
When it's back to school this fall winter's chill may end it all

 C F C G7 C 
But for now there's lots of fun with the girl at 301

                      F C G7 C 
(But for now there's lots of fun with the girl at 301)


                 F C G7 
Maybe they will never wed sure they may break up instead

 C F C G7 C 
But for now she is the one the girl who lives at 301

                  F C G7 C 
(But for now she is the one the girl who lives at 301)


                   F C G7 
The boy who lives across the street has a reason to be neat

 C F C G7 C 
He's in love and on the run with the girl at 301

                   F C G7 C 
(He's in love and on the run with the girl at 301)


                    F C G7 
Don't you tell 'em to beware of a summer love affair

 C F C G7 C 
You know she's his only one the girl that lives at 301

                     F C G7 C 
(You know she's his only one the girl that lives at 301)

Street 69 Tabs – Peer Günt

 notation legend:      

/   - slide up
\   - slide down
~   - vibrato
b   - bend 1/4      
ho  - hammer on
po  - pull off

Intro/verse:

E ||--------------------------------||
B ||--------------------------------||
G#||.------------------------------.||
E ||.-0--0--3po0-5po3po0-3po0---0--.||
B ||--------------------------3-----||
E ||--------------------------------||


Bridge:

E |-----------------------------------------|
B |-3/5---3/5-5-----3/5-5-----3/5-5---------|
G#|-3/5---3/5-------3/5-------3/5-------5\--|
E |-------------5---------5---------5---5\--|
B |-----------------------------------------|
E |-----------------------------------------|


Chorus:
                        slow slide
E |-----------------------------------|
B |-/7---/7-7---------\/3   /   5-----|
G#|-/7---/7----7------\/3   /   5--5\-|
E |-/7---/7-------7---\/3   /   5--5\-|
B |-----------------------------------|
E |-----------------------------------|


Alternative verse:

E |------------------------------|------------------------------------|
B |------------------------------|------------------------------------|
G#|------------------------------|------------------------------------|
E |-0--0--3po0-5po3po0-3po0---0--|-0--0--3po0-5po3po0-3po0------------|
B |-------------------------3----|-------------------------3po0-------|
E |------------------------------|------------------------------3b~---|

In Memory Of chords – Hazen Street

 Hazen Street
In Memory Of
Hazen St.
2004
Submitted by: jeremyunderground41

Key: G, D

Tuning: Standard EADGBe

Chords used:
 G  -  320033
 D  -  xx0232
 Em  - 022000
 C  -  x32010
 Am  - x02210
 Bm  - x24432
 A  -  x02220


Intro:

Bm-Am-Bm-C- x4

Bass: G only x4

Then: Bm--G-C-Bm- x3
Bm--G-C-Bm- x3
Bm--A--


Verse 1:
 Bm 
  I don't remember
 G Em 
much today My
     Bm 
memories of you
        C 
are so vague But
   Am Bm 
I will say  I feel
you're watching
 G Em Bm 
over me now  I hope
           C 
that I've made you
 Am Bm 
proud Cause  I remember
         G Em 
how you cared for me
       Bm 
I was only three
         C 
Still I wonder how
    Am Bm 
my life would be
I wish that you were
 G Em 
here with me now
Bm       C(hold)
  Somehow would
    C Bm Am 
it be   the-


Chorus 1:
  G 
-same? To all
my friends
     C 
who passed away
             Am 
Friends and family
Memories will
 D 
never fade with
 Bm 
me And I will
       Em 
never forget you
        Am 
You'll never die
    C D 
as long as I'm
  G 
alive To all my
             C 
friends who passed
away friends and
 Am 
family Memories
      D 
will never fade
      Bm 
with me And I will
       Em 
never forget you
        Am 
You'll never die as
 C D         (hold)
long as I'm alive


Verse 2:
 Bm 
  I never thought that
        G Em 
I'd be writing you this
         Bm 
Man I'm feeling such
                 C 
a pain and emptiness
         Am 
and the loneliness
 Bm 
  It's got me thinking
       G Em 
about all the good
      Bm 
times  I know you're
       C Am 
still by my side
      Bm 
cause  You never
            G 
let me down I never
 Em Bm 
let you down  Always
                 C 
knew how to put a
             Am 
smile on my face now
 Bm 
  How can I make you
       G 
proud Honor you no
 Em Bm 
doubt I'd do anything
if I could bring
    C(hold)  C
you back I'd bring
 Bm Am 
you back-


Chorus 2:
  G 
-now To all
my friends
     C 
who passed away
             Am 
Friends and family
Memories will
 D 
never fade with
 Bm 
me And I will
       Em 
never forget you
        Am 
You'll never die
    C D 
as long as I'm
  G 
alive To all my
             C 
friends who passed
away friends and
 Am 
family Memories
      D 
will never fade
      Bm 
with me And I will
       Em 
never forget you
        Am 
You'll never die as
 C D 
long as I'm alive


Interlude: Bm--G-C-Bm- x4


Bridge:
 Bm 
  I wish that you
      G C Bm 
were here with me
 Bm 
  I wish that you
      G C Bm 
were by my side
 Bm 
  I know you're
          G  
watching over me
 C Bm Bm 
now     So I
     A 
will live my-


Chorus 3:
  

Sorry chords – Hazen Street

 Hazen Street
Sorry
Hazen St.
2004
Submitted by: jeremyunderground41

Key: A

Tuning: Standard EADGBe

Chords used:
 F#m  - 244222
 D  -   xx0232
 A  -   022000
 E  -   022010
 Bm  -  x24432
 C#m  - x46654


Intro:
F#m-A-C#m-Bm- x3
F#m-A-C#m-Bm-E-


Verse 1: Bass Only
 F#m E 
I'm so sorry I've
been impossible
   A 
I know So used to
       Bm E 
being on my own
 F#m 
living so reckless
 E 
Tell me what you
            A 
want me to do
I know you want
     Bm E 
the best for me
        F#m 
and you   And I
     E 
hope you understand
          A 
That I'm trying to
        Bm 
cope I want to be
     E F#m 
something Give me
some more time and
        E 
you'll know Give me
           A 
some more time and
              Bm  E <-- Guitar Enters
I'll show you that


Chorus 1:
 F#m D 
I won't let
     Bm 
you down
         D 
I won't let
     F#m 
you down
        D 
No more oh
   Bm 
no  I won't
 D 
let you down
 F#m D 
I won't let
     Bm 
you down
         D 
I won't let
     F#m 
you down
        D 
No more oh
   Bm 
no  I won't
 D 
let you down
You give me
 C#m 
Something to
live for
Something
to die for
Something
to hope for
Something
              F#m A C#m Bm F#m A C#m Bm E 
to strive for


Verse 2: Bass Only
 F#m 
Same old story
 E 
  I'm irresponsible
   A 
I know Don't want
           Bm E 
to end up on my own
 F#m 
Feeling so helpless
 E 
Tell me what you
            A 
want me to do
I only want the
 Bm E 
best for me and
    F#m 
you   Give me hope
 E 
  Understand that
   A 
I need your help
        Bm 
If I'm going to
        E 
be something
 F#m 
Just a little time
            E 
and you'll know
              A   Bm E <-- Guitar Enters
Just a little time


Chorus 2:
 F#m D 
I won't let
     Bm 
you down
         D 
I won't let
     F#m 
you down
        D 
No more oh
   Bm 
no  I won't
 D 
let you down
 F#m D 
I won't let
     Bm 
you down
         D 
I won't let
     F#m 
you down
        D 
No more oh
   Bm 
no  I won't
 D 
let you down
You give me
 C#m 
Something to
live for
Something
to die for
Something
to hope for
Something
              F#m A C#m Bm 
to strive for


Guitar Solo:
F#m-A-C#m-Bm- x3
F#m-A-C#m-Bm-E


Verse 3: Bass Only
 F#m E 
I'm so sorry I've
been impossible
   A 
I know So used to
       Bm E 
being on my own
 F#m 
Just a little time
            E 
and you'll know
               A Bm E 
Just a little time


Chorus 3:
 F#m D 
I won't let
     Bm 
you down
         D 
I won't let
     F#m 
you down
        D 
No more oh
   Bm 
no  I won't
 D 
let you down
 F#m D 
I won't let
     Bm 
you do

Written chords – Hazen Street

 Hazen Street
Written
Hazen St.
2004
Submitted by: jeremyunderground41

Key: G

Tuning: Standard EADGBe

Chords used:
 Em  - 022000
 C  -  x32010
 G  -  320003
 Am  - x02210
 Bm  - x24432
 D  -  xx0232
 F  -  133211


Intro: Em--Bm--Am--C-D- x2

Check it


Verse 1:
 Em 
  It's written like the
                   Bm 
ink stains on my skin
The good book will tell
                 Am 
you that I have sinned
Well I'm past that
point of no return
 C 
  So I hope that
 D 
I don't burn no
 Em 
  I've done some
bad I must admit
 Bm 
  My life is different
              Am 
than you see fit
But lets not judge
            C 
me just yet Cause
         D 
I'm not finished
      Bm Em Bm Em 
this life
 Bm Em C 
     And only God
can judge me


Chorus 1:
 Em C 
  We lead but never
 G Am Em 
follow Not like you
            C 
And I will never
 G Am 
live by your rules
   Em 
no  We lead but
 C G 
never follow you
 Am Em 
No not you Your
          C 
words to me are
 G 
shallow They're
 Am G Em Bm Am 
just like you
 C D 
  They're just
like you


Verse 2:
 Em 
  Well I've never been
proud of my mistakes
 Bm 
  But I'm proud of who
        Am 
I am today You're
still looking down
      C 
on me Cause I wear
    D 
my heart on my sleeve
 Em 
  And I've done some
bad I must admit
 Bm 
  There is some truth
             Am 
to what you think
But let's not judge
            C 
me just yet Cause
         D 
I'm not finished
      Bm Em Bm Em 
this life
 Bm Em 
     And only
 C 
God can
judge me


Chorus 2:
 Em C 
  We lead but never
 G Am Em 
follow Not like you
            C 
And I will never
 G Am 
live by your rules
   Em 
no  We lead but
 C G 
never follow you
 Am Em 
No not you Your
          C 
words to me are
 G 
shallow They're
 Am G Em F G Em F G Em F G Em F  G(hold)
just like you


Bridge:
 Em F G 
  I rise above you
 Em F G 
  I rise above you
 Em F G 
  I rise above you
 Em F G 
  I rise above you
 C 
  And only God
can judge me


Chorus 3:
 Em C 
  We lead but never
 G Am Em 
follow Not like you
            C 
And I will never
 G Am 
live by your rules
   Em 
no  We lead but
 C G 
never follow you
 Am Em 
No not you Your
          C 
words to me are
 G 
shallow They're
 Am G 
just like you


Outro:
 Em 
  It's written like the
                   Bm 
ink stains on my skin
The good book will tell
                 Am 
you that I have sinned

Two Way Street chords – Kimbra V2

 [Verse 1]
 Dbm Ab 
  I feel the four become five
                               B 
And I'm waiting, waiting, waiting
                                       Gbm 
For you to walk down the boulevard
                               Dbm 
And to take me, take me, take me
                      Ab 
But the moment you appear
                            B 
You wake me, wake me, wake me
                                  Gbm 
Out of the slumbers of my head
                              E 
Down the slums of loneliness


[Chorus]
 E B 
  There's no conspiracy
                          A 
Behind the way two hearts meet
                          Gb 
When love is a two way street   (Love is a two way street)
 E B 
  And I think I'm ready
                        A 
To let you get under my skin
                           Gb 
I can't make you fall for me   (Love is a two way street)


[Verse 2]
               Dbm Ab 
We're coming close to our fame
                                      B 
They'll put a star beside our names
                                 Gbm 
But I couldn't care for the history
                                   Dbm 
When I've got you in front of me
                                 Ab 
But the cars could all collide
                                     B 
The shards of glass won't catch my eye
                             Gbm 
Because you're almost by my side
                                         E 
We're counting down at the green light


[Chorus]
 E B 
  There's no conspiracy
                          A 
Behind the way two hearts meet
                          Gb 
When love is a two way street   (Love is a two way street)
 E B 
  And I think I'm ready
                        A 
To let you get under my skin
                           Gb 
I can't make you fall for me   (Love is a two way street)


[Instrumental:] Dbm (x4)

[Vocalizations:]  E B A Gb  (x2)



[Chorus]
 E B 
  There's no conspiracy
                          A 
Behind the way two hearts meet
                          Gb 
When love is a two way street   (Love is a two way street)
 E B 
  And I think I'm ready
                        A 
To let you get under my skin
                           Gb 
I can't make you fall for me   (Love is a two way street)

Fool The World chords – Hazen Street

 Hazen Street
Fool The World
Hazen St.
2004
Submitted by: jeremyunderground41

Key: G, E

Tuning: Standard EADGBe

Chords used:
 Em  -  022000
 D  -   xx0232
 F#m  - 244222
 A  -   x02220
 E  -   022100
 B  -   x24442


Intro: Em-D- x8


Verse 1:
 Em D  
  I've been to many
       Em 
places  I've seen
 D Em 
many faces Soft
     D 
and hard battle
  Em 
scarred I've
      D 
seen prison bars
 Em D 
  Not for long but
 Em 
long enough to
 D 
write this song
 Em D 
  Right or wrong
       Em 
I'm a product
      D 
of a battle zone
 F#m 
   Lower East Side
       A 
where it's not
       Em 
pretty  Coz I see
 D Em 
many talk it  but can
      D 
they really walk it?
 F#m 
   On the west side
      A 
they show no pity


Chorus 1:
           E 
I see you walking
  A 
around you're
 F#m 
bound by only
 A 
fantasies
 E 
Thinking you're
 A F#m 
hard you know
            A 
it's not reality
 E A F#m 
We all see we know
               A 
you're just a wannabe
    E A 
So fool the world
        F#m(hold)     Em D Em D Em D Em D 
but you can't fool me


Verse 2:
 Em D Em 
  In my home alone
               D 
and on these streets
           Em 
I've seen beefs
     D 
and walked with
           Em 
heat What does
        D 
it all mean to me?
 Em D 
  Not a thing if
   Em 
I don't live to
 D 
write and sing
 Em D 
  About the life
        Em 
about strife
       D 
about everything
 F#m 
   Lower East Side
       A 
where it's not
       Em 
pretty  Coz I see
 D Em 
many talk it  but can
      D 
they really walk it?
 F#m 
   On the west side
      A 
they show no pity


Chorus 2:
           E 
I see you walking
  A 
around you're
 F#m 
bound by only
 A 
fantasies
 E 
Thinking you're
 A F#m 
hard you know
            A 
it's not reality
 E A F#m 
We all see we know
               A 
you're just a wannabe
    E A 
So fool the world
         F#m A 
but you can't fool me
 E A 
walking around
 F#m 
you're bound by
 A 
only fantasies
 E 
Thinking you're
 A F#m 
hard you know
            A 
it's not reality
 E A F#m 
We all see we know
               A 
you're just a wannabe
    E A 
So fool the world
        F#m(hold)
but you can't fool me


Bridge:
 F#m 
  I've seen you come
     A 
and go all you
           F#m 
tough guy clones
When will you
 A 
leave it alone?
 F#m 
  I've seen you come
     A 
and go all you
           F#m 
tough guy clones
You're all from
Front Street
B(hold)
Better keep I
moving kid
You don't know what
you're doing here


Guitar Solo: E-A-F#m-A- x4


Verse 3:

Are You Ready chords – Hazen Street

 Hazen Street
Are You Ready
Hazen St.
2004
Submitted by: jeremyunderground41

Key: G, F

Tuning: Standard EADGBe

Chords used:
 Em  - 022000
 F  -  133211
 G  -  320003
 Bb  - x13331
 Gm  - 355333
 A  -  x02220
 C  -  x32010


Intro: Em--F-G--D--F-Em-- x4 Em(hold)


Verse 1:
 Em F 
  You talk about it
 Gm Bb A 
  Now be about it
 Em F 
  It's not so hard
     G 
to scream and shout
 Bb A Em 
it  Everybody is so
 F 
down when it's
 G Bb A 
safe and sound
     Em 
You wanna prove
 F G Bb A 
something?
            Bb 
Well Do it now
Are you ready
    Gm Bb Gm 
to die for us?
 Bb 
  Are you willing
    C 
to lose your freedom?


Chorus 1:
 Em F G 
  Are you ready?
 D F Em 
  Are you with
       Em 
me or not?
          F G 
Cause I'm  going
     D F 
all out so show
 Em 
me what you got
 Em F G 
  So Are you ready?
 D F Em 
  Are you with
       Em 
me or not?
          F G 
Cause I'm  going
     D F 
all out so show
Em          Em(hold)
me what you got


Verse 2:
 Em F 
  We do or die on
     Gm Bb A 
the front lines
 Em F 
  So when it's time
 Gm Bb 
   you better make
    A Em 
up your mind
       F 
Walk around
         Gm 
talking loud
      Bb A 
in a crowd
     Em 
You wanna prove
 F Gm Bb A 
something?
              Bb 
Well show me now
Are you ready
    Gm Bb Gm 
to die for us?
 Bb 
  Are you willing
    C 
to lose your freedom?


Chorus 2:
 Em F G 
  Are you ready?
 D F Em 
  Are you with
       Em 
me or not?
          F G 
Cause I'm  going
     D F 
all out so show
 Em 
me what you got
 Em F G 
  So Are you ready?
 D F Em 
  Are you with
       Em 
me or not?
          F G 
Cause I'm  going
     D F 
all out so show
 Em 
me what you got


Bass Solo: Em-D-F-D-F-G- x2


Bridge:
Show me
          Em D F D F G Em D F D 
what you got
 F 
Show me
 G Em D F D F G Em D F D F G 
what you got


Verse 3:
 Em F 
  You talk about it
 Gm Bb A 
  Now be about it
 Em F 
  It's not so hard
     G 
to scream and shout
 Bb A Em 
it  Everybody is so
 F 
down when it's
 G Bb A 
safe and sound
     Em 
You wanna prove
 F C 
something?
Do

All That chords – Hazen Street

 Hazen Street
All That
Hazen St.
2004
Submitted by: jeremyunderground41

Key: A

Tuning: Standard EADGBe

Chords used:
 F#m  - 244222
 D  -   xx0232
 A  -   x02220
 E  -   022100
 Bm  -  x24432


Intro:
F#m-A-F#m-A-
F#m-A-F#m-A-F#m-A-F#m-E- x2


Verse 1:
 F#m A F#m A 
    I believed believed
    F#m A 
in you The things
     F#m E 
you said said not
    F#m A 
to do You made the
 F#m A 
rules you always
 F#m A 
broke Behind the
 F#m E 
scenes it's all a
 F#m A F#m 
joke Well I believed
   A F#m 
believed in you
      A F#m 
I've come to realize
     E F#m 
the sad truth You're
 A F#m 
not the person you
 A F#m 
claim to be You're
 A F#m 
not sincere
    E 
to say the least


Refrain:
D(hold)
I wish I could
tell the world


Chorus 1:
 A Bm 
All that
 D 
  That you
     A Bm 
say All that
 D 
  That you
        A Bm 
preach All that 
 D 
  What you sing
 F#m 
Doesn't mean
      E 
mean anything
 A Bm 
All that
 D 
  That you
     A Bm 
say All that
 D 
  That you
        A Bm 
preach All that 
 D 
  What you sing
 F#m 
Doesn't mean
      E F#m A F#m A 
mean anything


Post Chorus:
F#m-A-F#m-A-F#m-A-F#m-E- x2


Verse 2:
 F#m A F#m 
   I've always been
 A F#m A 
been myself Never
 F#m E 
tried to be someone
 F#m A F#m 
else Stayed true
    A F#m 
respected you
      A 
When times were
 F#m E 
tough I saw the
 F#m A 
truth Look up to
 F#m A 
no one except
     F#m 
yourself That's
 A F#m 
what I've learned
      E F#m 
from everyone else
       A F#m 
Cause what I see
        A F#m 
when I look at you
    A F#m 
Is disbelief that's
     E 
the honest truth


(Repeat Refrain)


Chorus 2:
 A Bm 
All that
 D 
  That you
     A Bm 
say All that
 D 
  That you
        A Bm 
preach All that 
 D 
  What you sing
 F#m 
Doesn't mean
      E 
mean anything
 A Bm 
All that
 D 
  That you
     A Bm 
say All that
 D 
  That you
        A Bm 
preach All that 
 D 
  What you sing
 F#m 
Doesn't mean
      E 
mean anything


Interlude: F#m-E-D-E- x2


Bridge:
 F#m E 
I believed
in you
 D E 
I believed
in you
     F#m A 
Now I believe
       Bm 
in me I
belive in me
D(hold)
I wish I could
tell the world
all that


Chorus 3:
 A Bm 
All that
 D 
  That you
     A Bm 
say All that
 D 
  That you
        A Bm 
preach All that 
 D 
  What you

Crossroads Live chords – Hazen Street

 Key: Bb

Tuning: Standard EADGBe

Chords used:
 Gm  - 355333
 F  -  133211
 Eb  - x68886
 Bb  - x13331
 Dm  - xx0231
 F#  - 244322
 G#  - 466544


Chorus 1:
 Gm F 
  I've been up
               Eb 
and I've been down
   F 
I lost my way and
 Gm F 
Nothing seems right
       Eb 
today Nothing will
 F Gm 
go my way  I pick
   F 
myself up off the
 Eb F 
ground And find my
          Gm 
way Wish something
       F 
would change today
      Eb 
Wish somehow
     F 
I'd find my way


Verse 1:
 Dm 
  I woke up in a
daze I don't know
what to do or say
I feel the weight
of the world
         G# 
Holding me back
 Dm 
  Just like yesterday
I drank too much
to numb the pain
Of the everyday
        G# 
Of the everyday


Refrain:
 Gm F 
  It all leads up
 Gm F 
  Leads up to now
     Gm 
The way I choose
    F Eb F F# G# 
to live my life


(Repeat Chorus 1)


Verse 2:
 Dm 
  What more can I
say My life's been 
stuck in disarray
I feel the weight
of the world
         G# 
Holding me back
 Dm 
  Now I see the way
I found myself
through all the
pain Of the
everyday Of
     G# 
the everyday


(Repeat Refrain)
(Repeat Chorus 1)


Interlude: Dm-- x3


Wish I could find
    Dm Dm 
my way  I think
I found my way
I don't feel
so bad today
I walk this
path and see
 Eb F 
Find out
 F# G# 
what's in-


Chorus 2:
  Gm F 
-me I've been up
               Eb 
and I've been down
   F 
I lost my way and
 Gm F 
Nothing seems right
       Eb 
today Nothing will
 F Gm 
go my way  I pick
   F 
myself up off the
 Eb F 
ground And find my
          Gm 
way Wish something
       F 
would change today
      Eb 
Wish somehow
     F 
I'd find my way
      Gm 
Wish somehow
     F 
I'd find my way
      Eb 
Wish somehow
     F 
I'd find my way
      Gm 
Wish somehow
     F 
I'd find my way
      Eb 
Wish somehow
     F 
I'd find my way
 Gm F 
  I pick myself up
         Eb 
off the ground
     F 
And find my way
        Gm 
I wish something
       F 
would change today
 Eb F F# G#  Gm(hold)
Find out what's in me

Trouble chords – Hazen Street

 Hazen Street
Trouble
Hazen St.
2004
Submitted by: jeremyunderground41

Key: E

Tuning: Standard EADGBe

Chords used:
 E  -   022100
 F#m  - 244222
 A  -   x02220
 C#m  - x46654
 D  -   xx0232


Intro: E--F#-- x4


Verse 1:
    E 
So now that you're lying
face down in the concrete
 F#m A 
   It seems to me that you
 E 
didn't understand these
streets No respect for
   F#m 
me   Well you should
 A 
think before you speak
 E 
  I ain't even gonna
try to lie you see
 F#m 
   I really don't
 A 
like to start fights
       E 
But I guess sometimes
I gotta be the
        F#m A 
bad guy   That's why


Refrain 1:
           E 
No matter where we
   F#m A F#m 
go     Everybody says
     E 
we start trouble
    F#m A(hold)
not true It's just-


Chorus 1:
  E 
-everywhere
    F#m 
we go trouble
          E 
seems to find me
   F#m E 
I know Everywhere
    F#m 
we go they say
       E F#m 
we're violent I know


Verse 2:
        E 
So I'm out with the
crew on a Saturday
           F#m 
night yeah   Trying to
                A 
live down the stereotype
      E 
Just friends and fame
having fun tonight
         F#m 
Drink a brew with Hips
         A 
and Mike we're alright
 E 
  But Here they
come knocking again
 F#m 
Shameless warriors
 A 
of the weekend It's the
 E 
same old story with the
             F#m 
same old end   Now you on
     A 
the floor sleeping again


(Repeat Refrain 1)


Chorus 2:
  E 
-everywhere
    F#m 
we go trouble
          E 
seems to find me
   F#m E 
I know Everywhere
    F#m 
we go they say
       E F#m 
we're violent I know


Sang in backup:
I know everywhere we go
everywhere everywhere we go


Bridge:
 A E 
  So I see you're feeling
   C#m A 
uptight tonight don't do
               E 
it And you're looking at
             C#m 
me like you want to fight
       A E 
don't do it Because DMS
           C#m 
is in the house tonight
         D 
so don't No please not
tonight no no please
no not tonight come on


Bass Solo:
 E F#m 
     Mother fuckers
wanna try and
            E F#m 
play around


Refrain 2: Bass Solo continues
           E 
No matter where we
   F#m 
go   They wanna fuck
             E 
around with me and
           F#m(hold)
you so true   Fuck

you whatcha gonna do?


Chorus 3:
 E 
everywhere
    F#m 
we go trouble
          E 
seems to find me
   F#m E 
I know Everywhere
    F#m 
we go they say
       E F#m 
we're violent I know
 E 
everywhere
    F#m 
we go trouble
          E 
seems to find me
   F#m E 
I know Everywhere
    F#m 
we go they say
       E F#m 
we're violent I know
 E 
everywhere
    F#m 
we go trouble
          E 
seems to find me
   F#m E 
I know Everywhere
    F#m 
we go they say
       E F#m 
we're violent I know
 E 
everywhere
    F#m 
we go trouble
          E 

Crossroads chords – Hazen Street

 Hazen Street
Crossroads
Hazen St.
2004
Submitted by: jeremyunderground41

Key: Bb

Tuning: Standard EADGBe

Chords used:
 Gm  - 355333
 F  -  133211
 Eb  - x68886
 Bb  - x13331
 Dm  - xx0231
 G#  - 466544


Chorus 1:
 Gm F 
  I've been up
               Eb 
and I've been down
   F 
I lost my way and
 Gm F 
Nothing seems right
       Eb 
today Nothing will
 F Gm 
go my way  I pick
   F 
myself up off the
 Eb F 
ground And find my
          Gm 
way Wish something
       F 
would change today
      Eb 
Wish somehow
     F 
I'd find my way


Verse 1:
 Dm 
  I woke up in a
daze I don't know
what to do or say
I feel the weight
of the world
         G# 
Holding me back
 Dm 
  Just like yesterday
I drank too much
to numb the pain
Of the everyday
        G# 
Of the everyday


Refrain:
 Gm F 
  It all leads up
 Gm F 
  Leads up to now
     Gm 
The way I choose
    F Eb F G# Bb 
to live my life


(Repeat Chorus 1)


Verse 2:
 Dm 
  What more can I
say My life's been 
stuck in disarray
I feel the weight
of the world
         G# 
Holding me back
 Dm 
  Now I see the way
I found myself
through all the
pain Of the
everyday Of
     G# 
the everyday


(Repeat Refrain)
(Repeat Chorus 1)


Interlude: Dm-- x3


Wish I could find
    Dm Dm 
my way  I think
I found my way
I don't feel
so bad today
I walk this
path and see
 Eb F 
Find out
 F# G# 
what's in-


Chorus 2:
  Gm F 
-me I've been up
               Eb 
and I've been down
   F 
I lost my way and
 Gm F 
Nothing seems right
       Eb 
today Nothing will
 F Gm 
go my way  I pick
   F 
myself up off the
 Eb F 
ground And find my
          Gm 
way Wish something
       F 
would change today
      Eb 
Wish somehow
     F 
I'd find my way
      Gm 
Wish somehow
     F 
I'd find my way
      Eb 
Wish somehow
     F 
I'd find my way
      Gm 
Wish somehow
     F 
I'd find my way
      Eb 
Wish somehow
     F 
I'd find my way
 Gm F 
  I pick myself up
         Eb 
off the ground
     F 
And find my way
        Gm 
I wish something
       F 
would change today
 Eb F G# Bb  Gm(hold)
Find out what's in me

Word On The Street Tabs by Youngblood Brass Band

 -------------------------------------------------------------------------------
                    Word on the Street - Youngblood Brass Band
-------------------------------------------------------------------------------
: Ryan Hancock

Originally played on Sousaphone; a Tuba that wraps around your body.
Use this riff as a basis and add some variations yourself.

If you wish to leave feedback please post a comment.
Thanks.


Tuning: Standard

==========
Basic riff
==========
                  *                 *                  *
G|----------------------------------5----------------------------------------|
D|----------------5------------------------------------5---------------2-----|
A|3------3-------------------------------------------------------------------|
E|---------------------------------------------------------------------------|
                  *                 *                  *
G|----------------5----------------------------------------------------------|
D|3------3-----------------------------------------6-------------------------|
A|----------------------------------6---------6------------------------4-----|
E|---------------------------------------------------------------------------|


| /  slide up
| \  slide down
| h  hammer-on
| p  pull-off
| ~  vibrato
| +  harmonic
| x  Mute note
| *  Start of beat 2, 3 and 4
===============================================================================

The Street Is Full Of Water chords – Rekevin

 Rekevin – The Street Is Full Of Water
=====================================
Note: it's hard to make the guitar chords sound similar to the piano in the original
piece, so you might find yourself playing E5 and C5 in the chorus to hide the thirds.

Play Em on the A string.
=====================================

[Intro]

 Em G F Dm 


[Verse]

 Em G 
Again I'm here in this enchanted kingdom
                               F 
I'll fetch up there before I sing my swan song
                          Dm 
Say why couldn't I visit it many a time
                                    Em 
Every night and day, every day and night
                            G 
And again some odd things happen
                            F 
There's no one whom I can question, 'Oh, why
                                                 Dm 
Is there a sea in the street where it can't be?
                                                     Em 
Should I swim across it or should I find an alternative?'


[Chorus] (2x)

 Em C 
The street is full of water
                           Em 
Up and down my tire is floating
                                  C 
My friends are behind and I'm deserted
                               Em 
My sea route doesn't become shorter


[Solo]

      Em G 
e|------12------12----10--------12------12---10--------------------------|
B|---10------10----------12--10------10---------12-----------------------|
G|-----------------------------------------------------------------------|
D|-----------------------------------------------------------------------|
A|-----------------------------------------------------------------------|
E|-----------------------------------------------------------------------|

      F Dm 
e|------12------12----10--------13------13---13-15-----15s17-------------|
B|---10------10----------12--12------12----------------------------------|
G|-----------------------------------------------------------------------|
D|-----------------------------------------------------------------------|
A|-----------------------------------------------------------------------|
E|-----------------------------------------------------------------------|


[Verse]
 Em 
You're not in joking mood,
          G 
Don't be afraid to get wet
                          F 
In my dream you can do anything, anything
                                                  Dm 
I made my choice indeed and gonna fight all night
                                Em 
All I need is to swim straight
                                            G 
I'm enjoying myself, please, don't try to wake me up
                                         F 
It's not funny, you have already got a swap

Because you missed your work today by sleeping
         Dm Em 
So now relax and cross this flooded fucking street with me


[Chorus]
 Em C 
The street is full of water
                             Em 
Up and down my tire is floating
                                  C 
My friends are behind and I'm deserted
                                    Em 
My sea route doesn't become shorter

                         C 
The street is full of water
                         Em 
The street is full of water
                      C 
My friends are behind
                         Em 
The street is full of water


[Solo]
(as above)


[Intermezzo]
(from Hitchcock's movie "North by