Tag: Sunrise

From Sunrise To Sunset chords – Machine Men

 Gbm E D Gbm E D 
My last sunrise, no more sunsets for me
 Gbm E D 
I can bury my good heart with relief, I'm free
 Gbm E D 
I can smile, taste the tear drop from my eye
 Gbm E D 
Waiting for the breath of wind to give wings for my soul

 Gbm E D 
I have a feeling, this is my day 
 Gbm E D 
Caressing shine and rain
 Gbm E D 
Farewell, this life couldn't last
 Gbm E D 
My heart is weak, the reason is not far to seek

 Gbm A 
The dream of the end
 E B 
Before the journey begins 
 Gbm A 
cold enters the room, 
 E B Gbm 
Then give me the last dance with death

 Gbm E D 
My breathing is heavy, soul reaching for the sky
 Gbm E D 
I've nothing to lose, everything is inside me
 Gbm E D 
Golden memories make me feel alright
 Gbm E D 
Waiting for the moment when my love is by my side

 Gbm A 
The dream of the end
 E B 
Before the journey begins 
 Gbm A 
cold enters the room, 
 E B Gbm 
Then give me the last dance with death

Solo 

 Dbm B A 
My last sunrise, no more sunsets for me
 Dbm B A 
I can bury my good heart with relief, I'm free
 Dbm B A 
I can smile, taste the tear drop from my eye
 Dbm B A 
Waiting for the breath of wind to give wings for my soul

 Ab5 B 
The dream of the end
 Gb Db   
Before the journey begins 
 Ab5 B 
cold enters the room,
 Gb Db 
Then give me the last dance with death

Give Me Your Name Tabs – Dead By Sunrise

 Give Me Your Name - Tab

Tuning:
Guitar I (Rhythm): Dropped D
Guitar II (Heavy Distortion): Dropped D
Guitar III (Acoustic): Standard

Note I: Some parts of guitar II, especially the end of the 
solo, were hard to hear clearly because of the heavy 
distortion.  Also, to get the timing right for guitar II's 
parts, you just need to listen to the song as you play.

Note II: I may add the melody guitar II plays during the chorus
later.  If there is one (which I think there is) it's hard to 
hear and is subtle.

__________________

Key:

/=Slide up
\=Slide down
~=Let ring
b=bend
p=pull off
v=vibrato
()=optional note
-\=I don't know how else to write it, 
but this means slide down the string slowly.
__________________

[Intro (0:00-0:28)]
[Guitar I]
E|------------------------------------------------------------|
B|------------------------------------------------------------|
G|------------------------------------------------------------|
D|------------------------------------------------------------|
A|-9/10~----------7~----------2~----------5~------------------|
D|-9/10~----------7~----------2~----------5~------------------|

[Guitar II]
[0:05-0:28]
E|------------------------------------------------------------|
B|-13bp12bp10~----10/12\10~----10\6---------------------------|
G|----------------------------------7/9~----9\7/9~----9\4-----|
D|----------------------------------------------------9\4-----|
A|------------------------------------------------------------|
D|------------------------------------------------------------|

E|-7~----7-7----------------7------7--------------------------|
B|-8~--------8-8-8----8---8---8------8------------------------|
G|-----------------7----7-------7------7----------------------|
D|------------------------------------------------------------|
A|------------------------------------------------------------|
D|------------------------------------------------------------|

[Verse I (0:29-1:28)]
[Guitar I]
[x2]
E|------------------------------------------------------------|
B|------------------------------------------------------------|
G|------------------------------------------------------------|
D|------------------------------------------------------------|
A|-9/10~----------7~----------2~----------5~------------------|
D|-9/10~----------7~----------2~----------5~------------------|

[Guitar II]
[0:29-0:36]
E|------------------------------------------------------------|
B|---------------------8b--8/10b--10~-------------------------|
G|------------------------------------------------------------|
D|-9/10~------------------------------------------------------|
A|------------------------------------------------------------|
D|------------------------------------------------------------|

[0:50-1:00]
E|------------7---7---------7/10--8p7-------------------------|
B|-----8~--8----8----7/8--------------------------------------|
G|-7\4-7~------------7-7--------------------------------------|
D|-7\4--------------------------------9/10~-------------------|
A|------------------------------------------------------------|
D|------------------------------------------------------------|

[1:04-1:19]
E|------------------------------------------------------------|
B|-8b--8/10b--10~----------8--------------12\10/12~-----------|
G|------------------------------------------------------------|
D|----------------------------(5~)----------------------------|
A|------------------------------------------------------------|
D|------------------------------------------------------------|

[1:20-1:28]
E|----------------------------12v~----------------------------|
B|-10\7/8v~------12\10/12~------------------------------------|
G|------------------------------------------------------------|
D|------------------------------------------------------------|
A|------------------------------------------------------------|
D|------------------------------------------------------------|

[Chorus I (1:29-1:57)]
[Guitar I/II

Velvet Mornings chords – Demis Roussos

 Capo II 

      D C G D C G  
La la la la la la la la la la la la la la la la la la la la la la la la la la la  

 G C G  
Velvet mornings will come every new day 
 G C Am                                
Golden sunrise and the scent of rain 
         D                    
Whisper softly a melody  
    C 
of love words In ecstasy
     G D C G     
as you lie so very close to me 
 
       D C G D C G  
La la la la la la la la la la la la la la la la la la la la la la la la la la la  

 C G                                      
Triki, triki, triiiiiki, triiiki, triki, Mon Amour, triki, triki, triki, triiiiii 
 C G  
Triki, triki, triiiiiki, triiiki, triki, Mon Amour, triki, triki, triki, triiiiii 
 Am G  
Triki, triki, triiiiiki, triiiki, triki, Mon Amour, triki, triki, triki, triiiiii 
 Am F# D7  
Triki, triki, triiiiiki, triiiki, triki, Mon Amour, triki, triki, triki, triiiiiiiiiiiiiii
 
 G C G  
Velvet mornings gently touching my face 
 G C Am                                
Come and find me in your warm embrace 
        D                            
As you wake up and smile to me 
     C                
you make real my reverie
     G D C G                      
and I know my day begins and ends with you 

       D C G D C G  
La la la la la la la la la la la la la la la la la la la la la la la la la la la   
 
 C G                                      
Triki, triki, triiiiiki, triiiki, triki, Mon Amour, triki, triki, triki, triiiiii 
 C G  
Triki, triki, triiiiiki, triiiki, triki, Mon Amour, triki, triki, triki, triiiiii 
 Am G  
Triki, triki, triiiiiki, triiiki, triki, Mon Amour, triki, triki, triki, triiiiii 
 Am F# D7 G 
Triki, triki, triiiiiki, triiiki, triki, Mon Amour, triki, triki, triki, triiiiiiiiiiiiiii

We Will Dance chords – Steven Curtis Chapman

 We Will Dance – Steven Curtis Chapman

Capo 1

Intro:

 D Gm/A# D Gm/A# D Gm/A# 

Verse 1:

 D Gm/A# 
I've watched the sunrise in your eyes 
 D Gm/A# 
And I've seen the tears fall like the rain 
 Bm E/G# G 
You've seen me fight so brave and strong 
                 Gm                
You've held my hand when I'm afraid 
 D Gm/A# 
We've watched the seasons come and go 
 D Gm/A# 
We'll see them come and go again 
 Bm E/G# G 
But in winter's chill, or summer's breeze 
                Gm 
One thing will not be changin' 

Chorus:

 D F#m Bm 
We will dance when the sun is shining 
                 Em Gm 
In the pouring rain, we'll spin and we'll sway 
     D F#m Bm 
And we will dance when the gentle breeze 
                Em Gm 
Becomes a hurricane; the music will play 
           Bm E/G# G 
And I'll take your hand and hold you close to me 
     Gm D 
And we will dance 

Guitar/Piano Interlude:

 D Gm/A# D Gm/A# 


Verse 2:

 D Gm/A# 
Sometimes it's hard to hold you tight 
 D Gm/A# 
Sometimes we feel so far apart 
 Bm E/G# 
Sometimes we dance as one 
      G Gm 
And feel the beating of each others heart 
 D Gm/A# 
Some days the dance is slow and sweet 
 D Gm/A# 
Some days we're bouncing off the walls 
 Bm E/G# 
No matter how this world may turn 
 G Gm 
Our love will keep us from fallin' and

[Chorus]


Interlude:

 D F#7 Bm Em Gm D F#7 Bm Em Gm 
The music will play 
          Bm E/G#         
And I'll hold you close, and I won't let go
      G 
Even when our steps grow weak and slow 
            Bm E/G# G 
Still I'll take your hand and hold you close to me 
     Gm D 
And we, will dance 


Coda:

 D Gm/A# D Gm/A# D Gm/A# 


* Gm/A# E/G# 
e:x        x
B:3        5
G:0        4
D:0        0
A:1        x
E:x        4(thumb)

Island Of The Honest Man chords – Hot Hot Heat

 Great song, thanks chordify.net that helped a lot. Enjoy!



I was picked up and then dropped off in a 
                                             B F#m 
culture counter-clockwise turned around
       C#m 
Dug a hole in Southern Carolina,
 E B F#m 
took me straight to China safe and sound
 A E B F#m  
Donated my map to the lost and found


 C#m 
While working for a common cause 
        E B F#m 
I only got a kamikaze state of mind
           C#m 
This self defeating meeting of the minds
    E B F#m 
is eating what was once so hard to find
     A E B F#m 
But right then the clouds parted in the sky


     A E B 
The horizon took us all a little by surprise
       C º                 C#m     
By surprise, watch the sky
And as the howling winds subdsided,
the locals ran out, all waving their hands and singing:


 E A 
Welcome to the island of the honest man
 E A 
Do what you want - there is no need to impress us     
 E A 
Welcome to the island of the honest man
 E A 
We don't believe in what the big people tell us
 B C º
Wait here - stay here


I was picked up and then dropped off in a 
                                             B F#m 
culture counter-clockwise turned around
          C#m         
Rolled a pair of dice in Paris 
          E B F#m 
that got me to paradise all safe and sound.
 A E B F#m 
Stole my temper back from the lost and found


           A           
No longer needed to be seated on a 
 E B 
sinking ship just waiting there to drown
          C º                C#m 
There to drown - jump off now
And as they lead us to their village,
a thousand voices all started to sing out loud:


 E A 
Welcome to the island of the honest man
 E A 
Do what you want - there is no need to impress us     
 E A 
Welcome to the island of the honest man
 E A 
We don't believe in what the big people tell us
 B C º
Wait here - stay here


 C#m E 
From the sunrise up above to the sunset below, they all sing
 C#m E 
Welcome in, welcome back, well come on let's go
 C#m E 
And all the people on the island they already know why they sing
 C#m E 
Welcome in, welcome back, well come on let's go
 C#m E 
From the sunrise up above to the sunset below, they all sing
 C#m E 
Welcome in, welcome back, well come on let's go
 C#m E 
And all the people on the island they all want to show why they sing,
 C#m 
why they sing, why they sing, why they're singing


 E A 
Welcome to the island of the honest man
 E A 
Do what you want - there is no need to impress us     
 E A 
Welcome to the island of the honest man
 E A 
We don't believe in what the big people tell us


 E A 
Welcome to the island of the honest man
 E A 
This is the island of the honest man
 E A 
Welcome

Too Late Acoustic chords – Dead By Sunrise V2

 Am C D 
It's cold and dark I think I'm going insane
 Am F G 
The end is coming its true
 Am C D 
I'm all alone and I am screaming your name
 Am F G 
It seems that's all I can do

          F G Am C 
But it's too late to turn back now
      F G Am C 
It's too loud to hear a sound
     F G Am C 
I'm so lost I can't be found
      F G Am 
It's too late to turn back now

 Am C D 
It's hard to focus when your life is a blur
 Am F G 
It's hard to see the truth
 Am C D 
How can I move on when there's so much to learn
 Am F G 
And every road comes back to you

         F G Am C 
But its too late to turn back now
      F G Am C 
It's too loud to hear a sound
     F G Am C 
I'm so lost I can't be found
      F G Am 
Its too late to turn back now

         F G Am C 
But it's too late to turn back now
      F G Am C 
It's too loud to hear a sound
     F G Am C 
I'm so lost I can't be found
      F G Am 
It's too late to turn back now

     F G Am C 
I'm so lost I can't be found
      F G Am 
It's too late to turn back now  

Happiness chords – Sunrise Avenue

 Verse 1:
 D G 
I’ve been running far away from love
            A 
I’ve been trying to rise above
 D G 
Thought I’d be cooler with no one
        A F#m 
And I thought it would be easy
 Bm E 
  I thought it’s easy

 D G 
There was not a warning sign on you
             A 
There was nothing I could do
 D G 
You opened all the gates from me
          A F#m 
And you made me see it’s easy
 Bm Em F#m G A 
You just feel the love and sing


Chorus:
 D Em Bm 
Better for worse, to rain or shine
              G 
Now you’re mine, it brings me
 D E 
Happiness happiness happiness
      C G 
You are the one (you bring me happiness)
 D Em Bm 
You call me dear and hold me close
              G 
Give sweet love and it glows
 D E 
Happines happiness happiness
      C G 
You are the one (you bring me happiness)

Verse 2:
 D G 
Lately she’s been dreaming about the one
             A 
About her prince, the golden son
 D G 
  She’s waiting for the perfect match
           A 
But that ain’t quite the catch
      F#m 
It’s easy
 Bm Em F#m A G 
  She should find someone who sings


Chorus:
 D Em Bm 
Better for worse, to rain or shine
              G 
Now you’re mine, it brings me
 D E 
Happiness happiness happiness
      C G 
You are the one (you bring me happiness)
 D Em Bm 
You call me dear and hold me close
              G 
Give sweet love and it glows
 D E 
Happines happiness happiness
      C G 
You are the one (you bring me happiness)


Bridge:
 D G 
Bill and Johnny found a brand new life
           A 
In their bedroom Bill is the wife
 D G 
  They’re holding hands and kissing deep
                 A F#m 
And they don’t need no ladies for them
 Bm 
 It’s so damn easy

 A Em F#m G  (4x)

Chorus:
 D Em Bm 
Better for worse, to rain or shine
              G 
Now you’re mine, it brings me
 D E 
Happiness happiness happiness
      C G 
You are the one (you bring me happiness)
 D Em Bm 
You call me dear and hold me close
              G 
Give sweet love and it glows
 D E 
Happines happiness happiness
      C G 
You are the one (you bring me happiness)

Lifesaver chords – Sunrise Avenue V6

 Sunrise Avenue  Lifesaver   Capo: 4

DeSemmer
"My first Song"
http://www.youtube.com/user/desemmer


Start: Single Notes on G- und D-String:
 D  =  A - D Bm  =  H - F# G =  G - D A  =  A - E 


Intro:  D  (a-d)   8x

   D            ( A )     Bm   I   G               ( A )         D   I
I find it to hard to win        Back on the ground again 
 D             ( A )     Bm (6)  A (2) G              ( A )        D 
  I feel like giving in        But you're my second wind
           G D Bm D 
Don't you ever tire    Facing all my fires 
            G A 
I don't need     no one but you right now   So, I say

Chorus:
 D    I                  G D 
Oh, my friend, you're holding out your hand
   G D G                   
I take it like an oar from the depth
 D F#m G F#m        
Hey, Lifesaver, I'm drowning in despair
            G D G 
But you're fighting for me right until the end. 
     I                           I             D                       
You pull me back to land   and save me once (again)


      D A Bm   I           G A D   
You help me wash away        The insane mistakes I made 
 D A Bm   I     G A D 
And I see it in your face        My only source of grace
             G D Bm D 
No, I don't take for granted       All the time you've wasted 
        G A 
Making sacrifices for a fool       So, I say


Chorus:


  Bm G D 
(You lift me higher)    You hold the fire
 Bm A G A A  I I I
Made up stand tall   But without you I'd fall 


Chorus:


 D G D G D A D 
ohohoh Oh    ohohoh oh oh    ohohoh    oh oh    Oh

Lifesaver Acoustic Tabs by Sunrise Avenue

 Song: Lifesaver
 Unholy Ground
Artist: Sunrise Avenue

half-step down tuning! :)



Eb|------------------|------------------|------------------|------------------|------------------|
Bb|-3---3---3---3----|-3---3---3---3----|-5---5---5---5----|-5---5---5---5----|-1---1---1---1----|
Gb|---0---0---0---0--|---0---0---0---0--|---0---0---0---0--|---0---0---0---0--|---0---0---0---0--|
Db|------------------|------------------|------------------|------------------|------------------|
Ab|------------------|------------------|------------------|------------------|------------------|
Eb|------------------|------------------|------------------|------------------|------------------|


                                                                                                
Eb|------------------|------------------|------------------|------------------|------------------|
Bb|-1---1---1---1----|-3---3---3---3----|-3---3---3---3----|-5---5---5---5----|-5---5---3---3----|
Gb|---0---0---0---0--|---0---0---0---0--|---0---0---0---0--|---0---0---0---0--|---0---0---0---0--|
Db|------------------|------------------|------------------|------------------|------------------|
Ab|------------------|------------------|------------------|------------------|------------------|
Eb|------------------|------------------|------------------|------------------|------------------|


                                                                                                
Eb|------------------|------------------|-7---7---7---7----|-7---7---5---5----|-3---3---3---3----|
Bb|-1---1---1---1----|-1---1---1---1----|-8---8---8---8----|-8---8---7---7----|-5---5---5---5----|
Gb|---0---0---0---0--|---0---0---0---0--|---7---7---7------|---7---7---7---7--|---0---0---0---0--|
Db|------------------|------------------|------------------|------------------|------------------|
Ab|------------------|------------------|------------------|------------------|------------------|
Eb|------------------|------------------|------------------|------------------|------------------|


                                                                                                
Eb|-3---3---2---2----|------------------|------------------|-------3-2-0------|------------------|
Bb|-5---5---3---3----|-1---1---1---1----|-1---1---1---1----|-3---3-------0-1--|-1-3--------------|
Gb|---0---0---0---0--|---0---0---0---0--|---0---0---0---0--|---0--------------|------------------|
Db|------------------|------------------|------------------|------------------|------------------|
Ab|------------------|------------------|------------------|------------------|------------------|
Eb|------------------|------------------|------------------|------------------|------------------|


                                                                                                
Eb|------------------|------------------|------------------|------------------|------------------|
Bb|-3---3---3---3----|-3---3---3---3----|-1---1---1---1----|-3---3---3---3----|-1---1---1---1----|
Gb|-0-0---0---0---0--|-0-0---0---0---0--|-0-0---0---0---0--|-0-0---0---0---0--|-0-0---0---0---0--|
Db|-0----------------|-0----------------|-2----------------|-0----------------|-2----------------|
Ab|------------------|------------------|-3----------------|------------------|-3----------------|
Eb|-3----------------|-3----------------|------------------|-3----------------|------------------|


                                                                                                
Eb|---------2--------|------------------|------------------|------------------|------------------|
Bb|-3---3---3---3----|-1---1---1---1----|-1---1---1---1----|-3---3---3---3----|-3-----3-3---3----|
Gb|-0-0---0-2-2---2--|-0-0---0---0---0--|-0-0---0---0---0--|-0-0---0---0---0--|-4-----4-4---4----|
Db|-0-------0--------|-2----------------|-2----------------|-0----------------|-4---

Give Me Your Name Accoustic chords – Dead By Sunrise

 Intro:  C ,  Am ,  Em ,  G C 
Give me a smile; give me your name girl.
 Am 
Give me a sign to get my way.
                Em 
And get what I came for...(you)...
                       G 
Because you don't come easy.

 C 
Give me your hand; come walk with me girl.
 Am 
Nothing's that far when you're near.
              Em 
So come even closer to me.
              G 
Something so easy to do.


       F C Am 
And I fall into the ocean.
           Em      
Inside of your arms, 
                                G 
Taking me deeper where all the pain goes. 

 C 
Give me a smile; give me your name girl. 
 Am 
Let them know that you're mine. 
                 Em 
And I'll do the same for you. 
                      G 
Because our love comes easy. 

       F C Am 
And I fall into the ocean. 
           Em 
Inside of your arms,
                                G 
Taking me deeper where all the pain goes. 

Bridge:  C ,  Am ,  Em ,  G F C Am 
And I fall into the ocean. 
           Em 
Inside of your arms, 
                                G 
Taking me deeper where all the pain goes. 
        C Am 
With a smile into the ocean. 
           Em 
Inside of your arms,
                            G 
Taking me deeper giving me new life. 
 C Am  
You are my whole life... 
 Em G 
You are my whole life...

Lifesaver Tabs by Sunrise Avenue

 Song: Lifesaver
 Unholy Ground
Artist: Sunrise Avenue

Capo 1

Intro:

E|-1-3-5--1--1-3-5--1--1-3-5--3--1-|
B|-------1---------1---------1--1--|
G|---------------------------------|
D|---------------------------------|
A|---------------------------------|
E|---------------------------------|




Verse 1:
                   
E|------------------|------------------|------------------|
B|-----6-------6----|-----6-------6----|-----6-------6----|
G|---5---5---5---5--|---5---5---5---5--|---5---5---5---5--|
D|------------------|------------------|-7-------7--------|
A|-8-------8--------|-8-------8--------|------------------|
E|------------------|------------------|------------------|


E|------------------|------------------|
B|-----6-------6----|-----6-------6----|
G|---5---5---5---5--|---5---5---5---5--|
D|-8-------8--------|------------------|
A|------------------|-8-------8--------|
E|------------------|------------------| 2x
           F    C
Don't you ever tire
       Dm     C
Facing all my fires

        Bb      Dm                 C  
I don't need no one but you right now


So, I say


Chorus:
F        Am            Bb               F                           
Oh, my friend, you're holding out your hand

   Bb               F   C        Bb                          
I take it like an oar from the depth

F         Am          Bb           F
Hey, Lifesaver, I'm drowning in despair

             Bb             F      C        Bb
But you're fighting for me right until the end.

      F       C       Bb      F
You pull me back to land and save me once again

E|-1-3-5--1---1-3-5--1---1-3-5--3--1-|
B|-------1--1-------1--1-------1--1--|
G|-----------------------------------|
D|-----------------------------------|
A|-----------------------------------|
E|-----------------------------------|


Verse 2:

E|------------------|------------------|------------------|
B|-----6-------6----|-----6-------6----|-----6-------6----|
G|---5---5---5---5--|---5---5---5---5--|---5---5---5---5--|
D|------------------|------------------|-7-------7--------|
A|-8-------8--------|-8-------8--------|------------------|
E|------------------|------------------|------------------|


E|------------------|------------------|
B|-----6-------6----|-----6-------6----|
G|---5---5---5---5--|---5---5---5---5--|
D|-8-------8--------|------------------|
A|------------------|-8-------8--------|
E|------------------|------------------| 2x

              F        C
No, I don't take for granted
         Dm          C
All the time you've wasted
        Bb   Dm          C   
Making sacrifices for a fool
So, I say


Chorus:
F        Am            Bb               F                           
Oh, my friend, you're holding out your hand

   Bb               F   C        Bb                          
I take it like an oar from the depth

F         Am          Bb           F
Hey, Lifesaver, I'm drowning in despair

             Bb             F      C        Bb
But you're fighting for me right until the end.

      F       C       Bb      F
You pull me back to land and save me once again


F           Am  
You lift me higher,
Bb            F    
You hold the fire,
Bb           F      C         Bb
You make me strong enough to stay
F           Am
You lift me higher,
Bb           F
You hold the fire,
Bb            C
Made up stand tall
        Dm           C
But without you I'd fall


Chorus:
F        Am            Bb               F                           
Oh, my friend, you're holding out your hand

   Bb               F   C        Bb                          
I take it like an oar from the depth

F         Am          Bb           F
Hey, Lifesaver, I'm drowning in despair

             Bb             F      C        Bb
But you're fighting for me right until the end.

      F       C       Bb      F
You pull me back to land an

Until The Sunrise chords – Timeflies V2

 Until the Sunrise
Timeflies

Drop D Tuning (DADGAE)
Capo 2

These are the chords that I play (relative to the capo):

        A D F#m E G#m      
e |----0-------0-------0-------0-------0----|
A |----0-------0-------0-------0-------0----|
G |----2-------2-------2-------1-------4----|
D |----2-------0-------4-------2-------6----|
A |----0-------0-------0-------0-------X----|
D |----0-------0-------4-------2-------6----|


Verse 1
 A D F#m D 
It's getting late but I'm not tired
 A D F#m D  
There's no place I'd rather be
 A F#m D 
The night is young I feel inspired
 F#m D E 
I guess we'll have to wait and see


Pre-Chorus
 F#m D 
This night is perfect so don't let it end
 A G#m 
Let's make it worth it cause I got a feelin that
 D                          
When this is over we'll do it again
 G#m                            
So if you feel it stand up, you could put your hands up


Hook (Chorus)
 D F#m E 
Lets stay up until the sunrise
 D F#m E 
We can dance the night away
 D F#m E     
It could be like this forever
 D F#m E  
Until tomorrow is today

              D 
And we could say
         F#m E 
Oh oh oh oh oh oh oh


Bridge pt 1
 F#m E D 
There's no need for time, cause with you it's standing still
                 E 
Only to make me feel like I do now
 F#m D 
Cause we could have it all, till nothing is left to give
                       E 
Like this is our last chance
    A 
Cause that's the only way I live


Breakdown
   F#m 
Is like tomorrow's the end and today's the day so you can save the date
    E 
And you can live it how you wanna live it
              
but you're gonna be givin a whole lot of time just chasin fate
  D 
Everything's gon' be aright, so there's no need to fear
  E 
I'ma take you from the dark to the light 
                               G#m 
so tonight we gonna live like we’re the last ones here
 F#m 
Climbed myself from the bottom of the stars 

to the moon to the clouds now its back to earth
 E 
And I'm sayin what I found on the way down when I touched ground 

is pain don't have to hurt
  D 
So baby let it go, cause girl we're free to run
  E 
So we should live tonight and dance until we see the sun


Bridge pt 2
 F#m D 
This night is perfect
 A D 
Let’s make it worth it


Pre-Chorus
 F#m D 
This night is perfect so don't let it end
 A G#m 
Let's make it worth it cause I got a feelin that
 D                          
When this is over we'll do it again
 G#m                            
So if you feel it stand up, you could put your hands up


Hook (Chorus)
 D F#m E 
Lets stay up until the sunrise
 D F#m E 
We can dance the night away
 D F#m E     
It could be like this forever
 D F#m E  
Until tomorrow is today

              D 
And we could say
         F#m E 
Oh oh oh oh oh oh oh

Kiss N Run chords – Sunrise Avenue

 Song: Kiss 'N' Run
 Popgasm
Artist: Sunrise Avenue

Chords are use as powerchords!

Intro:

 D C# E C#  (4x)

 D C# E C# D 
Feels like the world has let me down
 D E F# E D 
Feels as if I'm ready to drown
 D C# E C# D 
It's 3 a.m., I lie awake
 D E F# E D 
Thinking about my great escape

 D C# E C# D 
I'm fine with all that I have left
 D E F# E D 
I try to breathe and just forget
 D C# E C# D 
I'm flying low because of you
 D E F# E D ___ B 
My every thought leads back to you

 B C G A B 
  I'm not made to kiss and run
           D G 
Say, I'm not the only one
          A B 
Getting over you in a weekend
 G A B 
If on Monday I'll be fine
           D G 
Why can't I sleep tight tonight
           A B 
And just walk away and leave her
G                A               D C# E C# (← that's like the intro)
'Cause I'm not made to kiss and run

 D C# E C# D 
I'm pacing all over this place
 D E F# D 
Tracing the steps we failed to take
 D C# E C# D 
I miss you so inside my head
 D E F# E D 
Have to remember to forget

 D C# E C# D 
It's just those eyes that kill me now
 D E F# 
Intensity still stings my eyes
 D C# E C# D 
I wanna keep this hurting too
 D E F# E D ___ B 
If it's the last touch I had from you

 B C G A B 
  I'm not made to kiss and run
           D G 
Say, I'm not the only one
          A B 
Getting over you in a weekend
 G A B 
If on Monday I'll be fine
           D G 
Why can't I sleep tight tonight
           A B 
And just walk away and leave her
 G A D  
'Cause I'm not made to kiss and run

 D C# E C# D 
I'm fine with all that I have left
 D E F# E D 
I'm trying to live with it every day
 D C# E C# D 
I'm not made to kiss and run

 G A B 
  I'm not made to kiss and run
           D G 
Say, I'm not the only one
          A B 
Getting over you in a weekend
 G A B 
If on Monday I'll be fine
           D G 
Why can't I sleep tight tonight
           A B 
And just walk away and leave her
 G A D C

Something Sweet chords – Sunrise Avenue

 Song: Something Sweet
Artist: Sunrise Avenue
 Popgasm

Intro:
 E B Dbm A   (4x)

 E B 
Come to me close to me
 Dbm A 
Park here beside me 
 E B Dbm A 
Come to me leave the rest far behind
 F# 
Give me a moment
    A 
I need to say something 
 F# 
Give me a moment 
    A B 
I need to say something sweet

 E B Dbm A  (2x)

 E B Dbm 
Can you feel all the same things
           A  
That I'm feeling 
 E B Dbm A 
We are so ready to share all this 
 F# 
Give us a moment 
      A 
We need to do something 
 E 
Give us a moment 
      A B 
We need to do something sweet.

 E B Dbm A  (2x)
 
 B A 
  I have all I need
 E 
I want nothing more 
 B A E 
  Far beyond from them, here with you 
 Abm Dbm  
Would you stay
 A E B Dbm A 
Blow the world away 

 B A 
 This is all I want 
 E 
All I ever had 
 B A E 
 You and I right here a little more 
 Abm Dbm   
Here we'll stay 
 A E B Dbm A 
Something sweet is on the way 

 E B Dbm A E B Dbm A 
Beautiful, Powerful, feeling so strong 
      E B 
The stars close their eyes 
             Dbm A 
They don't need to see
 F# 
You are the reason 
      A 
My whole inspiration 
 F# 
You are the reason 
        A B 
We're making something sweet 

 E B Dbm A  (2x)

 B A 
  I have all I need
 E 
I want nothing more 
 B A E 
  Far beyond from them, here with you 
 Abm Dbm  
Would you stay
 A E B Dbm A 
Blow the world away 

 B A 
 This is all I want 
 E 
All I ever had 
 B A E 
 You and I right here a little more 
 Abm Dbm   
Here we'll stay 
 A E B Dbm A 
Something sweet is on the way 

 E B Dbm A B A 
  I have all I need
 E 
I want nothing more 
 B A E 
  Far beyond from them, here with you 
 Abm Dbm  
Would you stay
 A E B Dbm A 
Blow the world away 

 B A 
 This is all I want 
 E 
All I ever had 
 B A E 
 You and I right here a little more 
 Abm Dbm   
Here we'll stay 
 A E B Dbm A 
Something sweet is on the way 

 E B Dbm A  ('til the end) :)

Sunrise chords – Our Last Night

 Standart tuning. 

Intro:  Em C G D  x2

1st Verse:
 Em C 
Full of despair
 G D 
iside a darkness
 Em C 
Self-conscious and scared
        G D 
held prisoner of war

 Em C 
Running out of air
 G D 
buried in the sadness
 Em C 
want a way out
          G D 
of this paralyzing word

          C G 
And the sound of the cries
         Em D 
when a families loved one dies
     C G 
It echoes throught a vacant room
          Em D C 
where a young soul still resides

Chorus:
           Em C 
When the night is cold
          G D 
and you feel like no one knows
            Em C 
what it's like to be the only one
  G D 
buried in this hole
                         Em C G D 
You can make it to the sunrise
                         Em C G D 
You can make it to the sunrise

2nd Verse:
 Em C 
Searching for a way
 G D 
to escape the madness
    Em C 
a dire need for change
        G D 
as we fight for better days

      C G 
The hurt and the pain
       Em D 
cut deep like a razor blade
  C G 
holding in a cry for love
   Em D C 
abandoned and afraid

Chorus:
           Em C 
When the night is cold
          G D 
and you feel like no one knows
            Em C 
what it's like to be the only one
  G D 
buried in this hole

                         Em C G D 
You can make it to the sunrise
                         Em C G D 
You can make it to the sunrise

Bridge:

 C G 
I won't go to my grave
 Em D C G Em D 
until a difference is made

 C G 
I won't go to my grave
 Em D C     
until a difference is made
            G Em D 
(until a difference is made)

           Em C 
When the night is cold
          G D 
and you feel like no one knows
            Em C 
what it's like to be the only one
  G D 
buried in this hole

                         Em C G D 
You can make it to the sunrise
                         Em C G D 
You can make it to the sunrise

Brigde:
 C G 
I won't go to my grave
 Em D C                     
until a difference is made 
           G 
(until a difference is made)
 Em D 
(until a difference is made)

Outro:
 Em C G D

Sunrise Tabs by Our Last Night

 ----------------------------------------------------------------------------
                            Sunrise
                          Our Last Night
----------------------------------------------------------------------------

What a great way to show that Our Last Night can do more than just cover songs.
“Sunrise” is a beautiful piece with powerful instrumentals. I hope to see more great 
songs by
Our Last Night in the future. Enjoy!

Username: dkm817 (same on X box live)
Youtube Cover: http://www.youtube.com/watch?v=cZ45ul2xCx8
Email: guitardrums@rockfan.com

Guitar 1 Rhythmic (C G C F A D)
Guitar 2 Lead     (C G C F A D)
Guitar 3 Mixed    (C G C F A D)

NOTE: This was exported off of guitar pro.


Guitar 1

                                     H        E  E  E  E
D||-------|-------|-------|-------|--2--------2--0--------|
A||-------|-------|-------|-------|-----------------2--0--|
F||-------|-------|-------|-------|-----------------------|
C||-------|-------|-------|-------|-----------------------|
G||-------|-------|-------|-------|-----------------------|
C||-------|-------|-------|-------|-----------------------|


  H        E  E  Q       Q    Q    Q    Q       Q    H        Q
----------------------|------------0----L----|---------------------|
--2--------2--5--2----|--L-------------------|--0------------------|
----------------------|-----------------2----|-------1--------L----|
----------------------|-------2----L---------|---------------------|
----------------------|----------------------|---------------------|
----------------------|----------------------|---------------------|


  W                   W
-------------------|-------------------|-------------------|-------------------|
-------------------|-------------------|-------------------|-------------------|
--2----------------|--L----------------|-------------------|-------------------|
-------------------|-------------------|-------------------|-------------------|
-------------------|-------------------|-------------------|-------------------|
-------------------|-------------------|-------------------|-------------------|


(00:37)


  ^                    ^                   ^
  W                    W                   W
--0----------------|---9----------------|--5----------------|
--3----------------|--10----------------|--5----------------|
--2----------------|---9----------------|--6----------------|
--4----------------|--11----------------|--7----------------|
-------------------|--------------------|-------------------|
-------------------|--------------------|-------------------|


  ^                   ^                    ^
  W                   W                    W
--4----------------|--0----------------|---9----------------|
--5----------------|--3----------------|--10----------------|
--4----------------|--2----------------|---9----------------|
--6----------------|--4----------------|--11----------------|
-------------------|-------------------|--------------------|
-------------------|-------------------|--------------------|


  ^                   ^                   ^
  W                   W                   W                   W
--5----------------|--4----------------|--0----------------|--L----------------|
--5----------------|--5----------------|--3----------------|--L----------------|
--6----------------|--4----------------|--2----------------|--L----------------|
--7----------------|--6----------------|--4----------------|--L----------------|
-------------------|-------------------|-------------------|-------------------|
-------------------|-------------------|-------------------|-------------------|


   ^                    ^                    ^
   W                    W                    W
---9----------------|--------------------|--------------------|
--10----------------|--10----------------|--------------------|
--11---------

6-0 chords – Sunrise Avenue

 Intro:  C F G   (4x)

Verse 1
 C G F 
   Baby, you are the one
       Dm C 
I can feel it inside my bones
       G F  
   maybe, in the long run 
        Dm C 
You’ll finally feel it´s so 
        G F 
  you say you don´t know 
       Dm G 
if you honestly want my love

Refrain:
           C F 
I’m gonna hunt until I get you 
            Dm G 
and when I get you I will love you 
         C F 
I will hold you, satisfy you
         Dm G C 
you'll never wanna let me go 
           C F 
I’m gonna kick them out of my way 

            Dm G 
I’m gonna find us a place to stay
           C F  
you will love me, satisfy me
           Dm G C  
I’m gonna win this little game 6-0

Verse 2: (Chords are like the first verse;) )
baby, there are boys 
who bring all the roses to you 
and them, sweet toy-boys 
who sweat with their abs, that’s cool 
honey-babe, can't you see 
there's so much more in me
Chorus:
I’m gonna hunt until I get you 
and when I get you I will love you 
I will hold you, satisfy you 
you'll never wanna let me go 
I’m gonna kick them out of my way 
I’m gonna find us a place to stay 
you will love me, satisfy me 
I’m gonna win this little game 6-0 

Sunrise Sunset chords – Fiddler On The Roof

 Sunrise Sunset - from the musical "Fiddler On The Roof"

         Am E7 Am E7 
Tevye   Is this the little girl I carried?
         Am E7 Am A7 
        Is this the little boy at play?
         Dm A7 Dm B B7 E7 
Golde   I don't remember growing older -- When did they?

         Am E7 Am E7 
Tevye   When did she get to be a beauty?
         Am E7 Am A7 
        When did he grow to be so tall?
         Dm A7 Dm B7 E7 
Golde   Wasn't it yesterday when they were small?


         Am Dm6 Am E7 Am Dm6 Am E7 
Men     Sun-rise, sun-set, sun-rise, sun-set,
         Am Dm6 Am Dm6 Am A7 
        Swiftly flow the days;
         Dm7 G7 CM7 C6 
        Seedlings turn overnight to sun-flow'rs,
         Bm7 E7 Am7 
        Blossoming even as we gaze.

         Am Dm6 Am E7 Am Dm6 Am E7 
Women   Sun-rise, sun-set, sun-rise, sun-set,
         Am Dm6 Am Dm6 Am A7 
        Swiftly fly the years;
         Dm7 G7 CM7 C6 
        One season following anoth-er,
         Dm6 E7 E +          Am 
        Laden with hap-pi-ness...and tears.

         Am E7 Am E7 
Tevye   What words of wisdom can I give them, 
         Am E7 Am A7 
        How can I help to ease their way?
         Dm A7 Dm B B7 E7 
Golde   Now they must learn from one another, Day by day.
         Am E7 Am E7 
Perchik They look so natural together.
         Am E7 Am A7 
Hodel   Just like two newlyweds should be.
                   Dm A7 Dm B7 E7 
Perchik & Hodel   Is there a canopy in store for me?

         Am Dm6 Am E7 Am Dm6 Am E7 
All     Sun-rise, sun-set, sun-rise, sun-set,
         Am Dm6 Am Dm6 Am A7 
        Swiftly flow the days;
         Dm7 G7 CM7 C6 
        Seedlings turn overnight to sun-flow'rs,
         Bm7 E7 Am7 
        Blossoming even as we gaze.

         Am Dm6 Am E7 Am Dm6 Am E7 
        Sun-rise, sun-set, sun-rise, sun-set,
         Am Dm6 Am Dm6 Am A7 
        Swiftly fly the years;
         Dm7 G7 CM7 C6 
        One season following anoth-er,
         Dm6 E7 E +          Am 
        Laden with hap-pi-ness...and tears.


Chords    EADGBe

        Am  002210
        A7  002020

Clear Sunrise Tabs by Washya

 -----------------------------------------------------------------------------
                Clear Sunrise - Washya
-----------------------------------------------------------------------------
Tuning: Standard (EBGDAE)
E|-------------1----------3-------|
B|---------------1----------3-----|
G|-7-55-7-99-------2----------4---|
D|-7-55-7-99-3-------3--5-------5-|
A|-5-33-5-77-3----------5---------|
E|-----------1----------3---------|x2

Part 2 (Verses)
E|------------------------------------------|
B|------------------------------------------|
G|-5-5-555-5-4-4-444-4-2-2-222-2--7-777-7-7-|
D|-5-5-555-5-4-4-444-4-2-2-222-2--7-777-7-7-|
A|-3-3-333-3-2-2-222-2-0-0-000-0-/5-555-5-5-|
E|------------------------------------------|
PM * *   * *   *  **   * * **     *  ** * 

Chorus
E|------------------------------------------------------------------------|
B|------------------------------------------------------------------------|
G|----------------------------------------------------------4-7-----------|
D|-----------------------------5-555-5-7--------------------4-7---5-------|
A|-1-2-----2222222222-1-2------5-555-5-7---------2222222222-2-5-7---7-6-2-|
E|-----3-1-0000000000-----3/5--3-333-3-5-5-6-5-3-0000000000-------------0-|
PM         **********                    * * * * ********** 

Walk Along Cattle Drives Chords – Jesse Woods

 Jesse Woods ~ Walk Along Cattle Drives 
(Get Your Burden's Lifted)
(2013)

*Just listen for the Rhythm.



Intro:   C ,  Dm ,  G ,  C ,  Dm ,  G ,



 C A 
Loose ends all around, Never Gonna get me down
 Dm G 
 Always got tomorrow, finish what we started
 C 
 You can getta PomPom, Bye Bye,
 A 
 You can getta hitch on my hide,
 Dm G 
 Always got tomorrow, always shake the sorrow
---------------------------------------------

 C F 
 The energy hits the hardest...
 C F 
 In the morning Darkness
 C F 
 Right before the Sunrise
                          C 
Right before the moon dies
                         F 
Dreams are turnin inside out
 E C 
Dreams are turnin inside out...

 Dm ,  G ,  C Dm ,  G , 


 C 
 Walk along cattle drives,
 A 
 Wishin they live in my eyes,
 Dm 
 I have to be that close to see,
 G                                 
Everything you try to show to me like,
 C 
How to slow down and take it all in,
 A 
Find your love and fall into to be,
 Dm 
Don't look back at everything twice,
 G 
Keep ya blood stream cold as ice,
--------------------------------


The energy hits the hardest...
In the morning Darkness
Right before the Sunrise
Right before the moon dies
dreams are turnin inside out
dreams are turnin inside out...


_______________________________
-------------------------------
-------------------------------
-Hope you enjoy my first tab...